  0
SECTION
  2
HEADER
  9
$ACADVER
  1
AC1018
  9
$ACADMAINTVER
 70
     0
  9
$DWGCODEPAGE
  3
MAC-ROMAN
  9
$INSBASE
 10
0.0
 20
0.0
 30
0.0
  9
$EXTMIN
 10
-52.38294839533336
 20
-831.0
 30
0.0
  9
$EXTMAX
 10
213.9622918549189
 20
-561.8273805582446
 30
0.0
  9
$LIMMIN
 10
0.0
 20
0.0
  9
$LIMMAX
 10
12.0
 20
9.0
  9
$ORTHOMODE
 70
     0
  9
$REGENMODE
 70
     1
  9
$FILLMODE
 70
     1
  9
$QTEXTMODE
 70
     0
  9
$MIRRTEXT
 70
     1
  9
$LTSCALE
 40
1.0
  9
$ATTMODE
 70
     1
  9
$TEXTSIZE
 40
0.2
  9
$TRACEWID
 40
0.05
  9
$TEXTSTYLE
  7
Standard
  9
$CLAYER
  8
0
  9
$CELTYPE
  6
ByLayer
  9
$CECOLOR
 62
   256
  9
$CELTSCALE
 40
1.0
  9
$DISPSILH
 70
     0
  9
$DIMSCALE
 40
1.0
  9
$DIMASZ
 40
0.18
  9
$DIMEXO
 40
0.0625
  9
$DIMDLI
 40
0.38
  9
$DIMRND
 40
0.0
  9
$DIMDLE
 40
0.0
  9
$DIMEXE
 40
0.18
  9
$DIMTP
 40
0.0
  9
$DIMTM
 40
0.0
  9
$DIMTXT
 40
0.18
  9
$DIMCEN
 40
0.09
  9
$DIMTSZ
 40
0.0
  9
$DIMTOL
 70
     0
  9
$DIMLIM
 70
     0
  9
$DIMTIH
 70
     1
  9
$DIMTOH
 70
     1
  9
$DIMSE1
 70
     0
  9
$DIMSE2
 70
     0
  9
$DIMTAD
 70
     0
  9
$DIMZIN
 70
     0
  9
$DIMBLK
  1

  9
$DIMASO
 70
     1
  9
$DIMSHO
 70
     1
  9
$DIMPOST
  1

  9
$DIMAPOST
  1

  9
$DIMALT
 70
     0
  9
$DIMALTD
 70
     2
  9
$DIMALTF
 40
25.4
  9
$DIMLFAC
 40
1.0
  9
$DIMTOFL
 70
     0
  9
$DIMTVP
 40
0.0
  9
$DIMTIX
 70
     0
  9
$DIMSOXD
 70
     0
  9
$DIMSAH
 70
     0
  9
$DIMBLK1
  1

  9
$DIMBLK2
  1

  9
$DIMSTYLE
  2
Standard
  9
$DIMCLRD
 70
     0
  9
$DIMCLRE
 70
     0
  9
$DIMCLRT
 70
     0
  9
$DIMTFAC
 40
1.0
  9
$DIMGAP
 40
0.09
  9
$DIMJUST
 70
     0
  9
$DIMSD1
 70
     0
  9
$DIMSD2
 70
     0
  9
$DIMTOLJ
 70
     1
  9
$DIMTZIN
 70
     0
  9
$DIMALTZ
 70
     0
  9
$DIMALTTZ
 70
     0
  9
$DIMUPT
 70
     0
  9
$DIMDEC
 70
     4
  9
$DIMTDEC
 70
     4
  9
$DIMALTU
 70
     2
  9
$DIMALTTD
 70
     2
  9
$DIMTXSTY
  7
Standard
  9
$DIMAUNIT
 70
     0
  9
$DIMADEC
 70
     0
  9
$DIMALTRND
 40
0.0
  9
$DIMAZIN
 70
     0
  9
$DIMDSEP
 70
    46
  9
$DIMATFIT
 70
     3
  9
$DIMFRAC
 70
     0
  9
$DIMLDRBLK
  1

  9
$DIMLUNIT
 70
     2
  9
$DIMLWD
 70
    -2
  9
$DIMLWE
 70
    -2
  9
$DIMTMOVE
 70
     2
  9
$LUNITS
 70
     2
  9
$LUPREC
 70
     2
  9
$SKETCHINC
 40
0.1
  9
$FILLETRAD
 40
0.5
  9
$AUNITS
 70
     0
  9
$AUPREC
 70
     0
  9
$MENU
  1
.
  9
$ELEVATION
 40
0.0
  9
$PELEVATION
 40
0.0
  9
$THICKNESS
 40
0.0
  9
$LIMCHECK
 70
     0
  9
$CHAMFERA
 40
0.0
  9
$CHAMFERB
 40
0.0
  9
$CHAMFERC
 40
0.0
  9
$CHAMFERD
 40
0.0
  9
$SKPOLY
 70
     0
  9
$TDCREATE
 40
2457201.840740741
  9
$TDUCREATE
 40
2457201.799074074
  9
$TDUPDATE
 40
2457201.840775463
  9
$TDUUPDATE
 40
2457201.799108796
  9
$TDINDWG
 40
0.0000000116
  9
$TDUSRTIMER
 40
0.0000000116
  9
$USRTIMER
 70
     1
  9
$ANGBASE
 50
0.0
  9
$ANGDIR
 70
     0
  9
$PDMODE
 70
     0
  9
$PDSIZE
 40
0.0
  9
$PLINEWID
 40
0.0
  9
$SPLFRAME
 70
     0
  9
$SPLINETYPE
 70
     6
  9
$SPLINESEGS
 70
     8
  9
$HANDSEED
  5
274
  9
$SURFTAB1
 70
     6
  9
$SURFTAB2
 70
     6
  9
$SURFTYPE
 70
     6
  9
$SURFU
 70
     6
  9
$SURFV
 70
     6
  9
$UCSBASE
  2

  9
$UCSNAME
  2

  9
$UCSORG
 10
0.0
 20
0.0
 30
0.0
  9
$UCSXDIR
 10
1.0
 20
0.0
 30
0.0
  9
$UCSYDIR
 10
0.0
 20
1.0
 30
0.0
  9
$UCSORTHOREF
  2

  9
$UCSORTHOVIEW
 70
     0
  9
$UCSORGTOP
 10
0.0
 20
0.0
 30
0.0
  9
$UCSORGBOTTOM
 10
0.0
 20
0.0
 30
0.0
  9
$UCSORGLEFT
 10
0.0
 20
0.0
 30
0.0
  9
$UCSORGRIGHT
 10
0.0
 20
0.0
 30
0.0
  9
$UCSORGFRONT
 10
0.0
 20
0.0
 30
0.0
  9
$UCSORGBACK
 10
0.0
 20
0.0
 30
0.0
  9
$PUCSBASE
  2

  9
$PUCSNAME
  2

  9
$PUCSORG
 10
0.0
 20
0.0
 30
0.0
  9
$PUCSXDIR
 10
1.0
 20
0.0
 30
0.0
  9
$PUCSYDIR
 10
0.0
 20
1.0
 30
0.0
  9
$PUCSORTHOREF
  2

  9
$PUCSORTHOVIEW
 70
     0
  9
$PUCSORGTOP
 10
0.0
 20
0.0
 30
0.0
  9
$PUCSORGBOTTOM
 10
0.0
 20
0.0
 30
0.0
  9
$PUCSORGLEFT
 10
0.0
 20
0.0
 30
0.0
  9
$PUCSORGRIGHT
 10
0.0
 20
0.0
 30
0.0
  9
$PUCSORGFRONT
 10
0.0
 20
0.0
 30
0.0
  9
$PUCSORGBACK
 10
0.0
 20
0.0
 30
0.0
  9
$USERI1
 70
     0
  9
$USERI2
 70
     0
  9
$USERI3
 70
     0
  9
$USERI4
 70
     0
  9
$USERI5
 70
     0
  9
$USERR1
 40
0.0
  9
$USERR2
 40
0.0
  9
$USERR3
 40
0.0
  9
$USERR4
 40
0.0
  9
$USERR5
 40
0.0
  9
$WORLDVIEW
 70
     1
  9
$SHADEDGE
 70
     3
  9
$SHADEDIF
 70
    70
  9
$TILEMODE
 70
     1
  9
$MAXACTVP
 70
    64
  9
$PINSBASE
 10
0.0
 20
0.0
 30
0.0
  9
$PLIMCHECK
 70
     0
  9
$PEXTMIN
 10
1.000000000000000E+20
 20
1.000000000000000E+20
 30
1.000000000000000E+20
  9
$PEXTMAX
 10
-1.000000000000000E+20
 20
-1.000000000000000E+20
 30
-1.000000000000000E+20
  9
$PLIMMIN
 10
0.0
 20
0.0
  9
$PLIMMAX
 10
12.0
 20
9.0
  9
$UNITMODE
 70
     0
  9
$VISRETAIN
 70
     1
  9
$PLINEGEN
 70
     0
  9
$PSLTSCALE
 70
     1
  9
$TREEDEPTH
 70
  3020
  9
$CMLSTYLE
  2
Standard
  9
$CMLJUST
 70
     0
  9
$CMLSCALE
 40
1.0
  9
$PROXYGRAPHICS
 70
     1
  9
$MEASUREMENT
 70
     0
  9
$CELWEIGHT
370
    -1
  9
$ENDCAPS
280
     0
  9
$JOINSTYLE
280
     0
  9
$LWDISPLAY
290
     0
  9
$INSUNITS
 70
     4
  9
$HYPERLINKBASE
  1

  9
$STYLESHEET
  1

  9
$XEDIT
290
     1
  9
$CEPSNTYPE
380
     0
  9
$PSTYLEMODE
290
     1
  9
$FINGERPRINTGUID
  2
{C26DC0C9-70EB-4748-A32D-6713097DE007}
  9
$VERSIONGUID
  2
{FAEB1C32-E019-11D5-929B-00C0DF256EC4}
  9
$EXTNAMES
290
     1
  9
$PSVPSCALE
 40
0.0
  9
$OLESTARTUP
290
     0
  9
$SORTENTS
280
   127
  9
$INDEXCTL
280
     0
  9
$HIDETEXT
280
     1
  9
$XCLIPFRAME
290
     0
  9
$HALOGAP
280
     0
  9
$OBSCOLOR
 70
   257
  9
$OBSLTYPE
280
     0
  9
$INTERSECTIONDISPLAY
280
     0
  9
$INTERSECTIONCOLOR
 70
   257
  9
$DIMASSOC
280
     2
  9
$PROJECTNAME
  1

  0
ENDSEC
  0
SECTION
  2
CLASSES
  0
CLASS
  1
ACDBDICTIONARYWDFLT
  2
AcDbDictionaryWithDefault
  3
ObjectDBX Classes
 90
        0
 91
        4
280
     0
281
     0
  0
CLASS
  1
VISUALSTYLE
  2
AcDbVisualStyle
  3
ObjectDBX Classes
 90
     4095
 91
        4
280
     0
281
     0
  0
CLASS
  1
MATERIAL
  2
AcDbMaterial
  3
ObjectDBX Classes
 90
     1153
 91
        4
280
     0
281
     0
  0
CLASS
  1
SCALE
  2
AcDbScale
  3
ObjectDBX Classes
 90
     1153
 91
        4
280
     0
281
     0
  0
CLASS
  1
TABLESTYLE
  2
AcDbTableStyle
  3
ObjectDBX Classes
 90
     4095
 91
        4
280
     0
281
     0
  0
CLASS
  1
MLEADERSTYLE
  2
AcDbMLeaderStyle
  3
ACDB_MLEADERSTYLE_CLASS
 90
     4095
 91
        4
280
     0
281
     0
  0
CLASS
  1
SUN
  2
AcDbSun
  3
SCENEOE
 90
     1153
 91
        4
280
     0
281
     0
  0
CLASS
  1
DICTIONARYVAR
  2
AcDbDictionaryVar
  3
ObjectDBX Classes
 90
        0
 91
        4
280
     0
281
     0
  0
CLASS
  1
CELLSTYLEMAP
  2
AcDbCellStyleMap
  3
ObjectDBX Classes
 90
     1152
 91
        4
280
     0
281
     0
  0
ENDSEC
  0
SECTION
  2
TABLES
  0
TABLE
  2
VPORT
  5
8
102
{ACAD_XDICTIONARY
360
22D
102
}
330
0
100
AcDbSymbolTable
 70
     1
  0
VPORT
  5
29
330
8
100
AcDbSymbolTableRecord
100
AcDbViewportTableRecord
  2
*Active
 70
     0
 10
0.0
 20
0.0
 11
1.0
 21
1.0
 12
80.78967172979279
 22
-696.4136902791223
 13
0.0
 23
0.0
 14
0.5
 24
0.5
 15
0.5
 25
0.5
 16
0.0
 26
0.0
 36
1.0
 17
0.0
 27
0.0
 37
0.0
 40
274.5560718305905
 41
0.9894960371624465
 42
50.0
 43
0.0
 44
0.0
 50
0.0
 51
0.0
 71
     0
 72
   100
 73
     1
 74
     3
 75
     0
 76
     0
 77
     0
 78
     0
281
     0
 65
     1
110
0.0
120
0.0
130
0.0
111
1.0
121
0.0
131
0.0
112
0.0
122
1.0
132
0.0
 79
     0
146
0.0
  0
ENDTAB
  0
TABLE
  2
LTYPE
  5
5
330
0
100
AcDbSymbolTable
 70
     1
  0
LTYPE
  5
14
330
5
100
AcDbSymbolTableRecord
100
AcDbLinetypeTableRecord
  2
ByBlock
 70
     0
  3

 72
    65
 73
     0
 40
0.0
  0
LTYPE
  5
15
330
5
100
AcDbSymbolTableRecord
100
AcDbLinetypeTableRecord
  2
ByLayer
 70
     0
  3

 72
    65
 73
     0
 40
0.0
  0
LTYPE
  5
16
330
5
100
AcDbSymbolTableRecord
100
AcDbLinetypeTableRecord
  2
Continuous
 70
     0
  3
Solid line
 72
    65
 73
     0
 40
0.0
  0
ENDTAB
  0
TABLE
  2
LAYER
  5
2
330
0
100
AcDbSymbolTable
 70
     2
  0
LAYER
  5
10
330
2
100
AcDbSymbolTableRecord
100
AcDbLayerTableRecord
  2
0
 70
     0
 62
     7
  6
Continuous
370
    -3
390
F
  0
LAYER
  5
6E
330
2
100
AcDbSymbolTableRecord
100
AcDbLayerTableRecord
  2
telaio33cm
 70
     0
 62
     5
420
      255
  6
Continuous
370
    -3
390
F
  0
ENDTAB
  0
TABLE
  2
STYLE
  5
3
330
0
100
AcDbSymbolTable
 70
     1
  0
STYLE
  5
11
330
3
100
AcDbSymbolTableRecord
100
AcDbTextStyleTableRecord
  2
Standard
 70
     0
 40
0.0
 41
1.0
 50
0.0
 71
     0
 42
0.2
  3
txt
  4

  0
ENDTAB
  0
TABLE
  2
VIEW
  5
6
330
0
100
AcDbSymbolTable
 70
     0
  0
ENDTAB
  0
TABLE
  2
UCS
  5
7
330
0
100
AcDbSymbolTable
 70
     0
  0
ENDTAB
  0
TABLE
  2
APPID
  5
9
330
0
100
AcDbSymbolTable
 70
     2
  0
APPID
  5
12
330
9
100
AcDbSymbolTableRecord
100
AcDbRegAppTableRecord
  2
ACAD
 70
     0
  0
APPID
  5
26C
330
9
100
AcDbSymbolTableRecord
100
AcDbRegAppTableRecord
  2
ACAD_MLEADERVER
 70
     0
  0
ENDTAB
  0
TABLE
  2
DIMSTYLE
  5
A
330
0
100
AcDbSymbolTable
 70
     1
100
AcDbDimStyleTable
  0
DIMSTYLE
105
27
330
A
100
AcDbSymbolTableRecord
100
AcDbDimStyleTableRecord
  2
Standard
 70
     0
178
     0
340
11
  0
ENDTAB
  0
TABLE
  2
BLOCK_RECORD
  5
1
330
0
100
AcDbSymbolTable
 70
     1
  0
BLOCK_RECORD
  5
1F
330
1
100
AcDbSymbolTableRecord
100
AcDbBlockTableRecord
  2
*Model_Space
340
22
  0
BLOCK_RECORD
  5
1B
330
1
100
AcDbSymbolTableRecord
100
AcDbBlockTableRecord
  2
*Paper_Space
340
1E
  0
BLOCK_RECORD
  5
23
330
1
100
AcDbSymbolTableRecord
100
AcDbBlockTableRecord
  2
*Paper_Space0
340
26
  0
ENDTAB
  0
ENDSEC
  0
SECTION
  2
BLOCKS
  0
BLOCK
  5
20
330
1F
100
AcDbEntity
  8
0
100
AcDbBlockBegin
  2
*Model_Space
 70
     0
 10
0.0
 20
0.0
 30
0.0
  3
*Model_Space
  1

  0
ENDBLK
  5
21
330
1F
100
AcDbEntity
  8
0
100
AcDbBlockEnd
  0
BLOCK
  5
1C
330
1B
100
AcDbEntity
 67
     1
  8
0
100
AcDbBlockBegin
  2
*Paper_Space
 70
     0
 10
0.0
 20
0.0
 30
0.0
  3
*Paper_Space
  1

  0
ENDBLK
  5
1D
330
1B
100
AcDbEntity
 67
     1
  8
0
100
AcDbBlockEnd
  0
BLOCK
  5
24
330
23
100
AcDbEntity
  8
0
100
AcDbBlockBegin
  2
*Paper_Space0
 70
     0
 10
0.0
 20
0.0
 30
0.0
  3
*Paper_Space0
  1

  0
ENDBLK
  5
25
330
23
100
AcDbEntity
  8
0
100
AcDbBlockEnd
  0
ENDSEC
  0
SECTION
  2
ENTITIES
  0
SPLINE
  5
6F
330
1F
100
AcDbEntity
  8
telaio33cm
100
AcDbSpline
210
0.0
220
0.0
230
1.0
 70
     8
 71
     3
 72
     8
 73
     4
 74
     0
 42
0.000000001
 43
0.0000000001
 40
2836.879529681047
 40
2836.879529681047
 40
2836.879529681047
 40
2836.879529681047
 40
2963.736915258298
 40
2963.736915258298
 40
2963.736915258298
 40
2963.736915258298
 10
95.61812008650043
 20
-738.6101700490631
 30
0.0
 10
118.1423069535418
 20
-746.8025051331063
 30
0.0
 10
143.6943297175333
 20
-773.7286869393844
 30
0.0
 10
185.7949931935925
 20
-823.339841561406
 30
0.0
  0
ARC
  5
70
330
1F
100
AcDbEntity
  8
telaio33cm
100
AcDbCircle
 10
197.4622918549189
 20
-811.6726164436923
 30
0.0
 40
16.5
100
AcDbArc
 50
224.9998194204153
 51
45.00000000001592
  0
SPLINE
  5
71
330
1F
100
AcDbEntity
  8
telaio33cm
100
AcDbSpline
210
0.0
220
0.0
230
1.0
 70
     8
 71
     3
 72
     8
 73
     4
 74
     0
 42
0.000000001
 43
0.0000000001
 40
3015.573246045721
 40
3015.573246045721
 40
3015.573246045721
 40
3015.573246045721
 40
3142.430655146814
 40
3142.430655146814
 40
3142.430655146814
 40
3142.430655146814
 10
209.1295537444937
 20
-800.005354554111
 30
0.0
 10
159.5183721924332
 20
-757.9046726808417
 30
0.0
 10
132.5921772680574
 20
-732.3526422091254
 30
0.0
 10
124.3998402167963
 20
-709.8284486947402
 30
0.0
  0
SPLINE
  5
72
330
1F
100
AcDbEntity
  8
telaio33cm
100
AcDbSpline
210
0.0
220
0.0
230
1.0
 70
     8
 71
     3
 72
     9
 73
     5
 74
     0
 42
0.000000001
 43
0.0000000001
 40
3142.430655146814
 40
3142.430655146814
 40
3142.430655146814
 40
3142.430655146814
 40
3170.838969836147
 40
3199.247284291189
 40
3199.247284291189
 40
3199.247284291189
 40
3199.247284291189
 10
124.3998402167963
 20
-709.8284486947402
 30
0.0
 10
122.5652568791543
 20
-704.7844045035953
 30
0.0
 10
120.7750456588901
 20
-695.000000046951
 30
0.0
 10
122.5652568643902
 20
-685.2155955903066
 30
0.0
 10
124.3998404223642
 20
-680.1715512024598
 30
0.0
  0
SPLINE
  5
73
330
1F
100
AcDbEntity
  8
telaio33cm
100
AcDbSpline
210
0.0
220
0.0
230
1.0
 70
     8
 71
     3
 72
     8
 73
     4
 74
     0
 42
0.000000001
 43
0.0000000001
 40
3199.247284291189
 40
3199.247284291189
 40
3199.247284291189
 40
3199.247284291189
 40
3326.10465660834
 40
3326.10465660834
 40
3326.10465660834
 40
3326.10465660834
 10
124.3998404223642
 20
-680.1715512024598
 30
0.0
 10
132.5921761496079
 20
-657.6473631551213
 30
0.0
 10
159.5183638827039
 20
-632.0953351295091
 30
0.0
 10
209.1295512858071
 20
-589.9946430003996
 30
0.0
  0
ARC
  5
74
330
1F
100
AcDbEntity
  8
telaio33cm
100
AcDbCircle
 10
197.4622893962273
 20
-578.3273811108231
 30
0.0
 40
16.5
100
AcDbArc
 50
315.0000000000077
 51
135.0000000000165
  0
SPLINE
  5
75
330
1F
100
AcDbEntity
  8
telaio33cm
100
AcDbSpline
210
0.0
220
0.0
230
1.0
 70
     8
 71
     3
 72
     8
 73
     4
 74
     0
 42
0.000000001
 43
0.0000000001
 40
3377.940935392574
 40
3377.940935392574
 40
3377.940935392574
 40
3377.940935392574
 40
3504.798307660362
 40
3504.798307660362
 40
3504.798307660362
 40
3504.798307660362
 10
185.795027506646
 20
-566.6601192212485
 30
0.0
 10
143.6943232097672
 20
-616.2713194444507
 30
0.0
 10
118.1423020016298
 20
-643.1974962896946
 30
0.0
 10
95.61811933088438
 20
-651.3898300751237
 30
0.0
  0
SPLINE
  5
76
330
1F
100
AcDbEntity
  8
telaio33cm
100
AcDbSpline
210
0.0
220
0.0
230
1.0
 70
     8
 71
     3
 72
     9
 73
     5
 74
     0
 42
0.000000001
 43
0.0000000001
 40
3504.798307660362
 40
3504.798307660362
 40
3504.798307660362
 40
3504.798307660362
 40
3533.206622164766
 40
3561.614937167662
 40
3561.614937167662
 40
3561.614937167662
 40
3561.614937167662
 10
95.61811933088438
 20
-651.3898300751237
 30
0.0
 10
90.57407493374558
 20
-653.22441363955
 30
0.0
 10
80.78967041460191
 20
-655.0146248595956
 30
0.0
 10
71.00526589545825
 20
-653.2244136081362
 30
0.0
 10
65.96122163361133
 20
-651.38983024118
 30
0.0
  0
SPLINE
  5
77
330
1F
100
AcDbEntity
  8
telaio33cm
100
AcDbSpline
210
0.0
220
0.0
230
1.0
 70
     8
 71
     3
 72
     8
 73
     4
 74
     0
 42
0.000000001
 43
0.0000000001
 40
3561.614937167662
 40
3561.614937167662
 40
3561.614937167662
 40
3561.614937167662
 40
3688.472345955191
 40
3688.472345955191
 40
3688.472345955191
 40
3688.472345955191
 10
65.96122163361133
 20
-651.38983024118
 30
0.0
 10
43.43702810779774
 20
-643.1974931696905
 30
0.0
 10
17.88499737339185
 20
-616.2712985407406
 30
0.0
 10
-24.21568595317848
 20
-566.6601186686651
 30
0.0
  0
ARC
  5
78
330
1F
100
AcDbEntity
  8
telaio33cm
100
AcDbCircle
 10
-35.88294784275496
 20
-578.3273805582446
 30
0.0
 40
16.5
100
AcDbArc
 50
45.00000000000748
 51
225.0000000000164
  0
SPLINE
  5
79
330
1F
100
AcDbEntity
  8
telaio33cm
100
AcDbSpline
210
0.0
220
0.0
230
1.0
 70
     8
 71
     3
 72
     8
 73
     4
 74
     0
 42
0.000000001
 43
0.0000000001
 40
3740.308624739426
 40
3740.308624739426
 40
3740.308624739426
 40
3740.308624739426
 40
3867.166011983078
 40
3867.166011983078
 40
3867.166011983078
 40
3867.166011983078
 10
-47.55020973232962
 20
-589.994642447826
 30
0.0
 10
2.060989982019294
 20
-632.0953471474888
 30
0.0
 10
28.98716673975343
 20
-657.6473684278177
 30
0.0
 10
37.17950054392725
 20
-680.1715510946303
 30
0.0
  0
SPLINE
  5
7A
330
1F
100
AcDbEntity
  8
telaio33cm
100
AcDbSpline
210
0.0
220
0.0
230
1.0
 70
     8
 71
     3
 72
     9
 73
     5
 74
     0
 42
0.000000001
 43
0.0000000001
 40
3867.166011983078
 40
3867.166011983078
 40
3867.166011983078
 40
3867.166011983078
 40
3895.574330020735
 40
3923.982648230195
 40
3923.982648230195
 40
3923.982648230195
 40
3923.982648230195
 10
37.17950054392725
 20
-680.1715510946303
 30
0.0
 10
39.01408412414781
 20
-685.2155955227724
 30
0.0
 10
40.80429535239142
 20
-695.0000000361895
 30
0.0
 10
39.01408411332096
 20
-704.7844045496065
 30
0.0
 10
37.17950050725739
 20
-709.8284490067052
 30
0.0
  0
SPLINE
  5
7B
330
1F
100
AcDbEntity
  8
telaio33cm
100
AcDbSpline
210
0.0
220
0.0
230
1.0
 70
     8
 71
     3
 72
     8
 73
     4
 74
     0
 42
0.000000001
 43
0.0000000001
 40
3923.982648230195
 40
3923.982648230195
 40
3923.982648230195
 40
3923.982648230195
 40
4050.840035302043
 40
4050.840035302043
 40
4050.840035302043
 40
4050.840035302043
 10
37.17950050725739
 20
-709.8284490067055
 30
0.0
 10
28.98716664832114
 20
-732.3526316361008
 30
0.0
 10
2.060989813725314
 20
-757.9046528216323
 30
0.0
 10
-47.55021028491285
 20
-800.0053570128073
 30
0.0
  0
ARC
  5
7C
330
1F
100
AcDbEntity
  8
telaio33cm
100
AcDbCircle
 10
-35.88294839533336
 20
-811.6726189023839
 30
0.0
 40
16.5
100
AcDbArc
 50
135.0000000000072
 51
315.0000000000165
  0
SPLINE
  5
7D
330
1F
100
AcDbEntity
  8
telaio33cm
100
AcDbSpline
210
0.0
220
0.0
230
1.0
 70
     8
 71
     3
 72
     8
 73
     4
 74
     0
 42
0.000000001
 43
0.0000000001
 40
4102.676314086278
 40
4102.676314086278
 40
4102.676314086278
 40
4102.676314086278
 40
4229.533701196529
 40
4229.533701196529
 40
4229.533701196529
 40
4229.533701196529
 10
-24.21568650575199
 20
-823.3398807919585
 30
0.0
 10
17.88501769816327
 20
-773.7286806783043
 30
0.0
 10
43.43703888641983
 20
-746.8025038424254
 30
0.0
 10
65.96122152080079
 20
-738.6101699923526
 30
0.0
  0
SPLINE
  5
7E
330
1F
100
AcDbEntity
  8
telaio33cm
100
AcDbSpline
210
0.0
220
0.0
230
1.0
 70
     8
 71
     3
 72
     9
 73
     5
 74
     0
 42
0.000000001
 43
0.0000000001
 40
4229.533701196529
 40
4229.533701196529
 40
4229.533701196529
 40
4229.533701196529
 40
4257.942019367587
 40
4286.350339071645
 40
4286.350339071645
 40
4286.350339071645
 40
4286.350339071645
 10
65.96122152080079
 20
-738.6101699923526
 30
0.0
 10
71.00526597067028
 20
-736.7755863913093
 30
0.0
 10
80.78967076444519
 20
-734.9853751033633
 30
0.0
 10
90.57407555822022
 20
-736.7755864879149
 30
0.0
 10
95.61812008650043
 20
-738.6101700490631
 30
0.0
  0
CIRCLE
  5
7F
330
1F
100
AcDbEntity
  8
telaio33cm
100
AcDbCircle
 10
-35.88294784275496
 20
-578.3273805582446
 30
0.0
 40
4.5
  0
CIRCLE
  5
80
330
1F
100
AcDbEntity
  8
telaio33cm
100
AcDbCircle
 10
197.4622893962276
 20
-578.3273811108231
 30
0.0
 40
4.5
  0
CIRCLE
  5
81
330
1F
100
AcDbEntity
  8
telaio33cm
100
AcDbCircle
 10
197.4622918549189
 20
-811.6726164436923
 30
0.0
 40
4.5
  0
CIRCLE
  5
82
330
1F
100
AcDbEntity
  8
telaio33cm
100
AcDbCircle
 10
-35.88294839533336
 20
-811.6726189023839
 30
0.0
 40
4.5
  0
POLYLINE
  5
83
330
1F
100
AcDbEntity
  8
telaio33cm
100
AcDb2dPolyline
 66
     1
 10
0.0
 20
0.0
 30
0.0
 70
     1
  0
VERTEX
  5
84
330
83
100
AcDbEntity
  8
telaio33cm
100
AcDbVertex
100
AcDb2dVertex
 10
207.2032456063137
 20
-570.8398468956797
 30
0.0
  0
VERTEX
  5
85
330
83
100
AcDbEntity
  8
telaio33cm
100
AcDbVertex
100
AcDb2dVertex
 10
205.7707693914313
 20
-572.2356791138823
 30
0.0
  0
VERTEX
  5
86
330
83
100
AcDbEntity
  8
telaio33cm
100
AcDbVertex
100
AcDb2dVertex
 10
204.3565555133312
 20
-573.6498923605282
 30
0.0
  0
VERTEX
  5
87
330
83
100
AcDbEntity
  8
telaio33cm
100
AcDbVertex
100
AcDb2dVertex
 10
201.5281290200392
 20
-570.8214646043281
 30
0.0
  0
VERTEX
  5
88
330
83
100
AcDbEntity
  8
telaio33cm
100
AcDbVertex
100
AcDb2dVertex
 10
204.3748191130214
 20
-568.0114191394795
 30
0.0
  0
SEQEND
  5
89
330
83
100
AcDbEntity
  8
telaio33cm
  0
ARC
  5
8A
330
1F
100
AcDbEntity
  8
telaio33cm
100
AcDbCircle
 10
186.3995798816904
 20
-577.8273808777062
 30
0.0
 40
1.0
100
AcDbArc
 50
89.9999987925788
 51
174.2608283153114
  0
ARC
  5
8B
330
1F
100
AcDbEntity
  8
telaio33cm
100
AcDbCircle
 10
191.3745170566806
 20
-578.327380982545
 30
0.0
 40
5.999999999993666
100
AcDbArc
 50
174.2608283153097
 51
185.7391692698558
  0
ARC
  5
8C
330
1F
100
AcDbEntity
  8
telaio33cm
100
AcDbCircle
 10
186.3995798606172
 20
-578.8273808777062
 30
0.0
 40
1.0
100
AcDbArc
 50
185.7391692698474
 51
269.9999987925804
  0
LINE
  5
8D
330
1F
100
AcDbEntity
  8
telaio33cm
100
AcDbLine
 10
186.3995798395438
 20
-579.8273808777062
 30
0.0
 11
189.8182765115282
 21
-579.8273809497498
 31
0.0
  0
ARC
  5
8E
330
1F
100
AcDbEntity
  8
telaio33cm
100
AcDbCircle
 10
189.8182765326017
 20
-578.8273809497498
 30
0.0
 40
1.0
100
AcDbArc
 50
269.9999987925821
 51
354.2608283153112
  0
ARC
  5
8F
330
1F
100
AcDbEntity
  8
telaio33cm
100
AcDbCircle
 10
184.8433393576011
 20
-578.3273808449117
 30
0.0
 40
6.000000000004171
100
AcDbArc
 50
354.2608283153263
 51
5.739169269851185
  0
ARC
  5
90
330
1F
100
AcDbEntity
  8
telaio33cm
100
AcDbCircle
 10
189.8182765536749
 20
-577.8273809497498
 30
0.0
 40
0.9999999999999574
100
AcDbArc
 50
5.739169269841269
 51
89.99999879258043
  0
LINE
  5
91
330
1F
100
AcDbEntity
  8
telaio33cm
100
AcDbLine
 10
189.8182765747483
 20
-576.8273809497498
 30
0.0
 11
186.3995799027639
 21
-576.8273808777062
 31
0.0
  0
ARC
  5
92
330
1F
100
AcDbEntity
  8
telaio33cm
100
AcDbCircle
 10
197.9622895573364
 20
-570.6833682682707
 30
0.0
 40
0.9999999999999434
100
AcDbArc
 50
275.7391692698463
 51
359.9999987925804
  0
LINE
  5
93
330
1F
100
AcDbEntity
  8
telaio33cm
100
AcDbLine
 10
198.9622895573364
 20
-570.6833682893441
 30
0.0
 11
198.9622896293799
 21
-567.2646716173597
 31
0.0
  0
ARC
  5
94
330
1F
100
AcDbEntity
  8
telaio33cm
100
AcDbCircle
 10
197.9622896293799
 20
-567.2646715962862
 30
0.0
 40
1.0
100
AcDbArc
 50
359.9999987925804
 51
84.26082831530992
  0
ARC
  5
95
330
1F
100
AcDbEntity
  8
telaio33cm
100
AcDbCircle
 10
197.4622895245407
 20
-572.2396087712818
 30
0.0
 40
5.999999999999154
100
AcDbArc
 50
84.26082831531191
 51
95.73916926984673
  0
ARC
  5
96
330
1F
100
AcDbEntity
  8
telaio33cm
100
AcDbCircle
 10
196.9622896293797
 20
-567.2646715752128
 30
0.0
 40
0.9999999999998865
100
AcDbArc
 50
95.73916926983884
 51
179.9999987925804
  0
LINE
  5
97
330
1F
100
AcDbEntity
  8
telaio33cm
100
AcDbLine
 10
195.9622896293799
 20
-567.2646715541393
 30
0.0
 11
195.9622895573364
 21
-570.6833682261238
 31
0.0
  0
ARC
  5
98
330
1F
100
AcDbEntity
  8
telaio33cm
100
AcDbCircle
 10
196.9622895573364
 20
-570.6833682471972
 30
0.0
 40
1.0
100
AcDbArc
 50
179.9999987925804
 51
264.2608283153148
  0
ARC
  5
99
330
1F
100
AcDbEntity
  8
telaio33cm
100
AcDbCircle
 10
197.462289662175
 20
-565.7084310721893
 30
0.0
 40
6.000000000011426
100
AcDbArc
 50
264.2608283153294
 51
275.7391692698407
  0
POLYLINE
  5
9A
330
1F
100
AcDbEntity
  8
telaio33cm
100
AcDb2dPolyline
 66
     1
 10
0.0
 20
0.0
 30
0.0
 70
     1
  0
VERTEX
  5
9B
330
9A
100
AcDbEntity
  8
telaio33cm
100
AcDbVertex
100
AcDb2dVertex
 10
-45.62392898128445
 20
-819.1601813397058
 30
0.0
  0
VERTEX
  5
9C
330
9A
100
AcDbEntity
  8
telaio33cm
100
AcDbVertex
100
AcDb2dVertex
 10
-44.19145307802552
 20
-817.7643488016989
 30
0.0
  0
VERTEX
  5
9D
330
9A
100
AcDbEntity
  8
telaio33cm
100
AcDbVertex
100
AcDb2dVertex
 10
-42.77723951565241
 20
-816.3501352393259
 30
0.0
  0
VERTEX
  5
9E
330
9A
100
AcDbEntity
  8
telaio33cm
100
AcDbVertex
100
AcDb2dVertex
 10
-39.94881239090608
 20
-819.1785623640721
 30
0.0
  0
VERTEX
  5
9F
330
9A
100
AcDbEntity
  8
telaio33cm
100
AcDbVertex
100
AcDb2dVertex
 10
-42.79550185653812
 20
-821.988608464452
 30
0.0
  0
SEQEND
  5
A0
330
9A
100
AcDbEntity
  8
telaio33cm
  0
POLYLINE
  5
A1
330
1F
100
AcDbEntity
  8
telaio33cm
100
AcDb2dPolyline
 66
     1
 10
0.0
 20
0.0
 30
0.0
 70
     1
  0
VERTEX
  5
A2
330
A1
100
AcDbEntity
  8
telaio33cm
100
AcDbVertex
100
AcDb2dVertex
 10
-26.14196780938215
 20
-805.4083611528981
 30
0.0
  0
VERTEX
  5
A3
330
A1
100
AcDbEntity
  8
telaio33cm
100
AcDbVertex
100
AcDb2dVertex
 10
-27.5744437126412
 20
-806.8041936909048
 30
0.0
  0
VERTEX
  5
A4
330
A1
100
AcDbEntity
  8
telaio33cm
100
AcDbVertex
100
AcDb2dVertex
 10
-28.9886572750143
 20
-808.2184072532779
 30
0.0
  0
VERTEX
  5
A5
330
A1
100
AcDbEntity
  8
telaio33cm
100
AcDbVertex
100
AcDb2dVertex
 10
-31.8170843997604
 20
-805.3899801285318
 30
0.0
  0
VERTEX
  5
A6
330
A1
100
AcDbEntity
  8
telaio33cm
100
AcDbVertex
100
AcDb2dVertex
 10
-28.97039493412836
 20
-802.5799340281518
 30
0.0
  0
SEQEND
  5
A7
330
A1
100
AcDbEntity
  8
telaio33cm
  0
POLYLINE
  5
A8
330
1F
100
AcDbEntity
  8
telaio33cm
100
AcDb2dPolyline
 66
     1
 10
0.0
 20
0.0
 30
0.0
 70
     1
  0
VERTEX
  5
A9
330
A8
100
AcDbEntity
  8
telaio33cm
100
AcDbVertex
100
AcDb2dVertex
 10
191.1980078526735
 20
-801.9316099422733
 30
0.0
  0
VERTEX
  5
AA
330
A8
100
AcDbEntity
  8
telaio33cm
100
AcDbVertex
100
AcDb2dVertex
 10
192.5938404208673
 20
-803.3640858161174
 30
0.0
  0
VERTEX
  5
AB
330
A8
100
AcDbEntity
  8
telaio33cm
100
AcDbVertex
100
AcDb2dVertex
 10
194.0080540130427
 20
-804.7782993486882
 30
0.0
  0
VERTEX
  5
AC
330
A8
100
AcDbEntity
  8
telaio33cm
100
AcDbVertex
100
AcDb2dVertex
 10
191.1796269479012
 20
-807.6067265330389
 30
0.0
  0
VERTEX
  5
AD
330
A8
100
AcDbEntity
  8
telaio33cm
100
AcDbVertex
100
AcDb2dVertex
 10
188.369580787532
 20
-804.7600371266241
 30
0.0
  0
SEQEND
  5
AE
330
A8
100
AcDbEntity
  8
telaio33cm
  0
ARC
  5
AF
330
1F
100
AcDbEntity
  8
telaio33cm
100
AcDbCircle
 10
186.3995823298453
 20
-812.1726164436924
 30
0.0
 40
1.000000000000043
100
AcDbArc
 50
185.7391704772679
 51
269.9999999999951
  0
LINE
  5
B0
330
1F
100
AcDbEntity
  8
telaio33cm
100
AcDbLine
 10
186.3995823298453
 20
-813.1726164436924
 30
0.0
 11
189.8182790018298
 21
-813.1726164436924
 31
0.0
  0
ARC
  5
B1
330
1F
100
AcDbEntity
  8
telaio33cm
100
AcDbCircle
 10
189.8182790018298
 20
-812.1726164436925
 30
0.0
 40
0.9999999999998863
100
AcDbArc
 50
269.9999999999984
 51
354.2608295227378
  0
ARC
  5
B2
330
1F
100
AcDbEntity
  8
telaio33cm
100
AcDbCircle
 10
184.8433418162972
 20
-811.6726164436924
 30
0.0
 40
5.999999999999525
100
AcDbArc
 50
354.2608295227325
 51
5.73917047726746
  0
ARC
  5
B3
330
1F
100
AcDbEntity
  8
telaio33cm
100
AcDbCircle
 10
189.8182790018298
 20
-811.1726164436923
 30
0.0
 40
0.9999999999998863
100
AcDbArc
 50
5.739170477262194
 51
89.99999999999675
  0
LINE
  5
B4
330
1F
100
AcDbEntity
  8
telaio33cm
100
AcDbLine
 10
189.81827900183
 20
-810.1726164436924
 30
0.0
 11
186.3995823298455
 21
-810.1726164436922
 31
0.0
  0
ARC
  5
B5
330
1F
100
AcDbEntity
  8
telaio33cm
100
AcDbCircle
 10
186.3995823298453
 20
-811.172616443692
 30
0.0
 40
0.9999999999998863
100
AcDbArc
 50
89.99999999999511
 51
174.2608295227378
  0
ARC
  5
B6
330
1F
100
AcDbEntity
  8
telaio33cm
100
AcDbCircle
 10
191.374519515374
 20
-811.6726164436914
 30
0.0
 40
5.999999999995656
100
AcDbArc
 50
174.2608295227365
 51
185.739170477281
  0
ARC
  5
B7
330
1F
100
AcDbEntity
  8
telaio33cm
100
AcDbCircle
 10
197.9622918549067
 20
-800.6099069186187
 30
0.0
 40
1.0
100
AcDbArc
 50
0.0
 51
84.26082952273343
  0
ARC
  5
B8
330
1F
100
AcDbEntity
  8
telaio33cm
100
AcDbCircle
 10
197.4622918549067
 20
-805.5848441041417
 30
0.0
 40
5.999999999989936
100
AcDbArc
 50
84.26082952272361
 51
95.73917047727639
  0
ARC
  5
B9
330
1F
100
AcDbEntity
  8
telaio33cm
100
AcDbCircle
 10
196.9622918549067
 20
-800.6099069186187
 30
0.0
 40
1.0
100
AcDbArc
 50
95.73917047726657
 51
180.0
  0
LINE
  5
BA
330
1F
100
AcDbEntity
  8
telaio33cm
100
AcDbLine
 10
195.9622918549067
 20
-800.6099069186185
 30
0.0
 11
195.9622918549067
 21
-804.0286035906031
 31
0.0
  0
ARC
  5
BB
330
1F
100
AcDbEntity
  8
telaio33cm
100
AcDbCircle
 10
196.9622918549067
 20
-804.0286035906031
 30
0.0
 40
1.0
100
AcDbArc
 50
180.0
 51
264.2608295227318
  0
ARC
  5
BC
330
1F
100
AcDbEntity
  8
telaio33cm
100
AcDbCircle
 10
197.4622918549067
 20
-799.0536664050701
 30
0.0
 40
5.999999999999887
100
AcDbArc
 50
264.2608295227334
 51
275.7391704772666
  0
ARC
  5
BD
330
1F
100
AcDbEntity
  8
telaio33cm
100
AcDbCircle
 10
197.9622918549067
 20
-804.0286035906031
 30
0.0
 40
1.0
100
AcDbArc
 50
275.7391704772649
 51
0.0
  0
LINE
  5
BE
330
1F
100
AcDbEntity
  8
telaio33cm
100
AcDbLine
 10
198.9622918549067
 20
-804.0286035906031
 30
0.0
 11
198.9622918549067
 21
-800.6099069186187
 31
0.0
  0
ARC
  5
BF
330
1F
100
AcDbEntity
  8
telaio33cm
100
AcDbCircle
 10
-36.3829481622044
 20
-800.6099093667734
 30
0.0
 40
0.9999999999999292
100
AcDbArc
 50
95.7391692698447
 51
179.9999987925804
  0
LINE
  5
C0
330
1F
100
AcDbEntity
  8
telaio33cm
100
AcDbLine
 10
-37.38294816220434
 20
-800.6099093457
 30
0.0
 11
-37.38294823424786
 21
-804.0286060176845
 31
0.0
  0
ARC
  5
C1
330
1F
100
AcDbEntity
  8
telaio33cm
100
AcDbCircle
 10
-36.38294823424786
 20
-804.028606038758
 30
0.0
 40
1.0
100
AcDbArc
 50
179.9999987925804
 51
264.2608283153156
  0
ARC
  5
C2
330
1F
100
AcDbEntity
  8
telaio33cm
100
AcDbCircle
 10
-35.88294812940859
 20
-799.053668863759
 30
0.0
 40
6.000000000002547
100
AcDbArc
 50
264.2608283153153
 51
275.7391692698438
  0
ARC
  5
C3
330
1F
100
AcDbEntity
  8
telaio33cm
100
AcDbCircle
 10
-35.38294823424781
 20
-804.0286060598314
 30
0.0
 40
0.9999999999999718
100
AcDbArc
 50
275.7391692698496
 51
359.9999987925804
  0
LINE
  5
C4
330
1F
100
AcDbEntity
  8
telaio33cm
100
AcDbLine
 10
-34.38294823424786
 20
-804.0286060809049
 30
0.0
 11
-34.38294816220406
 21
-800.6099094089204
 31
0.0
  0
ARC
  5
C5
330
1F
100
AcDbEntity
  8
telaio33cm
100
AcDbCircle
 10
-35.38294816220412
 20
-800.609909387847
 30
0.0
 40
1.000000000000064
100
AcDbArc
 50
359.9999987925804
 51
84.26082831531097
  0
ARC
  5
C6
330
1F
100
AcDbEntity
  8
telaio33cm
100
AcDbCircle
 10
-35.88294826704339
 20
-805.5848465628428
 30
0.0
 40
5.999999999999509
100
AcDbArc
 50
84.26082831531082
 51
95.73916926984802
  0
ARC
  5
C7
330
1F
100
AcDbEntity
  8
telaio33cm
100
AcDbCircle
 10
-36.38294855644222
 20
-819.3166317449363
 30
0.0
 40
0.9999999999999221
100
AcDbArc
 50
95.73916926984427
 51
179.9999987925804
  0
LINE
  5
C8
330
1F
100
AcDbEntity
  8
telaio33cm
100
AcDbLine
 10
-37.3829485564421
 20
-819.3166317238629
 30
0.0
 11
-37.38294862848585
 21
-822.7353283958472
 31
0.0
  0
ARC
  5
C9
330
1F
100
AcDbEntity
  8
telaio33cm
100
AcDbCircle
 10
-36.38294862848585
 20
-822.7353284169207
 30
0.0
 40
1.0
100
AcDbArc
 50
179.9999987925804
 51
264.2608283153156
  0
ARC
  5
CA
330
1F
100
AcDbEntity
  8
telaio33cm
100
AcDbCircle
 10
-35.88294852364601
 20
-817.7603912419245
 30
0.0
 40
5.999999999999893
100
AcDbArc
 50
264.2608283153065
 51
275.739169269841
  0
ARC
  5
CB
330
1F
100
AcDbEntity
  8
telaio33cm
100
AcDbCircle
 10
-35.38294862848585
 20
-822.7353284379942
 30
0.0
 40
1.0
100
AcDbArc
 50
275.7391692698438
 51
359.9999987925804
  0
LINE
  5
CC
330
1F
100
AcDbEntity
  8
telaio33cm
100
AcDbLine
 10
-34.38294862848585
 20
-822.7353284590677
 30
0.0
 11
-34.38294855644216
 21
-819.3166317870832
 31
0.0
  0
ARC
  5
CD
330
1F
100
AcDbEntity
  8
telaio33cm
100
AcDbCircle
 10
-35.38294855644216
 20
-819.3166317660098
 30
0.0
 40
0.9999999999999931
100
AcDbArc
 50
359.9999987925804
 51
84.26082831531518
  0
ARC
  5
CE
330
1F
100
AcDbEntity
  8
telaio33cm
100
AcDbCircle
 10
-35.88294866128018
 20
-824.2915689409897
 30
0.0
 40
5.999999999983658
100
AcDbArc
 50
84.26082831530795
 51
95.73916926987259
  0
POLYLINE
  5
CF
330
1F
100
AcDbEntity
  8
telaio33cm
100
AcDb2dPolyline
 66
     1
 10
0.0
 20
0.0
 30
0.0
 70
     1
  0
VERTEX
  5
D0
330
CF
100
AcDbEntity
  8
telaio33cm
100
AcDbVertex
100
AcDb2dVertex
 10
204.9498284500323
 20
-821.413570824378
 30
0.0
  0
VERTEX
  5
D1
330
CF
100
AcDbEntity
  8
telaio33cm
100
AcDbVertex
100
AcDb2dVertex
 10
203.5539958818385
 20
-819.9810949505339
 30
0.0
  0
VERTEX
  5
D2
330
CF
100
AcDbEntity
  8
telaio33cm
100
AcDbVertex
100
AcDb2dVertex
 10
202.1397822896631
 20
-818.5668814179631
 30
0.0
  0
VERTEX
  5
D3
330
CF
100
AcDbEntity
  8
telaio33cm
100
AcDbVertex
100
AcDb2dVertex
 10
204.9682093548047
 20
-815.7384542336123
 30
0.0
  0
VERTEX
  5
D4
330
CF
100
AcDbEntity
  8
telaio33cm
100
AcDbVertex
100
AcDb2dVertex
 10
207.7782555151741
 20
-818.5851436400271
 30
0.0
  0
SEQEND
  5
D5
330
CF
100
AcDbEntity
  8
telaio33cm
  0
ARC
  5
D6
330
1F
100
AcDbEntity
  8
telaio33cm
100
AcDbCircle
 10
205.1063047080081
 20
-812.1726164437156
 30
0.0
 40
0.9999999999999614
100
AcDbArc
 50
185.7391704772617
 51
269.9999999999968
  0
LINE
  5
D7
330
1F
100
AcDbEntity
  8
telaio33cm
100
AcDbLine
 10
205.1063047080081
 20
-813.1726164437156
 30
0.0
 11
208.5250013799925
 21
-813.1726164437156
 31
0.0
  0
ARC
  5
D8
330
1F
100
AcDbEntity
  8
telaio33cm
100
AcDbCircle
 10
208.5250013799925
 20
-812.1726164437157
 30
0.0
 40
0.9999999999998863
100
AcDbArc
 50
270.0
 51
354.2608295227378
  0
ARC
  5
D9
330
1F
100
AcDbEntity
  8
telaio33cm
100
AcDbCircle
 10
203.5500641944616
 20
-811.672616443715
 30
0.0
 40
5.999999999997885
100
AcDbArc
 50
354.2608295227255
 51
5.739170477263579
  0
ARC
  5
DA
330
1F
100
AcDbEntity
  8
telaio33cm
100
AcDbCircle
 10
208.5250013799925
 20
-811.1726164437155
 30
0.0
 40
0.9999999999998863
100
AcDbArc
 50
5.739170477262194
 51
90.0
  0
LINE
  5
DB
330
1F
100
AcDbEntity
  8
telaio33cm
100
AcDbLine
 10
208.5250013799925
 20
-810.1726164437156
 30
0.0
 11
205.1063047080081
 21
-810.1726164437156
 31
0.0
  0
ARC
  5
DC
330
1F
100
AcDbEntity
  8
telaio33cm
100
AcDbCircle
 10
205.1063047080081
 20
-811.1726164437155
 30
0.0
 40
0.9999999999998863
100
AcDbArc
 50
89.99999999999837
 51
174.2608295227378
  0
ARC
  5
DD
330
1F
100
AcDbEntity
  8
telaio33cm
100
AcDbCircle
 10
210.0812418935336
 20
-811.6726164437146
 30
0.0
 40
5.999999999992296
100
AcDbArc
 50
174.2608295227354
 51
185.7391704772831
  0
POLYLINE
  5
DE
330
1F
100
AcDbEntity
  8
telaio33cm
100
AcDb2dPolyline
 66
     1
 10
0.0
 20
0.0
 30
0.0
 70
     1
  0
VERTEX
  5
DF
330
DE
100
AcDbEntity
  8
telaio33cm
100
AcDbVertex
100
AcDb2dVertex
 10
187.7212813642805
 20
-584.5916627330861
 30
0.0
  0
VERTEX
  5
E0
330
DE
100
AcDbEntity
  8
telaio33cm
100
AcDbVertex
100
AcDb2dVertex
 10
189.1537575791631
 20
-583.1958305148836
 30
0.0
  0
VERTEX
  5
E1
330
DE
100
AcDbEntity
  8
telaio33cm
100
AcDbVertex
100
AcDb2dVertex
 10
190.5679714572632
 20
-581.7816172682376
 30
0.0
  0
VERTEX
  5
E2
330
DE
100
AcDbEntity
  8
telaio33cm
100
AcDbVertex
100
AcDb2dVertex
 10
193.3963979505552
 20
-584.6100450244377
 30
0.0
  0
VERTEX
  5
E3
330
DE
100
AcDbEntity
  8
telaio33cm
100
AcDbVertex
100
AcDb2dVertex
 10
190.5497078575727
 20
-587.4200904892863
 30
0.0
  0
SEQEND
  5
E4
330
DE
100
AcDbEntity
  8
telaio33cm
  0
POLYLINE
  5
E5
330
1F
100
AcDbEntity
  8
telaio33cm
100
AcDb2dPolyline
 66
     1
 10
0.0
 20
0.0
 30
0.0
 70
     1
  0
VERTEX
  5
E6
330
E5
100
AcDbEntity
  8
telaio33cm
100
AcDbVertex
100
AcDb2dVertex
 10
-43.37050807995143
 20
-568.5863982855547
 30
0.0
  0
VERTEX
  5
E7
330
E5
100
AcDbEntity
  8
telaio33cm
100
AcDbVertex
100
AcDb2dVertex
 10
-41.97467586829868
 20
-570.0188745068192
 30
0.0
  0
VERTEX
  5
E8
330
E5
100
AcDbEntity
  8
telaio33cm
100
AcDbVertex
100
AcDb2dVertex
 10
-40.56046262811896
 20
-571.4330883913856
 30
0.0
  0
VERTEX
  5
E9
330
E5
100
AcDbEntity
  8
telaio33cm
100
AcDbVertex
100
AcDb2dVertex
 10
-43.3888903972516
 20
-574.2615148717451
 30
0.0
  0
VERTEX
  5
EA
330
E5
100
AcDbEntity
  8
telaio33cm
100
AcDbVertex
100
AcDb2dVertex
 10
-46.19893584908419
 20
-571.4148247659142
 30
0.0
  0
SEQEND
  5
EB
330
E5
100
AcDbEntity
  8
telaio33cm
  0
POLYLINE
  5
EC
330
1F
100
AcDbEntity
  8
telaio33cm
100
AcDb2dPolyline
 66
     1
 10
0.0
 20
0.0
 30
0.0
 70
     1
  0
VERTEX
  5
ED
330
EC
100
AcDbEntity
  8
telaio33cm
100
AcDbVertex
100
AcDb2dVertex
 10
-29.61869233162321
 20
-588.0683625904657
 30
0.0
  0
VERTEX
  5
EE
330
EC
100
AcDbEntity
  8
telaio33cm
100
AcDbVertex
100
AcDb2dVertex
 10
-31.01452454327585
 20
-586.6358863692011
 30
0.0
  0
VERTEX
  5
EF
330
EC
100
AcDbEntity
  8
telaio33cm
100
AcDbVertex
100
AcDb2dVertex
 10
-32.42873778345569
 20
-585.2216724846347
 30
0.0
  0
VERTEX
  5
F0
330
EC
100
AcDbEntity
  8
telaio33cm
100
AcDbVertex
100
AcDb2dVertex
 10
-29.60031001432304
 20
-582.3932460042753
 30
0.0
  0
VERTEX
  5
F1
330
EC
100
AcDbEntity
  8
telaio33cm
100
AcDbVertex
100
AcDb2dVertex
 10
-26.79026456249045
 20
-585.2399361101061
 30
0.0
  0
SEQEND
  5
F2
330
EC
100
AcDbEntity
  8
telaio33cm
  0
ARC
  5
F3
330
1F
100
AcDbEntity
  8
telaio33cm
100
AcDbCircle
 10
-36.38294812826655
 20
-589.3900900704135
 30
0.0
 40
0.9999999999998155
100
AcDbArc
 50
179.9999985212165
 51
264.2608280439643
  0
ARC
  5
F4
330
1F
100
AcDbEntity
  8
telaio33cm
100
AcDbCircle
 10
-35.88294799986539
 20
-584.415152897795
 30
0.0
 40
5.999999999990164
100
AcDbArc
 50
264.2608280439447
 51
275.7391689984971
  0
ARC
  5
F5
330
1F
100
AcDbEntity
  8
telaio33cm
100
AcDbCircle
 10
-35.38294812826626
 20
-589.390090096223
 30
0.0
 40
0.999999999999915
100
AcDbArc
 50
275.7391689984826
 51
359.9999985212165
  0
LINE
  5
F6
330
1F
100
AcDbEntity
  8
telaio33cm
100
AcDbLine
 10
-34.38294812826638
 20
-589.3900901220327
 30
0.0
 11
-34.38294804003129
 21
-585.9713934500481
 31
0.0
  0
ARC
  5
F7
330
1F
100
AcDbEntity
  8
telaio33cm
100
AcDbCircle
 10
-35.38294804003124
 20
-585.9713934242386
 30
0.0
 40
0.9999999999999576
100
AcDbArc
 50
359.999998521223
 51
84.26082804395769
  0
ARC
  5
F8
330
1F
100
AcDbEntity
  8
telaio33cm
100
AcDbCircle
 10
-35.88294816843228
 20
-590.9463305968684
 30
0.0
 40
6.000000000001478
100
AcDbArc
 50
84.26082804395575
 51
95.73916899848639
  0
ARC
  5
F9
330
1F
100
AcDbEntity
  8
telaio33cm
100
AcDbCircle
 10
-36.38294804003129
 20
-585.9713933984291
 30
0.0
 40
0.9999999999999574
100
AcDbArc
 50
95.73916899848516
 51
179.999998521223
  0
LINE
  5
FA
330
1F
100
AcDbEntity
  8
telaio33cm
100
AcDbLine
 10
-37.38294804003124
 20
-585.9713933726196
 30
0.0
 11
-37.38294812826638
 21
-589.3900900446039
 31
0.0
  0
ARC
  5
FB
330
1F
100
AcDbEntity
  8
telaio33cm
100
AcDbCircle
 10
-24.82023888079647
 20
-812.1726191355008
 30
0.0
 40
1.0
100
AcDbArc
 50
269.9999987925792
 51
354.2608283153114
  0
ARC
  5
FC
330
1F
100
AcDbEntity
  8
telaio33cm
100
AcDbCircle
 10
-29.7951760557853
 20
-811.6726190306617
 30
0.0
 40
5.999999999992473
100
AcDbArc
 50
354.2608283153063
 51
5.739169269854775
  0
ARC
  5
FD
330
1F
100
AcDbEntity
  8
telaio33cm
100
AcDbCircle
 10
-24.82023885972302
 20
-811.1726191355008
 30
0.0
 40
1.0
100
AcDbArc
 50
5.739169269847546
 51
89.99999879258002
  0
LINE
  5
FE
330
1F
100
AcDbEntity
  8
telaio33cm
100
AcDbLine
 10
-24.82023883864957
 20
-810.1726191355008
 30
0.0
 11
-28.23893551063406
 21
-810.1726190634571
 31
0.0
  0
ARC
  5
FF
330
1F
100
AcDbEntity
  8
telaio33cm
100
AcDbCircle
 10
-28.23893553170745
 20
-811.172619063457
 30
0.0
 40
0.9999999999998865
100
AcDbArc
 50
89.99999879258246
 51
174.2608283153173
  0
ARC
  5
100
330
1F
100
AcDbEntity
  8
telaio33cm
100
AcDbCircle
 10
-23.26399835671236
 20
-811.672619168296
 30
0.0
 40
5.999999999998651
100
AcDbArc
 50
174.2608283153133
 51
185.7391692698488
  0
ARC
  5
101
330
1F
100
AcDbEntity
  8
telaio33cm
100
AcDbCircle
 10
-28.2389355527809
 20
-812.1726190634572
 30
0.0
 40
0.9999999999998865
100
AcDbArc
 50
185.7391692698351
 51
269.9999987925808
  0
LINE
  5
102
330
1F
100
AcDbEntity
  8
telaio33cm
100
AcDbLine
 10
-28.23893557385435
 20
-813.1726190634571
 30
0.0
 11
-24.82023890186991
 21
-813.1726191355008
 31
0.0
  0
ARC
  5
103
330
1F
100
AcDbEntity
  8
telaio33cm
100
AcDbCircle
 10
197.9622891630986
 20
-589.3900906464336
 30
0.0
 40
0.999999999999915
100
AcDbArc
 50
275.7391692698453
 51
359.9999987925804
  0
LINE
  5
104
330
1F
100
AcDbEntity
  8
telaio33cm
100
AcDbLine
 10
198.9622891630984
 20
-589.390090667507
 30
0.0
 11
198.962289235142
 21
-585.9713939955225
 31
0.0
  0
ARC
  5
105
330
1F
100
AcDbEntity
  8
telaio33cm
100
AcDbCircle
 10
197.962289235142
 20
-585.971393974449
 30
0.0
 40
1.000000000000029
100
AcDbArc
 50
359.9999987925804
 51
84.26082831531477
  0
ARC
  5
106
330
1F
100
AcDbEntity
  8
telaio33cm
100
AcDbCircle
 10
197.4622891303034
 20
-590.9463311494319
 30
0.0
 40
5.999999999986536
100
AcDbArc
 50
84.26082831530582
 51
95.73916926986537
  0
ARC
  5
107
330
1F
100
AcDbEntity
  8
telaio33cm
100
AcDbCircle
 10
196.962289235142
 20
-585.9713939533756
 30
0.0
 40
0.9999999999999718
100
AcDbArc
 50
95.73916926985116
 51
179.9999987925804
  0
LINE
  5
108
330
1F
100
AcDbEntity
  8
telaio33cm
100
AcDbLine
 10
195.962289235142
 20
-585.9713939323021
 30
0.0
 11
195.9622891630981
 21
-589.3900906042866
 31
0.0
  0
ARC
  5
109
330
1F
100
AcDbEntity
  8
telaio33cm
100
AcDbCircle
 10
196.9622891630981
 20
-589.39009062536
 30
0.0
 40
1.0
100
AcDbArc
 50
179.9999987925804
 51
264.2608283153164
  0
ARC
  5
10A
330
1F
100
AcDbEntity
  8
telaio33cm
100
AcDbCircle
 10
197.4622892679365
 20
-584.4151534503671
 30
0.0
 40
5.999999999996576
100
AcDbArc
 50
264.2608283153182
 51
275.7391692698612
  0
ARC
  5
10B
330
1F
100
AcDbEntity
  8
telaio33cm
100
AcDbCircle
 10
-43.52696123788581
 20
-811.1726187413199
 30
0.0
 40
1.0
100
AcDbArc
 50
5.739169269847546
 51
89.9999987925792
  0
LINE
  5
10C
330
1F
100
AcDbEntity
  8
telaio33cm
100
AcDbLine
 10
-43.52696121681237
 20
-810.1726187413199
 30
0.0
 11
-46.94565788879856
 21
-810.1726186692763
 31
0.0
  0
ARC
  5
10D
330
1F
100
AcDbEntity
  8
telaio33cm
100
AcDbCircle
 10
-46.94565790987195
 20
-811.1726186692763
 30
0.0
 40
1.0
100
AcDbArc
 50
89.99999879258246
 51
174.2608283153114
  0
ARC
  5
10E
330
1F
100
AcDbEntity
  8
telaio33cm
100
AcDbCircle
 10
-41.97072073487681
 20
-811.6726187741151
 30
0.0
 40
5.9999999999988
100
AcDbArc
 50
174.2608283153146
 51
185.7391692698498
  0
ARC
  5
10F
330
1F
100
AcDbEntity
  8
telaio33cm
100
AcDbCircle
 10
-46.94565793094552
 20
-812.1726186692763
 30
0.0
 40
1.0
100
AcDbArc
 50
185.7391692698475
 51
269.9999987925816
  0
LINE
  5
110
330
1F
100
AcDbEntity
  8
telaio33cm
100
AcDbLine
 10
-46.94565795201896
 20
-813.1726186692763
 30
0.0
 11
-43.52696128003265
 21
-813.1726187413199
 31
0.0
  0
ARC
  5
111
330
1F
100
AcDbEntity
  8
telaio33cm
100
AcDbCircle
 10
-43.52696125895915
 20
-812.1726187413199
 30
0.0
 40
1.0
100
AcDbArc
 50
269.9999987925784
 51
354.2608283153179
  0
ARC
  5
112
330
1F
100
AcDbEntity
  8
telaio33cm
100
AcDbCircle
 10
-48.50189843395674
 20
-811.6726186364817
 30
0.0
 40
6.000000000001144
100
AcDbArc
 50
354.2608283153244
 51
5.739169269855182
  0
ARC
  5
113
330
1F
100
AcDbEntity
  8
telaio33cm
100
AcDbCircle
 10
-20.42610844200186
 20
-792.6652904186623
 30
0.0
 40
0.5000000000000041
100
AcDbArc
 50
44.99999879257713
 51
133.7752843760287
  0
LINE
  5
114
330
1F
100
AcDbEntity
  8
telaio33cm
100
AcDbLine
 10
-20.77202432424411
 20
-792.3042610536344
 30
0.0
 11
-22.21647175826797
 21
-793.6882407430824
 31
0.0
  0
ARC
  5
115
330
1F
100
AcDbEntity
  8
telaio33cm
100
AcDbCircle
 10
-21.87055587602566
 20
-794.0492701081104
 30
0.0
 40
0.5
100
AcDbArc
 50
133.7752843760255
 51
224.9999987925768
  0
LINE
  5
116
330
1F
100
AcDbEntity
  8
telaio33cm
100
AcDbLine
 10
-22.22410927406952
 20
-794.402823491253
 30
0.0
 11
-20.41863084129756
 21
-796.2083020001203
 31
0.0
  0
LINE
  5
117
330
1F
100
AcDbEntity
  8
telaio33cm
100
AcDbLine
 10
-20.41863084129756
 20
-796.2083020001203
 30
0.0
 11
-18.65086392558408
 21
-797.9760689903395
 31
0.0
  0
ARC
  5
118
330
1F
100
AcDbEntity
  8
telaio33cm
100
AcDbCircle
 10
-18.29731052754022
 20
-797.6225156071969
 30
0.0
 40
0.5
100
AcDbArc
 50
224.9999987925774
 51
314.999998792586
  0
LINE
  5
119
330
1F
100
AcDbEntity
  8
telaio33cm
100
AcDbLine
 10
-17.94375714439752
 20
-797.9760690052407
 30
0.0
 11
-16.52954355222209
 21
-796.56185547267
 31
0.0
  0
ARC
  5
11A
330
1F
100
AcDbEntity
  8
telaio33cm
100
AcDbCircle
 10
-16.88309693536479
 20
-796.2083020746261
 30
0.0
 40
0.5
100
AcDbArc
 50
314.9999987925768
 51
44.99999879257684
  0
LINE
  5
11B
330
1F
100
AcDbEntity
  8
telaio33cm
100
AcDbLine
 10
-16.52954353732093
 20
-795.8547486914835
 30
0.0
 11
-20.072555043958
 21
-792.3117370355196
 31
0.0
  0
ARC
  5
11C
330
1F
100
AcDbEntity
  8
telaio33cm
100
AcDbCircle
 10
-16.87561943223926
 20
-593.7842206015976
 30
0.0
 40
0.5000000000000041
100
AcDbArc
 50
314.9999985212242
 51
43.77528410467449
  0
LINE
  5
11D
330
1F
100
AcDbEntity
  8
telaio33cm
100
AcDbLine
 10
-16.51459006557297
 20
-593.438304721065
 30
0.0
 11
-17.89856974817997
 21
-591.9938572804866
 31
0.0
  0
ARC
  5
11E
330
1F
100
AcDbEntity
  8
telaio33cm
100
AcDbCircle
 10
-18.25959911484625
 20
-592.339773161019
 30
0.0
 40
0.5
100
AcDbArc
 50
43.77528410466255
 51
134.9999985212233
  0
LINE
  5
11F
330
1F
100
AcDbEntity
  8
telaio33cm
100
AcDbLine
 10
-18.61315249631446
 20
-591.9862197613007
 30
0.0
 11
-20.41863101373264
 21
-593.7916981855217
 31
0.0
  0
LINE
  5
120
330
1F
100
AcDbEntity
  8
telaio33cm
100
AcDbLine
 10
-20.41863101373264
 20
-593.7916981855217
 30
0.0
 11
-22.18639801232439
 21
-595.5594650928628
 31
0.0
  0
ARC
  5
121
330
1F
100
AcDbEntity
  8
telaio33cm
100
AcDbCircle
 10
-21.83284463085619
 20
-595.913018492581
 30
0.0
 40
0.5
100
AcDbArc
 50
134.9999985212239
 51
224.9999985212245
  0
LINE
  5
122
330
1F
100
AcDbEntity
  8
telaio33cm
100
AcDbLine
 10
-22.18639803057454
 20
-596.2665718740493
 30
0.0
 11
-20.77218450470173
 21
-597.6807854729227
 31
0.0
  0
ARC
  5
123
330
1F
100
AcDbEntity
  8
telaio33cm
100
AcDbCircle
 10
-20.41863110498338
 20
-597.3272320914544
 30
0.0
 40
0.5
100
AcDbArc
 50
224.9999985212245
 51
314.9999985212233
  0
LINE
  5
124
330
1F
100
AcDbEntity
  8
telaio33cm
100
AcDbLine
 10
-20.065077723515
 20
-597.6807854911727
 30
0.0
 11
-16.52206605077106
 21
-594.1377740013158
 31
0.0
  0
ARC
  5
125
330
1F
100
AcDbEntity
  8
telaio33cm
100
AcDbCircle
 10
32.62185372836763
 20
-643.2816967902921
 30
0.0
 40
0.5000000000000041
100
AcDbArc
 50
314.9999987925863
 51
43.77528437604202
  0
LINE
  5
126
330
1F
100
AcDbEntity
  8
telaio33cm
100
AcDbLine
 10
32.98288309339551
 20
-642.9357809080499
 30
0.0
 11
31.59890340394753
 21
-641.4913334740261
 31
0.0
  0
ARC
  5
127
330
1F
100
AcDbEntity
  8
telaio33cm
100
AcDbCircle
 10
31.23787403891953
 20
-641.8372493562683
 30
0.0
 40
0.5
100
AcDbArc
 50
43.77528437602067
 51
134.9999987925763
  0
LINE
  5
128
330
1F
100
AcDbEntity
  8
telaio33cm
100
AcDbLine
 10
30.88432065577683
 20
-641.4836959582244
 30
0.0
 11
29.07884214690966
 21
-643.2891743909964
 31
0.0
  0
LINE
  5
129
330
1F
100
AcDbEntity
  8
telaio33cm
100
AcDbLine
 10
29.07884214690966
 20
-643.2891743909964
 30
0.0
 11
27.31107515669032
 21
-645.05694130671
 31
0.0
  0
ARC
  5
12A
330
1F
100
AcDbEntity
  8
telaio33cm
100
AcDbCircle
 10
27.66462853983302
 20
-645.4104947047538
 30
0.0
 40
0.5
100
AcDbArc
 50
134.999998792586
 51
224.9999987925774
  0
LINE
  5
12B
330
1F
100
AcDbEntity
  8
telaio33cm
100
AcDbLine
 10
27.31107514178916
 20
-645.7640480878964
 30
0.0
 11
28.72528867435994
 21
-647.1782616800718
 31
0.0
  0
ARC
  5
12C
330
1F
100
AcDbEntity
  8
telaio33cm
100
AcDbCircle
 10
29.0788420724038
 20
-646.8247082969292
 30
0.0
 40
0.5
100
AcDbArc
 50
224.9999987925774
 51
314.9999987925763
  0
LINE
  5
12D
330
1F
100
AcDbEntity
  8
telaio33cm
100
AcDbLine
 10
29.4323954555465
 20
-647.1782616949731
 30
0.0
 11
32.97540711151032
 21
-643.6352501883359
 31
0.0
  0
ARC
  5
12E
330
1F
100
AcDbEntity
  8
telaio33cm
100
AcDbCircle
 10
178.454963045469
 20
-796.2157768909103
 30
0.0
 40
0.5000000000000041
100
AcDbArc
 50
134.9999999999954
 51
223.7752855834532
  0
LINE
  5
12F
330
1F
100
AcDbEntity
  8
telaio33cm
100
AcDbLine
 10
178.0939336877307
 20
-796.5616927807608
 30
0.0
 11
179.477913407618
 21
-798.0061401856194
 31
0.0
  0
ARC
  5
130
330
1F
100
AcDbEntity
  8
telaio33cm
100
AcDbCircle
 10
179.8389427653565
 20
-797.6602242957689
 30
0.0
 40
0.5
100
AcDbArc
 50
223.7752855834416
 51
314.9999999999953
  0
LINE
  5
131
330
1F
100
AcDbEntity
  8
telaio33cm
100
AcDbLine
 10
180.1924961559498
 20
-798.0137776863622
 30
0.0
 11
181.9979746267693
 21
-796.2082992155426
 31
0.0
  0
LINE
  5
132
330
1F
100
AcDbEntity
  8
telaio33cm
100
AcDbLine
 10
181.9979746267693
 20
-796.2082992155426
 30
0.0
 11
183.7657415797357
 21
-794.4405322625762
 31
0.0
  0
ARC
  5
133
330
1F
100
AcDbEntity
  8
telaio33cm
100
AcDbCircle
 10
183.4121881891424
 20
-794.086978871983
 30
0.0
 40
0.5
100
AcDbArc
 50
315.0000000000047
 51
44.9999999999954
  0
LINE
  5
134
330
1F
100
AcDbEntity
  8
telaio33cm
100
AcDbLine
 10
183.7657415797357
 20
-793.7334254813898
 30
0.0
 11
182.3515280173626
 21
-792.3192119190167
 31
0.0
  0
ARC
  5
135
330
1F
100
AcDbEntity
  8
telaio33cm
100
AcDbCircle
 10
181.9979746267693
 20
-792.6727653096099
 30
0.0
 40
0.5
100
AcDbArc
 50
44.9999999999954
 51
134.9999999999954
  0
LINE
  5
136
330
1F
100
AcDbEntity
  8
telaio33cm
100
AcDbLine
 10
181.6444212361762
 20
-792.3192119190165
 30
0.0
 11
178.1014096548756
 21
-795.862223500317
 31
0.0
  0
ARC
  5
137
330
1F
100
AcDbEntity
  8
telaio33cm
100
AcDbCircle
 10
-43.52696068293932
 20
-577.8273803609327
 30
0.0
 40
0.9999999999998865
100
AcDbArc
 50
5.739168998491997
 51
89.99999852121734
  0
LINE
  5
138
330
1F
100
AcDbEntity
  8
telaio33cm
100
AcDbLine
 10
-43.52696065712968
 20
-576.8273803609328
 30
0.0
 11
-46.94565732911406
 21
-576.8273802726976
 31
0.0
  0
ARC
  5
139
330
1F
100
AcDbEntity
  8
telaio33cm
100
AcDbCircle
 10
-46.94565735492364
 20
-577.8273802726976
 30
0.0
 40
1.0
100
AcDbArc
 50
89.99999852122059
 51
174.2608280439552
  0
ARC
  5
13A
330
1F
100
AcDbEntity
  8
telaio33cm
100
AcDbCircle
 10
-41.97072018229102
 20
-578.3273804010992
 30
0.0
 40
6.000000000004478
100
AcDbArc
 50
174.2608280439529
 51
185.7391689984783
  0
ARC
  5
13B
330
1F
100
AcDbEntity
  8
telaio33cm
100
AcDbCircle
 10
-46.94565738073328
 20
-578.8273802726976
 30
0.0
 40
1.0
100
AcDbArc
 50
185.7391689984848
 51
269.9999985212206
  0
LINE
  5
13C
330
1F
100
AcDbEntity
  8
telaio33cm
100
AcDbLine
 10
-46.94565740654286
 20
-579.8273802726976
 30
0.0
 11
-43.52696073455843
 21
-579.8273803609327
 31
0.0
  0
ARC
  5
13D
330
1F
100
AcDbEntity
  8
telaio33cm
100
AcDbCircle
 10
-43.52696070874885
 20
-578.8273803609327
 30
0.0
 40
1.0
100
AcDbArc
 50
269.9999985212198
 51
354.2608280439551
  0
ARC
  5
13E
330
1F
100
AcDbEntity
  8
telaio33cm
100
AcDbCircle
 10
-48.50189788136635
 20
-578.327380232532
 30
0.0
 40
5.999999999989184
100
AcDbArc
 50
354.260828043947
 51
5.739168998501727
  0
ARC
  5
13F
330
1F
100
AcDbEntity
  8
telaio33cm
100
AcDbCircle
 10
-24.82023830477664
 20
-577.8273808437682
 30
0.0
 40
1.0
100
AcDbArc
 50
5.739168998478242
 51
89.99999852121653
  0
LINE
  5
140
330
1F
100
AcDbEntity
  8
telaio33cm
100
AcDbLine
 10
-24.820238278967
 20
-576.8273808437682
 30
0.0
 11
-28.23893495095149
 21
-576.8273807555332
 31
0.0
  0
ARC
  5
141
330
1F
100
AcDbEntity
  8
telaio33cm
100
AcDbCircle
 10
-28.23893497676107
 20
-577.8273807555332
 30
0.0
 40
1.0
100
AcDbArc
 50
89.99999852121978
 51
174.2608280439487
  0
ARC
  5
142
330
1F
100
AcDbEntity
  8
telaio33cm
100
AcDbCircle
 10
-23.26399780413243
 20
-578.3273808839344
 30
0.0
 40
6.000000000000282
100
AcDbArc
 50
174.2608280439532
 51
185.7391689984856
  0
ARC
  5
143
330
1F
100
AcDbEntity
  8
telaio33cm
100
AcDbCircle
 10
-28.2389350025706
 20
-578.8273807555333
 30
0.0
 40
0.9999999999998865
100
AcDbArc
 50
185.7391689984854
 51
269.9999985212165
  0
LINE
  5
144
330
1F
100
AcDbEntity
  8
telaio33cm
100
AcDbLine
 10
-28.23893502838024
 20
-579.8273807555332
 30
0.0
 11
-24.82023835639581
 21
-579.8273808437685
 31
0.0
  0
ARC
  5
145
330
1F
100
AcDbEntity
  8
telaio33cm
100
AcDbCircle
 10
-24.82023833058616
 20
-578.8273808437685
 30
0.0
 40
1.0
100
AcDbArc
 50
269.9999985212165
 51
354.2608280439551
  0
ARC
  5
146
330
1F
100
AcDbEntity
  8
telaio33cm
100
AcDbCircle
 10
-29.79517550320912
 20
-578.3273807153673
 30
0.0
 40
5.999999999994655
100
AcDbArc
 50
354.2608280439467
 51
5.739168998492114
  0
ARC
  5
147
330
1F
100
AcDbEntity
  8
telaio33cm
100
AcDbCircle
 10
205.10630223878
 20
-578.827381271887
 30
0.0
 40
1.0
100
AcDbArc
 50
185.7391692698409
 51
269.9999987925788
  0
LINE
  5
148
330
1F
100
AcDbEntity
  8
telaio33cm
100
AcDbLine
 10
205.1063022177066
 20
-579.827381271887
 30
0.0
 11
208.5249988896926
 21
-579.8273813439307
 31
0.0
  0
ARC
  5
149
330
1F
100
AcDbEntity
  8
telaio33cm
100
AcDbCircle
 10
208.524998910766
 20
-578.8273813439307
 30
0.0
 40
1.0
100
AcDbArc
 50
269.9999987925821
 51
354.2608283153112
  0
ARC
  5
14A
330
1F
100
AcDbEntity
  8
telaio33cm
100
AcDbCircle
 10
203.5500617357702
 20
-578.3273812390917
 30
0.0
 40
5.999999999999627
100
AcDbArc
 50
354.2608283153132
 51
5.739169269847912
  0
ARC
  5
14B
330
1F
100
AcDbEntity
  8
telaio33cm
100
AcDbCircle
 10
208.5249989318395
 20
-577.8273813439307
 30
0.0
 40
1.0
100
AcDbArc
 50
5.739169269847587
 51
89.99999879258205
  0
LINE
  5
14C
330
1F
100
AcDbEntity
  8
telaio33cm
100
AcDbLine
 10
208.5249989529129
 20
-576.8273813439307
 30
0.0
 11
205.1063022809267
 21
-576.827381271887
 31
0.0
  0
ARC
  5
14D
330
1F
100
AcDbEntity
  8
telaio33cm
100
AcDbCircle
 10
205.1063022598532
 20
-577.827381271887
 30
0.0
 40
1.0
100
AcDbArc
 50
89.9999987925788
 51
174.2608283153179
  0
ARC
  5
14E
330
1F
100
AcDbEntity
  8
telaio33cm
100
AcDbCircle
 10
210.0812394348482
 20
-578.3273813767255
 30
0.0
 40
5.999999999998455
100
AcDbArc
 50
174.2608283153186
 51
185.7391692698534
  0
ARC
  5
14F
330
1F
100
AcDbEntity
  8
telaio33cm
100
AcDbCircle
 10
196.9622918549405
 20
-819.3166292967815
 30
0.0
 40
1.000000000000008
100
AcDbArc
 50
95.73917047726657
 51
180.0
  0
LINE
  5
150
330
1F
100
AcDbEntity
  8
telaio33cm
100
AcDbLine
 10
195.9622918549405
 20
-819.3166292967815
 30
0.0
 11
195.9622918549405
 21
-822.7353259687676
 31
0.0
  0
ARC
  5
151
330
1F
100
AcDbEntity
  8
telaio33cm
100
AcDbCircle
 10
196.9622918549405
 20
-822.7353259687676
 30
0.0
 40
1.0
100
AcDbArc
 50
180.0
 51
264.2608295227318
  0
ARC
  5
152
330
1F
100
AcDbEntity
  8
telaio33cm
100
AcDbCircle
 10
197.4622918549412
 20
-817.7603887832393
 30
0.0
 40
5.999999999995312
100
AcDbArc
 50
264.260829522723
 51
275.7391704772652
  0
ARC
  5
153
330
1F
100
AcDbEntity
  8
telaio33cm
100
AcDbCircle
 10
197.9622918549405
 20
-822.7353259687677
 30
0.0
 40
0.9999999999999716
100
AcDbArc
 50
275.7391704772617
 51
0.0
  0
LINE
  5
154
330
1F
100
AcDbEntity
  8
telaio33cm
100
AcDbLine
 10
198.9622918549405
 20
-822.7353259687677
 30
0.0
 11
198.9622918549405
 21
-819.3166292967815
 31
0.0
  0
ARC
  5
155
330
1F
100
AcDbEntity
  8
telaio33cm
100
AcDbCircle
 10
197.9622918549405
 20
-819.3166292967813
 30
0.0
 40
1.0
100
AcDbArc
 50
359.9999999999935
 51
84.26082952273505
  0
ARC
  5
156
330
1F
100
AcDbEntity
  8
telaio33cm
100
AcDbCircle
 10
197.4622918549412
 20
-824.2915664823108
 30
0.0
 40
5.999999999996324
100
AcDbArc
 50
84.26082952273546
 51
95.73917047727572
  0
ARC
  5
157
330
1F
100
AcDbEntity
  8
telaio33cm
100
AcDbCircle
 10
-35.38294764548817
 20
-570.6833677180601
 30
0.0
 40
1.00000000000022
100
AcDbArc
 50
275.7391689985005
 51
359.9999985212165
  0
LINE
  5
158
330
1F
100
AcDbEntity
  8
telaio33cm
100
AcDbLine
 10
-34.38294764548795
 20
-570.6833677438698
 30
0.0
 11
-34.38294755725286
 21
-567.2646710718836
 31
0.0
  0
ARC
  5
159
330
1F
100
AcDbEntity
  8
telaio33cm
100
AcDbCircle
 10
-35.38294755725298
 20
-567.2646710460741
 30
0.0
 40
1.000000000000114
100
AcDbArc
 50
359.999998521223
 51
84.26082804394457
  0
ARC
  5
15A
330
1F
100
AcDbEntity
  8
telaio33cm
100
AcDbCircle
 10
-35.8829476856543
 20
-572.2396082186965
 30
0.0
 40
5.999999999994174
100
AcDbArc
 50
84.2608280439437
 51
95.73916899848712
  0
ARC
  5
15B
330
1F
100
AcDbEntity
  8
telaio33cm
100
AcDbCircle
 10
-36.38294755725286
 20
-567.2646710202645
 30
0.0
 40
1.0
100
AcDbArc
 50
95.73916899848638
 51
179.999998521223
  0
LINE
  5
15C
330
1F
100
AcDbEntity
  8
telaio33cm
100
AcDbLine
 10
-37.38294755725286
 20
-567.264670994455
 30
0.0
 11
-37.38294764548795
 21
-570.6833676664412
 31
0.0
  0
ARC
  5
15D
330
1F
100
AcDbEntity
  8
telaio33cm
100
AcDbCircle
 10
-36.38294764548795
 20
-570.6833676922508
 30
0.0
 40
0.999999999999986
100
AcDbArc
 50
179.9999985212165
 51
264.2608280439605
  0
ARC
  5
15E
330
1F
100
AcDbEntity
  8
telaio33cm
100
AcDbCircle
 10
-35.88294751708753
 20
-565.7084305196167
 30
0.0
 40
6.000000000005714
100
AcDbArc
 50
264.2608280439654
 51
275.7391689984875
  0
ARC
  5
15F
330
1F
100
AcDbEntity
  8
telaio33cm
100
AcDbCircle
 10
132.507973716758
 20
-646.8321832345233
 30
0.0
 40
0.5000000000000041
100
AcDbArc
 50
224.9999987925771
 51
313.7752843760287
  0
LINE
  5
160
330
1F
100
AcDbEntity
  8
telaio33cm
100
AcDbLine
 10
132.8538895990002
 20
-647.1932125995512
 30
0.0
 11
134.2983370330242
 21
-645.8092329101032
 31
0.0
  0
ARC
  5
161
330
1F
100
AcDbEntity
  8
telaio33cm
100
AcDbCircle
 10
133.9524211507819
 20
-645.4482035450752
 30
0.0
 40
0.5
100
AcDbArc
 50
313.7752843760263
 51
44.99999879257713
  0
LINE
  5
162
330
1F
100
AcDbEntity
  8
telaio33cm
100
AcDbLine
 10
134.3059745488257
 20
-645.0946501619326
 30
0.0
 11
132.5004961160537
 21
-643.2891716530653
 31
0.0
  0
LINE
  5
163
330
1F
100
AcDbEntity
  8
telaio33cm
100
AcDbLine
 10
132.5004961160537
 20
-643.2891716530653
 30
0.0
 11
130.7327292003403
 21
-641.5214046628461
 31
0.0
  0
ARC
  5
164
330
1F
100
AcDbEntity
  8
telaio33cm
100
AcDbCircle
 10
130.3791758022965
 20
-641.8749580459887
 30
0.0
 40
0.5
100
AcDbArc
 50
44.99999879257713
 51
134.9999987925863
  0
LINE
  5
165
330
1F
100
AcDbEntity
  8
telaio33cm
100
AcDbLine
 10
130.0256224191537
 20
-641.5214046479449
 30
0.0
 11
128.6114088269783
 21
-642.9356181805156
 31
0.0
  0
ARC
  5
166
330
1F
100
AcDbEntity
  8
telaio33cm
100
AcDbCircle
 10
128.964962210121
 20
-643.2891715785595
 30
0.0
 40
0.5
100
AcDbArc
 50
134.9999987925771
 51
224.9999987925771
  0
LINE
  5
167
330
1F
100
AcDbEntity
  8
telaio33cm
100
AcDbLine
 10
128.6114088120771
 20
-643.6427249617021
 30
0.0
 11
132.1544203187142
 21
-647.185736617666
 31
0.0
  0
ARC
  5
168
330
1F
100
AcDbEntity
  8
telaio33cm
100
AcDbCircle
 10
182.005449442896
 20
-597.3347095945446
 30
0.0
 40
0.5000000000000041
100
AcDbArc
 50
224.9999987925771
 51
313.7752843760287
  0
LINE
  5
169
330
1F
100
AcDbEntity
  8
telaio33cm
100
AcDbLine
 10
182.3513653251382
 20
-597.6957389595725
 30
0.0
 11
183.7958127591621
 21
-596.3117592701245
 31
0.0
  0
ARC
  5
16A
330
1F
100
AcDbEntity
  8
telaio33cm
100
AcDbCircle
 10
183.4498968769199
 20
-595.9507299050965
 30
0.0
 40
0.5
100
AcDbArc
 50
313.7752843760263
 51
44.99999879257713
  0
LINE
  5
16B
330
1F
100
AcDbEntity
  8
telaio33cm
100
AcDbLine
 10
183.8034502749638
 20
-595.5971765219539
 30
0.0
 11
181.9979718421916
 21
-593.7916980130867
 31
0.0
  0
LINE
  5
16C
330
1F
100
AcDbEntity
  8
telaio33cm
100
AcDbLine
 10
181.9979718421916
 20
-593.7916980130867
 30
0.0
 11
180.2302049264783
 21
-592.0239310228674
 31
0.0
  0
ARC
  5
16D
330
1F
100
AcDbEntity
  8
telaio33cm
100
AcDbCircle
 10
179.8766515284344
 20
-592.37748440601
 30
0.0
 40
0.5
100
AcDbArc
 50
44.99999879257713
 51
134.9999987925863
  0
LINE
  5
16E
330
1F
100
AcDbEntity
  8
telaio33cm
100
AcDbLine
 10
179.5230981452917
 20
-592.0239310079662
 30
0.0
 11
178.1088845531162
 21
-593.4381445405369
 31
0.0
  0
ARC
  5
16F
330
1F
100
AcDbEntity
  8
telaio33cm
100
AcDbCircle
 10
178.462437936259
 20
-593.7916979385808
 30
0.0
 40
0.5
100
AcDbArc
 50
134.9999987925771
 51
224.9999987925771
  0
LINE
  5
170
330
1F
100
AcDbEntity
  8
telaio33cm
100
AcDbLine
 10
178.1088845382151
 20
-594.1452513217234
 30
0.0
 11
181.6518960448523
 21
-597.6882629776873
 31
0.0
  0
ARC
  5
171
330
1F
100
AcDbEntity
  8
telaio33cm
100
AcDbCircle
 10
29.07136728413644
 20
-743.1678167786825
 30
0.0
 40
0.5000000000000041
100
AcDbArc
 50
44.99999879257713
 51
133.7752843760287
  0
LINE
  5
172
330
1F
100
AcDbEntity
  8
telaio33cm
100
AcDbLine
 10
28.72545140189419
 20
-742.8067874136547
 30
0.0
 11
27.28100396787033
 21
-744.1907671031026
 31
0.0
  0
ARC
  5
173
330
1F
100
AcDbEntity
  8
telaio33cm
100
AcDbCircle
 10
27.62691985011264
 20
-744.5517964681306
 30
0.0
 40
0.5
100
AcDbArc
 50
133.7752843760255
 51
224.9999987925768
  0
LINE
  5
174
330
1F
100
AcDbEntity
  8
telaio33cm
100
AcDbLine
 10
27.27336645206879
 20
-744.9053498512733
 30
0.0
 11
29.07884488484075
 21
-746.7108283601406
 31
0.0
  0
LINE
  5
175
330
1F
100
AcDbEntity
  8
telaio33cm
100
AcDbLine
 10
29.07884488484075
 20
-746.7108283601406
 30
0.0
 11
30.84661180055423
 21
-748.4785953503598
 31
0.0
  0
ARC
  5
176
330
1F
100
AcDbEntity
  8
telaio33cm
100
AcDbCircle
 10
31.20016519859809
 20
-748.1250419672172
 30
0.0
 40
0.5
100
AcDbArc
 50
224.9999987925774
 51
314.999998792586
  0
LINE
  5
177
330
1F
100
AcDbEntity
  8
telaio33cm
100
AcDbLine
 10
31.55371858174078
 20
-748.478595365261
 30
0.0
 11
32.96793217391621
 21
-747.0643818326903
 31
0.0
  0
ARC
  5
178
330
1F
100
AcDbEntity
  8
telaio33cm
100
AcDbCircle
 10
32.61437879077351
 20
-746.7108284346464
 30
0.0
 40
0.5
100
AcDbArc
 50
314.9999987925771
 51
44.99999879257656
  0
LINE
  5
179
330
1F
100
AcDbEntity
  8
telaio33cm
100
AcDbLine
 10
32.96793218881737
 20
-746.3572750515037
 30
0.0
 11
29.4249206821803
 21
-742.8142633955399
 31
0.0
  0
ARC
  5
17A
330
1F
100
AcDbEntity
  8
telaio33cm
100
AcDbCircle
 10
128.9574894522907
 20
-746.7183011927918
 30
0.0
 40
0.5000000000000041
100
AcDbArc
 50
135.0000012074229
 51
223.7752867908733
  0
LINE
  5
17B
330
1F
100
AcDbEntity
  8
telaio33cm
100
AcDbLine
 10
128.596460101842
 20
-747.0642170902503
 30
0.0
 11
129.980439852169
 21
-748.5086644659438
 31
0.0
  0
ARC
  5
17C
330
1F
100
AcDbEntity
  8
telaio33cm
100
AcDbCircle
 10
130.3414692026176
 20
-748.1627485684852
 30
0.0
 40
0.5
100
AcDbArc
 50
223.7752867908617
 51
315.0000012074137
  0
LINE
  5
17D
330
1F
100
AcDbEntity
  8
telaio33cm
100
AcDbLine
 10
130.6950226006614
 20
-748.516301951628
 30
0.0
 11
132.5005010334334
 21
-746.7108234427607
 31
0.0
  0
LINE
  5
17E
330
1F
100
AcDbEntity
  8
telaio33cm
100
AcDbLine
 10
132.5005010334334
 20
-746.7108234427607
 30
0.0
 11
134.2682679491469
 21
-744.9430564525413
 31
0.0
  0
ARC
  5
17F
330
1F
100
AcDbEntity
  8
telaio33cm
100
AcDbCircle
 10
133.9147145511031
 20
-744.5895030693987
 30
0.0
 40
0.5
100
AcDbArc
 50
315.0000012074229
 51
45.00000120741366
  0
LINE
  5
180
330
1F
100
AcDbEntity
  8
telaio33cm
100
AcDbLine
 10
134.2682679342457
 20
-744.2359496713549
 30
0.0
 11
132.8540543420703
 21
-742.8217361387841
 31
0.0
  0
ARC
  5
181
330
1F
100
AcDbEntity
  8
telaio33cm
100
AcDbCircle
 10
132.5005009589277
 20
-743.1752895368279
 30
0.0
 40
0.5
100
AcDbArc
 50
45.00000120741366
 51
135.0000012074137
  0
LINE
  5
182
330
1F
100
AcDbEntity
  8
telaio33cm
100
AcDbLine
 10
132.1469475608837
 20
-742.8217361536852
 30
0.0
 11
128.6039360542468
 21
-746.3647478096492
 31
0.0
  0
ARC
  5
183
330
1F
100
AcDbEntity
  8
telaio33cm
100
AcDbCircle
 10
-6.500000076815009
 20
-718.6440128425525
 30
0.0
 40
2.000000000000103
100
AcDbArc
 50
95.73916926985459
 51
179.9999987925804
  0
LINE
  5
184
330
1F
100
AcDbEntity
  8
telaio33cm
100
AcDbLine
 10
-8.500000076815112
 20
-718.6440128004056
 30
0.0
 11
-8.500000148858817
 21
-722.06270947239
 31
0.0
  0
ARC
  5
185
330
1F
100
AcDbEntity
  8
telaio33cm
100
AcDbCircle
 10
-6.50000014885896
 20
-722.0627095145371
 30
0.0
 40
1.999999999999857
100
AcDbArc
 50
179.9999987925739
 51
264.2608283153131
  0
ARC
  5
186
330
1F
100
AcDbEntity
  8
telaio33cm
100
AcDbCircle
 10
-6.00000004401965
 20
-717.0877723395424
 30
0.0
 40
6.999999999998178
100
AcDbArc
 50
264.2608283153102
 51
275.7391692698469
  0
ARC
  5
187
330
1F
100
AcDbEntity
  8
telaio33cm
100
AcDbCircle
 10
-5.500000148858794
 20
-722.0627095356106
 30
0.0
 40
1.999999999999889
100
AcDbArc
 50
275.739169269843
 51
359.999998792587
  0
LINE
  5
188
330
1F
100
AcDbEntity
  8
telaio33cm
100
AcDbLine
 10
-3.500000148858906
 20
-722.0627095777572
 30
0.0
 11
-3.500000076815127
 21
-718.6440129057728
 31
0.0
  0
ARC
  5
189
330
1F
100
AcDbEntity
  8
telaio33cm
100
AcDbCircle
 10
-5.500000076814928
 20
-718.6440128636254
 30
0.0
 40
1.999999999999801
100
AcDbArc
 50
359.9999987925674
 51
84.26082831531195
  0
ARC
  5
18A
330
1F
100
AcDbEntity
  8
telaio33cm
100
AcDbCircle
 10
-6.000000181654393
 20
-723.6189500385312
 30
0.0
 40
6.999999999909512
100
AcDbArc
 50
84.26082831523581
 51
95.73916926992133
  0
ARC
  5
18B
330
1F
100
AcDbEntity
  8
telaio33cm
100
AcDbCircle
 10
-3.937290569755703
 20
-664.500000233118
 30
0.0
 40
1.999999999999318
100
AcDbArc
 50
269.9999987925617
 51
354.260828315329
  0
ARC
  5
18C
330
1F
100
AcDbEntity
  8
telaio33cm
100
AcDbCircle
 10
-8.91222774474872
 20
-664.0000001282779
 30
0.0
 40
6.999999999996128
100
AcDbArc
 50
354.2608283153063
 51
5.739169269846997
  0
ARC
  5
18D
330
1F
100
AcDbEntity
  8
telaio33cm
100
AcDbCircle
 10
-3.937290548682539
 20
-663.5000002331171
 30
0.0
 40
1.999999999999659
100
AcDbArc
 50
5.739169269841986
 51
89.99999879259184
  0
LINE
  5
18E
330
1F
100
AcDbEntity
  8
telaio33cm
100
AcDbLine
 10
-3.937290506536044
 20
-661.5000002331175
 30
0.0
 11
-7.355987178520337
 21
-661.5000001610738
 31
0.0
  0
ARC
  5
18F
330
1F
100
AcDbEntity
  8
telaio33cm
100
AcDbCircle
 10
-7.355987220667657
 20
-663.5000001610736
 30
0.0
 40
1.999999999999773
100
AcDbArc
 50
89.99999879256822
 51
174.2608283153173
  0
ARC
  5
190
330
1F
100
AcDbEntity
  8
telaio33cm
100
AcDbCircle
 10
-2.381050045674918
 20
-664.0000002659131
 30
0.0
 40
6.999999999996069
100
AcDbArc
 50
174.2608283153081
 51
185.7391692698489
  0
ARC
  5
191
330
1F
100
AcDbEntity
  8
telaio33cm
100
AcDbCircle
 10
-7.355987241740252
 20
-664.5000001610733
 30
0.0
 40
2.000000000000455
100
AcDbArc
 50
185.7391692698593
 51
269.9999987925657
  0
LINE
  5
192
330
1F
100
AcDbEntity
  8
telaio33cm
100
AcDbLine
 10
-7.355987283887657
 20
-666.5000001610738
 30
0.0
 11
-3.937290611903251
 21
-666.5000002331174
 31
0.0
  0
ARC
  5
193
330
1F
100
AcDbEntity
  8
telaio33cm
100
AcDbCircle
 10
-15.49999985116387
 20
-652.9372904643903
 30
0.0
 40
2.000000000000334
100
AcDbArc
 50
95.73916926984977
 51
179.9999987925739
  0
LINE
  5
194
330
1F
100
AcDbEntity
  8
telaio33cm
100
AcDbLine
 10
-17.49999985116415
 20
-652.9372904222432
 30
0.0
 11
-17.49999992320772
 21
-656.3559870942277
 31
0.0
  0
ARC
  5
195
330
1F
100
AcDbEntity
  8
telaio33cm
100
AcDbCircle
 10
-15.49999992320715
 20
-656.3559871363739
 30
0.0
 40
2.000000000000572
100
AcDbArc
 50
179.9999987926
 51
264.2608283152966
  0
ARC
  5
196
330
1F
100
AcDbEntity
  8
telaio33cm
100
AcDbCircle
 10
-14.99999981836836
 20
-651.3810499613328
 30
0.0
 40
7.000000000045023
100
AcDbArc
 50
264.2608283153476
 51
275.7391692698095
  0
ARC
  5
197
330
1F
100
AcDbEntity
  8
telaio33cm
100
AcDbCircle
 10
-14.49999992320737
 20
-656.3559871574482
 30
0.0
 40
1.999999999999651
100
AcDbArc
 50
275.739169269844
 51
359.999998792587
  0
LINE
  5
198
330
1F
100
AcDbEntity
  8
telaio33cm
100
AcDbLine
 10
-12.49999992320772
 20
-656.3559871995949
 30
0.0
 11
-12.49999985116392
 21
-652.9372905276105
 31
0.0
  0
ARC
  5
199
330
1F
100
AcDbEntity
  8
telaio33cm
100
AcDbCircle
 10
-14.49999985116371
 20
-652.9372904854633
 30
0.0
 40
1.999999999999791
100
AcDbArc
 50
359.9999987925739
 51
84.26082831531929
  0
ARC
  5
19A
330
1F
100
AcDbEntity
  8
telaio33cm
100
AcDbCircle
 10
-14.99999995600326
 20
-657.9122276604589
 30
0.0
 40
6.999999999999086
100
AcDbArc
 50
84.26082831531076
 51
95.73916926984639
  0
ARC
  5
19B
330
1F
100
AcDbEntity
  8
telaio33cm
100
AcDbCircle
 10
-6.499999682576972
 20
-699.9372904643899
 30
0.0
 40
2.000000000000336
100
AcDbArc
 50
95.73916926984978
 51
179.9999987925739
  0
LINE
  5
19C
330
1F
100
AcDbEntity
  8
telaio33cm
100
AcDbLine
 10
-8.499999682577254
 20
-699.9372904222428
 30
0.0
 11
-8.49999975462083
 21
-703.3559870942272
 31
0.0
  0
ARC
  5
19D
330
1F
100
AcDbEntity
  8
telaio33cm
100
AcDbCircle
 10
-6.49999975462026
 20
-703.3559871363734
 30
0.0
 40
2.000000000000571
100
AcDbArc
 50
179.9999987926
 51
264.2608283152966
  0
ARC
  5
19E
330
1F
100
AcDbEntity
  8
telaio33cm
100
AcDbCircle
 10
-5.999999649781465
 20
-698.3810499613323
 30
0.0
 40
7.000000000045023
100
AcDbArc
 50
264.2608283153476
 51
275.7391692698095
  0
ARC
  5
19F
330
1F
100
AcDbEntity
  8
telaio33cm
100
AcDbCircle
 10
-5.499999754620479
 20
-703.3559871574478
 30
0.0
 40
1.999999999999649
100
AcDbArc
 50
275.7391692698439
 51
359.999998792587
  0
LINE
  5
1A0
330
1F
100
AcDbEntity
  8
telaio33cm
100
AcDbLine
 10
-3.499999754620831
 20
-703.3559871995944
 30
0.0
 11
-3.499999682577027
 21
-699.93729052761
 31
0.0
  0
ARC
  5
1A1
330
1F
100
AcDbEntity
  8
telaio33cm
100
AcDbCircle
 10
-5.499999682576817
 20
-699.9372904854629
 30
0.0
 40
1.999999999999791
100
AcDbArc
 50
359.9999987925739
 51
84.26082831531927
  0
ARC
  5
1A2
330
1F
100
AcDbEntity
  8
telaio33cm
100
AcDbCircle
 10
-5.999999787416364
 20
-704.9122276604585
 30
0.0
 40
6.999999999999084
100
AcDbArc
 50
84.26082831531076
 51
95.73916926984639
  0
ARC
  5
1A3
330
1F
100
AcDbEntity
  8
telaio33cm
100
AcDbCircle
 10
5.062709598831191
 20
-711.5000002331176
 30
0.0
 40
1.999999999999318
100
AcDbArc
 50
269.9999987925617
 51
354.260828315329
  0
ARC
  5
1A4
330
1F
100
AcDbEntity
  8
telaio33cm
100
AcDbCircle
 10
0.0877724238451343
 20
-711.0000001282774
 30
0.0
 40
6.999999999989114
100
AcDbArc
 50
354.2608283153005
 51
5.739169269852765
  0
ARC
  5
1A5
330
1F
100
AcDbEntity
  8
telaio33cm
100
AcDbCircle
 10
5.062709619904354
 20
-710.5000002331167
 30
0.0
 40
1.999999999999659
100
AcDbArc
 50
5.739169269841983
 51
89.99999879259182
  0
LINE
  5
1A6
330
1F
100
AcDbEntity
  8
telaio33cm
100
AcDbLine
 10
5.06270966205085
 20
-708.500000233117
 30
0.0
 11
1.644012990066557
 21
-708.5000001610733
 31
0.0
  0
ARC
  5
1A7
330
1F
100
AcDbEntity
  8
telaio33cm
100
AcDbCircle
 10
1.644012947919236
 20
-710.5000001610731
 30
0.0
 40
1.999999999999773
100
AcDbArc
 50
89.99999879256822
 51
174.2608283153173
  0
ARC
  5
1A8
330
1F
100
AcDbEntity
  8
telaio33cm
100
AcDbCircle
 10
6.618950122912094
 20
-711.0000002659126
 30
0.0
 40
6.999999999996187
100
AcDbArc
 50
174.2608283153082
 51
185.7391692698488
  0
ARC
  5
1A9
330
1F
100
AcDbEntity
  8
telaio33cm
100
AcDbCircle
 10
1.644012926846642
 20
-711.5000001610729
 30
0.0
 40
2.000000000000455
100
AcDbArc
 50
185.7391692698593
 51
269.9999987925657
  0
LINE
  5
1AA
330
1F
100
AcDbEntity
  8
telaio33cm
100
AcDbLine
 10
1.644012884699237
 20
-713.5000001610733
 30
0.0
 11
5.062709556683643
 21
-713.5000002331169
 31
0.0
  0
ARC
  5
1AB
330
1F
100
AcDbEntity
  8
telaio33cm
100
AcDbCircle
 10
-13.64401275825853
 20
-710.4999998389358
 30
0.0
 40
1.999999999999773
100
AcDbArc
 50
5.73916926984166
 51
89.99999879258857
  0
LINE
  5
1AC
330
1F
100
AcDbEntity
  8
telaio33cm
100
AcDbLine
 10
-13.64401271611192
 20
-708.499999838936
 30
0.0
 11
-17.06270938809803
 21
-708.4999997668924
 31
0.0
  0
ARC
  5
1AD
330
1F
100
AcDbEntity
  8
telaio33cm
100
AcDbCircle
 10
-17.06270943024492
 20
-710.4999997668924
 30
0.0
 40
2.0
100
AcDbArc
 50
89.99999879258043
 51
174.2608283153179
  0
ARC
  5
1AE
330
1F
100
AcDbEntity
  8
telaio33cm
100
AcDbCircle
 10
-12.08777225524256
 20
-710.9999998717321
 30
0.0
 40
7.000000000006025
100
AcDbArc
 50
174.2608283153145
 51
185.739169269837
  0
ARC
  5
1AF
330
1F
100
AcDbEntity
  8
telaio33cm
100
AcDbCircle
 10
-17.06270945131809
 20
-711.499999766892
 30
0.0
 40
2.000000000000455
100
AcDbArc
 50
185.7391692698593
 51
269.9999987925731
  0
LINE
  5
1B0
330
1F
100
AcDbEntity
  8
telaio33cm
100
AcDbLine
 10
-17.06270949346523
 20
-713.4999997668924
 30
0.0
 11
-13.64401282147895
 21
-713.499999838936
 31
0.0
  0
ARC
  5
1B1
330
1F
100
AcDbEntity
  8
telaio33cm
100
AcDbCircle
 10
-13.64401277933246
 20
-711.4999998389358
 30
0.0
 40
2.000000000000228
100
AcDbArc
 50
269.9999987925918
 51
354.260828315312
  0
ARC
  5
1B2
330
1F
100
AcDbEntity
  8
telaio33cm
100
AcDbCircle
 10
-18.61894995433043
 20
-710.999999734097
 30
0.0
 40
7.000000000001905
100
AcDbArc
 50
354.2608283153166
 51
5.739169269845985
  0
ARC
  5
1B3
330
1F
100
AcDbEntity
  8
telaio33cm
100
AcDbCircle
 10
168.500000317423
 20
-649.9372904643899
 30
0.0
 40
2.000000000000342
100
AcDbArc
 50
95.73916926984987
 51
179.9999987925739
  0
LINE
  5
1B4
330
1F
100
AcDbEntity
  8
telaio33cm
100
AcDbLine
 10
166.5000003174227
 20
-649.9372904222428
 30
0.0
 11
166.5000002453792
 21
-653.3559870942272
 31
0.0
  0
ARC
  5
1B5
330
1F
100
AcDbEntity
  8
telaio33cm
100
AcDbCircle
 10
168.5000002453797
 20
-653.3559871363734
 30
0.0
 40
2.000000000000569
100
AcDbArc
 50
179.9999987926
 51
264.2608283152966
  0
ARC
  5
1B6
330
1F
100
AcDbEntity
  8
telaio33cm
100
AcDbCircle
 10
169.0000003502186
 20
-648.3810499613332
 30
0.0
 40
7.000000000044119
100
AcDbArc
 50
264.2608283153467
 51
275.7391692698101
  0
ARC
  5
1B7
330
1F
100
AcDbEntity
  8
telaio33cm
100
AcDbCircle
 10
169.5000002453795
 20
-653.3559871574478
 30
0.0
 40
1.999999999999631
100
AcDbArc
 50
275.7391692698437
 51
359.999998792587
  0
LINE
  5
1B8
330
1F
100
AcDbEntity
  8
telaio33cm
100
AcDbLine
 10
171.5000002453792
 20
-653.3559871995944
 30
0.0
 11
171.500000317423
 21
-649.93729052761
 31
0.0
  0
ARC
  5
1B9
330
1F
100
AcDbEntity
  8
telaio33cm
100
AcDbCircle
 10
169.5000003174231
 20
-649.9372904854629
 30
0.0
 40
1.99999999999983
100
AcDbArc
 50
359.9999987925739
 51
84.26082831531818
  0
ARC
  5
1BA
330
1F
100
AcDbEntity
  8
telaio33cm
100
AcDbCircle
 10
169.0000002125836
 20
-654.912227660458
 30
0.0
 40
6.999999999998638
100
AcDbArc
 50
84.26082831531001
 51
95.73916926984634
  0
ARC
  5
1BB
330
1F
100
AcDbEntity
  8
telaio33cm
100
AcDbCircle
 10
180.0627095988312
 20
-661.5000002331176
 30
0.0
 40
1.999999999999318
100
AcDbArc
 50
269.9999987925617
 51
354.2608283153291
  0
ARC
  5
1BC
330
1F
100
AcDbEntity
  8
telaio33cm
100
AcDbCircle
 10
175.087772423838
 20
-661.0000001282779
 30
0.0
 40
6.999999999996236
100
AcDbArc
 50
354.2608283153102
 51
5.739169269850657
  0
ARC
  5
1BD
330
1F
100
AcDbEntity
  8
telaio33cm
100
AcDbCircle
 10
180.0627096199044
 20
-660.5000002331167
 30
0.0
 40
1.999999999999659
100
AcDbArc
 50
5.739169269842001
 51
89.99999879259182
  0
LINE
  5
1BE
330
1F
100
AcDbEntity
  8
telaio33cm
100
AcDbLine
 10
180.0627096620508
 20
-658.5000002331169
 30
0.0
 11
176.6440129900666
 21
-658.5000001610733
 31
0.0
  0
ARC
  5
1BF
330
1F
100
AcDbEntity
  8
telaio33cm
100
AcDbCircle
 10
176.6440129479192
 20
-660.5000001610731
 30
0.0
 40
1.999999999999773
100
AcDbArc
 50
89.99999879256822
 51
174.2608283153172
  0
ARC
  5
1C0
330
1F
100
AcDbEntity
  8
telaio33cm
100
AcDbCircle
 10
181.6189501229131
 20
-661.0000002659117
 30
0.0
 40
6.999999999997187
100
AcDbArc
 50
174.2608283153165
 51
185.7391692698554
  0
ARC
  5
1C1
330
1F
100
AcDbEntity
  8
telaio33cm
100
AcDbCircle
 10
176.6440129268466
 20
-661.5000001610728
 30
0.0
 40
2.000000000000569
100
AcDbArc
 50
185.7391692698622
 51
269.9999987925657
  0
LINE
  5
1C2
330
1F
100
AcDbEntity
  8
telaio33cm
100
AcDbLine
 10
176.6440128846992
 20
-663.5000001610733
 30
0.0
 11
180.0627095566836
 21
-663.5000002331169
 31
0.0
  0
ARC
  5
1C3
330
1F
100
AcDbEntity
  8
telaio33cm
100
AcDbCircle
 10
168.499999923185
 20
-668.6440128425525
 30
0.0
 40
2.000000000000114
100
AcDbArc
 50
95.73916926985456
 51
179.9999987925804
  0
LINE
  5
1C4
330
1F
100
AcDbEntity
  8
telaio33cm
100
AcDbLine
 10
166.4999999231849
 20
-668.6440128004056
 30
0.0
 11
166.4999998511412
 21
-672.06270947239
 31
0.0
  0
ARC
  5
1C5
330
1F
100
AcDbEntity
  8
telaio33cm
100
AcDbCircle
 10
168.499999851141
 20
-672.0627095145371
 30
0.0
 40
1.999999999999773
100
AcDbArc
 50
179.9999987925739
 51
264.2608283153157
  0
ARC
  5
1C6
330
1F
100
AcDbEntity
  8
telaio33cm
100
AcDbCircle
 10
168.9999999559803
 20
-667.087772339542
 30
0.0
 40
6.999999999998629
100
AcDbArc
 50
264.2608283153107
 51
275.7391692698466
  0
ARC
  5
1C7
330
1F
100
AcDbEntity
  8
telaio33cm
100
AcDbCircle
 10
169.4999998511413
 20
-672.0627095356106
 30
0.0
 40
1.99999999999983
100
AcDbArc
 50
275.7391692698414
 51
359.999998792587
  0
LINE
  5
1C8
330
1F
100
AcDbEntity
  8
telaio33cm
100
AcDbLine
 10
171.4999998511411
 20
-672.0627095777572
 30
0.0
 11
171.4999999231849
 21
-668.6440129057728
 31
0.0
  0
ARC
  5
1C9
330
1F
100
AcDbEntity
  8
telaio33cm
100
AcDbCircle
 10
169.4999999231851
 20
-668.6440128636254
 30
0.0
 40
1.999999999999801
100
AcDbArc
 50
359.9999987925674
 51
84.2608283153117
  0
ARC
  5
1CA
330
1F
100
AcDbEntity
  8
telaio33cm
100
AcDbCircle
 10
168.9999998183456
 20
-673.6189500385317
 30
0.0
 40
6.999999999909965
100
AcDbArc
 50
84.26082831523613
 51
95.73916926992092
  0
ARC
  5
1CB
330
1F
100
AcDbEntity
  8
telaio33cm
100
AcDbCircle
 10
161.3559872417415
 20
-660.4999998389358
 30
0.0
 40
1.999999999999773
100
AcDbArc
 50
5.739169269841675
 51
89.99999879258857
  0
LINE
  5
1CC
330
1F
100
AcDbEntity
  8
telaio33cm
100
AcDbLine
 10
161.3559872838881
 20
-658.499999838936
 30
0.0
 11
157.937290611902
 21
-658.4999997668924
 31
0.0
  0
ARC
  5
1CD
330
1F
100
AcDbEntity
  8
telaio33cm
100
AcDbCircle
 10
157.9372905697551
 20
-660.4999997668924
 30
0.0
 40
2.0
100
AcDbArc
 50
89.99999879258043
 51
174.260828315318
  0
ARC
  5
1CE
330
1F
100
AcDbEntity
  8
telaio33cm
100
AcDbCircle
 10
162.9122277447519
 20
-660.9999998717317
 30
0.0
 40
7.000000000000564
100
AcDbArc
 50
174.2608283153137
 51
185.7391692698452
  0
ARC
  5
1CF
330
1F
100
AcDbEntity
  8
telaio33cm
100
AcDbCircle
 10
157.9372905486819
 20
-661.499999766892
 30
0.0
 40
2.000000000000455
100
AcDbArc
 50
185.7391692698593
 51
269.9999987925731
  0
LINE
  5
1D0
330
1F
100
AcDbEntity
  8
telaio33cm
100
AcDbLine
 10
157.9372905065348
 20
-663.4999997668924
 30
0.0
 11
161.355987178521
 21
-663.499999838936
 31
0.0
  0
ARC
  5
1D1
330
1F
100
AcDbEntity
  8
telaio33cm
100
AcDbCircle
 10
161.3559872206675
 20
-661.4999998389358
 30
0.0
 40
2.000000000000228
100
AcDbArc
 50
269.9999987925918
 51
354.260828315312
  0
ARC
  5
1D2
330
1F
100
AcDbEntity
  8
telaio33cm
100
AcDbCircle
 10
156.3810500456694
 20
-660.9999997340974
 30
0.0
 40
7.000000000001993
100
AcDbArc
 50
354.2608283153205
 51
5.739169269849638
  0
ARC
  5
1D3
330
1F
100
AcDbEntity
  8
telaio33cm
100
AcDbCircle
 10
159.500000317423
 20
-701.9372904643899
 30
0.0
 40
2.000000000000342
100
AcDbArc
 50
95.73916926984987
 51
179.9999987925739
  0
LINE
  5
1D4
330
1F
100
AcDbEntity
  8
telaio33cm
100
AcDbLine
 10
157.5000003174227
 20
-701.9372904222428
 30
0.0
 11
157.5000002453792
 21
-705.3559870942272
 31
0.0
  0
ARC
  5
1D5
330
1F
100
AcDbEntity
  8
telaio33cm
100
AcDbCircle
 10
159.5000002453797
 20
-705.3559871363734
 30
0.0
 40
2.000000000000569
100
AcDbArc
 50
179.9999987926
 51
264.2608283152966
  0
ARC
  5
1D6
330
1F
100
AcDbEntity
  8
telaio33cm
100
AcDbCircle
 10
160.0000003502186
 20
-700.3810499613337
 30
0.0
 40
7.000000000043666
100
AcDbArc
 50
264.2608283153463
 51
275.7391692698107
  0
ARC
  5
1D7
330
1F
100
AcDbEntity
  8
telaio33cm
100
AcDbCircle
 10
160.5000002453795
 20
-705.3559871574478
 30
0.0
 40
1.999999999999659
100
AcDbArc
 50
275.7391692698442
 51
359.999998792587
  0
LINE
  5
1D8
330
1F
100
AcDbEntity
  8
telaio33cm
100
AcDbLine
 10
162.5000002453792
 20
-705.3559871995944
 30
0.0
 11
162.500000317423
 21
-701.93729052761
 31
0.0
  0
ARC
  5
1D9
330
1F
100
AcDbEntity
  8
telaio33cm
100
AcDbCircle
 10
160.5000003174232
 20
-701.9372904854629
 30
0.0
 40
1.999999999999801
100
AcDbArc
 50
359.9999987925739
 51
84.26082831531899
  0
ARC
  5
1DA
330
1F
100
AcDbEntity
  8
telaio33cm
100
AcDbCircle
 10
160.0000002125836
 20
-706.9122276604576
 30
0.0
 40
6.999999999998185
100
AcDbArc
 50
84.26082831530964
 51
95.73916926984671
  0
ARC
  5
1DB
330
1F
100
AcDbEntity
  8
telaio33cm
100
AcDbCircle
 10
171.0627095988312
 20
-713.5000002331176
 30
0.0
 40
1.999999999999318
100
AcDbArc
 50
269.9999987925617
 51
354.2608283153291
  0
ARC
  5
1DC
330
1F
100
AcDbEntity
  8
telaio33cm
100
AcDbCircle
 10
166.087772423838
 20
-713.0000001282774
 30
0.0
 40
6.999999999996282
100
AcDbArc
 50
354.2608283153064
 51
5.73916926984686
  0
ARC
  5
1DD
330
1F
100
AcDbEntity
  8
telaio33cm
100
AcDbCircle
 10
171.0627096199044
 20
-712.5000002331167
 30
0.0
 40
1.999999999999659
100
AcDbArc
 50
5.739169269842001
 51
89.99999879259182
  0
LINE
  5
1DE
330
1F
100
AcDbEntity
  8
telaio33cm
100
AcDbLine
 10
171.0627096620508
 20
-710.5000002331169
 30
0.0
 11
167.6440129900666
 21
-710.5000001610733
 31
0.0
  0
ARC
  5
1DF
330
1F
100
AcDbEntity
  8
telaio33cm
100
AcDbCircle
 10
167.6440129479192
 20
-712.5000001610731
 30
0.0
 40
1.999999999999773
100
AcDbArc
 50
89.99999879256822
 51
174.2608283153172
  0
ARC
  5
1E0
330
1F
100
AcDbEntity
  8
telaio33cm
100
AcDbCircle
 10
172.6189501229131
 20
-713.0000002659121
 30
0.0
 40
6.999999999997232
100
AcDbArc
 50
174.2608283153128
 51
185.7391692698517
  0
ARC
  5
1E1
330
1F
100
AcDbEntity
  8
telaio33cm
100
AcDbCircle
 10
167.6440129268466
 20
-713.5000001610729
 30
0.0
 40
2.000000000000455
100
AcDbArc
 50
185.7391692698593
 51
269.9999987925657
  0
LINE
  5
1E2
330
1F
100
AcDbEntity
  8
telaio33cm
100
AcDbLine
 10
167.6440128846992
 20
-715.5000001610733
 30
0.0
 11
171.0627095566836
 21
-715.5000002331169
 31
0.0
  0
ARC
  5
1E3
330
1F
100
AcDbEntity
  8
telaio33cm
100
AcDbCircle
 10
159.499999923185
 20
-720.6440128425525
 30
0.0
 40
2.000000000000114
100
AcDbArc
 50
95.73916926985456
 51
179.9999987925804
  0
LINE
  5
1E4
330
1F
100
AcDbEntity
  8
telaio33cm
100
AcDbLine
 10
157.4999999231849
 20
-720.6440128004056
 30
0.0
 11
157.4999998511412
 21
-724.06270947239
 31
0.0
  0
ARC
  5
1E5
330
1F
100
AcDbEntity
  8
telaio33cm
100
AcDbCircle
 10
159.499999851141
 20
-724.0627095145371
 30
0.0
 40
1.999999999999801
100
AcDbArc
 50
179.9999987925739
 51
264.2608283153149
  0
ARC
  5
1E6
330
1F
100
AcDbEntity
  8
telaio33cm
100
AcDbCircle
 10
159.9999999559803
 20
-719.087772339542
 30
0.0
 40
6.999999999998629
100
AcDbArc
 50
264.2608283153107
 51
275.7391692698466
  0
ARC
  5
1E7
330
1F
100
AcDbEntity
  8
telaio33cm
100
AcDbCircle
 10
160.4999998511413
 20
-724.0627095356106
 30
0.0
 40
1.999999999999801
100
AcDbArc
 50
275.7391692698406
 51
359.999998792587
  0
LINE
  5
1E8
330
1F
100
AcDbEntity
  8
telaio33cm
100
AcDbLine
 10
162.4999998511411
 20
-724.0627095777572
 30
0.0
 11
162.4999999231849
 21
-720.6440129057728
 31
0.0
  0
ARC
  5
1E9
330
1F
100
AcDbEntity
  8
telaio33cm
100
AcDbCircle
 10
160.4999999231851
 20
-720.6440128636254
 30
0.0
 40
1.999999999999801
100
AcDbArc
 50
359.9999987925674
 51
84.2608283153117
  0
ARC
  5
1EA
330
1F
100
AcDbEntity
  8
telaio33cm
100
AcDbCircle
 10
159.9999998183456
 20
-725.6189500385317
 30
0.0
 40
6.999999999909965
100
AcDbArc
 50
84.26082831523613
 51
95.73916926992092
  0
POLYLINE
  5
1EB
330
1F
100
AcDbEntity
  8
telaio33cm
100
AcDb2dPolyline
 66
     1
 10
0.0
 20
0.0
 30
0.0
 70
     1
  0
VERTEX
  5
1EC
330
1EB
100
AcDbEntity
  8
telaio33cm
100
AcDbVertex
100
AcDb2dVertex
 10
65.5
 20
-782.4999999999999
 30
0.0
  0
VERTEX
  5
1ED
330
1EB
100
AcDbEntity
  8
telaio33cm
100
AcDbVertex
100
AcDb2dVertex
 10
65.5
 20
-809.4999999999999
 30
0.0
  0
VERTEX
  5
1EE
330
1EB
100
AcDbEntity
  8
telaio33cm
100
AcDbVertex
100
AcDb2dVertex
 10
92.5
 20
-809.4999999999999
 30
0.0
  0
VERTEX
  5
1EF
330
1EB
100
AcDbEntity
  8
telaio33cm
100
AcDbVertex
100
AcDb2dVertex
 10
92.5
 20
-782.4999999999999
 30
0.0
  0
SEQEND
  5
1F0
330
1EB
100
AcDbEntity
  8
telaio33cm
  0
LINE
  5
1F1
330
1F
100
AcDbEntity
  8
telaio33cm
100
AcDbLine
 10
49.0
 20
-831.0
 30
0.0
 11
109.0
 21
-831.0
 31
0.0
  0
ARC
  5
1F2
330
1F
100
AcDbEntity
  8
telaio33cm
100
AcDbCircle
 10
109.0
 20
-826.0
 30
0.0
 40
5.0
100
AcDbArc
 50
270.0
 51
359.9999999999987
  0
LINE
  5
1F3
330
1F
100
AcDbEntity
  8
telaio33cm
100
AcDbLine
 10
114.0
 20
-826.0
 30
0.0
 11
114.0
 21
-766.0
 31
0.0
  0
ARC
  5
1F4
330
1F
100
AcDbEntity
  8
telaio33cm
100
AcDbCircle
 10
109.0
 20
-766.0
 30
0.0
 40
5.0
100
AcDbArc
 50
0.0
 51
90.0
  0
LINE
  5
1F5
330
1F
100
AcDbEntity
  8
telaio33cm
100
AcDbLine
 10
109.0
 20
-761.0
 30
0.0
 11
49.0
 21
-761.0
 31
0.0
  0
ARC
  5
1F6
330
1F
100
AcDbEntity
  8
telaio33cm
100
AcDbCircle
 10
49.0
 20
-766.0
 30
0.0
 40
5.0
100
AcDbArc
 50
90.0
 51
180.0000000000013
  0
LINE
  5
1F7
330
1F
100
AcDbEntity
  8
telaio33cm
100
AcDbLine
 10
44.0
 20
-766.0000000000001
 30
0.0
 11
44.0
 21
-826.0
 31
0.0
  0
ARC
  5
1F8
330
1F
100
AcDbEntity
  8
telaio33cm
100
AcDbCircle
 10
49.0
 20
-826.0
 30
0.0
 40
5.0
100
AcDbArc
 50
180.0
 51
270.0
  0
LINE
  5
1F9
330
1F
100
AcDbEntity
  8
telaio33cm
100
AcDbLine
 10
46.0
 20
-568.0
 30
0.0
 11
46.0
 21
-628.0
 31
0.0
  0
ARC
  5
1FA
330
1F
100
AcDbEntity
  8
telaio33cm
100
AcDbCircle
 10
51.0
 20
-628.0
 30
0.0
 40
5.0
100
AcDbArc
 50
180.0
 51
269.9999999999993
  0
LINE
  5
1FB
330
1F
100
AcDbEntity
  8
telaio33cm
100
AcDbLine
 10
50.99999999999994
 20
-633.0
 30
0.0
 11
111.0
 21
-633.0
 31
0.0
  0
ARC
  5
1FC
330
1F
100
AcDbEntity
  8
telaio33cm
100
AcDbCircle
 10
111.0
 20
-628.0000000000001
 30
0.0
 40
5.0
100
AcDbArc
 50
270.0
 51
0.0
  0
LINE
  5
1FD
330
1F
100
AcDbEntity
  8
telaio33cm
100
AcDbLine
 10
116.0
 20
-628.0000000000001
 30
0.0
 11
116.0
 21
-568.0
 31
0.0
  0
ARC
  5
1FE
330
1F
100
AcDbEntity
  8
telaio33cm
100
AcDbCircle
 10
111.0
 20
-568.0
 30
0.0
 40
5.0
100
AcDbArc
 50
0.0
 51
90.0
  0
LINE
  5
1FF
330
1F
100
AcDbEntity
  8
telaio33cm
100
AcDbLine
 10
111.0
 20
-563.0
 30
0.0
 11
51.0
 21
-563.0
 31
0.0
  0
ARC
  5
200
330
1F
100
AcDbEntity
  8
telaio33cm
100
AcDbCircle
 10
51.0
 20
-568.0
 30
0.0
 40
5.0
100
AcDbArc
 50
90.0
 51
180.0
  0
ARC
  5
201
330
1F
100
AcDbEntity
  8
telaio33cm
100
AcDbCircle
 10
-22.64401292684542
 20
-663.4999998389362
 30
0.0
 40
1.999999999999773
100
AcDbArc
 50
5.739169269841654
 51
89.99999879258857
  0
LINE
  5
202
330
1F
100
AcDbEntity
  8
telaio33cm
100
AcDbLine
 10
-22.64401288469881
 20
-661.4999998389364
 30
0.0
 11
-26.06270955668492
 21
-661.4999997668929
 31
0.0
  0
ARC
  5
203
330
1F
100
AcDbEntity
  8
telaio33cm
100
AcDbCircle
 10
-26.06270959883182
 20
-663.4999997668929
 30
0.0
 40
2.0
100
AcDbArc
 50
89.99999879258043
 51
174.2608283153179
  0
ARC
  5
204
330
1F
100
AcDbEntity
  8
telaio33cm
100
AcDbCircle
 10
-21.08777242383486
 20
-663.9999998717321
 30
0.0
 40
7.00000000000068
100
AcDbArc
 50
174.2608283153138
 51
185.7391692698451
  0
ARC
  5
205
330
1F
100
AcDbEntity
  8
telaio33cm
100
AcDbCircle
 10
-26.06270961990498
 20
-664.4999997668924
 30
0.0
 40
2.000000000000455
100
AcDbArc
 50
185.7391692698593
 51
269.9999987925731
  0
LINE
  5
206
330
1F
100
AcDbEntity
  8
telaio33cm
100
AcDbLine
 10
-26.06270966205213
 20
-666.4999997668929
 30
0.0
 11
-22.64401299006585
 21
-666.4999998389364
 31
0.0
  0
ARC
  5
207
330
1F
100
AcDbEntity
  8
telaio33cm
100
AcDbCircle
 10
-22.64401294791935
 20
-664.4999998389362
 30
0.0
 40
2.000000000000228
100
AcDbArc
 50
269.9999987925918
 51
354.260828315312
  0
ARC
  5
208
330
1F
100
AcDbEntity
  8
telaio33cm
100
AcDbCircle
 10
-27.61895012291731
 20
-663.9999997340974
 30
0.0
 40
7.000000000001898
100
AcDbArc
 50
354.2608283153166
 51
5.73916926984599
  0
ARC
  5
209
330
1F
100
AcDbEntity
  8
telaio33cm
100
AcDbCircle
 10
-15.5000002454019
 20
-671.6440128425529
 30
0.0
 40
2.000000000000103
100
AcDbArc
 50
95.7391692698546
 51
179.9999987925804
  0
LINE
  5
20A
330
1F
100
AcDbEntity
  8
telaio33cm
100
AcDbLine
 10
-17.50000024540201
 20
-671.644012800406
 30
0.0
 11
-17.50000031744571
 21
-675.0627094723905
 31
0.0
  0
ARC
  5
20B
330
1F
100
AcDbEntity
  8
telaio33cm
100
AcDbCircle
 10
-15.50000031744585
 20
-675.0627095145376
 30
0.0
 40
1.999999999999858
100
AcDbArc
 50
179.9999987925739
 51
264.2608283153131
  0
ARC
  5
20C
330
1F
100
AcDbEntity
  8
telaio33cm
100
AcDbCircle
 10
-15.00000021260654
 20
-670.0877723395433
 30
0.0
 40
6.999999999997725
100
AcDbArc
 50
264.2608283153098
 51
275.7391692698472
  0
ARC
  5
20D
330
1F
100
AcDbEntity
  8
telaio33cm
100
AcDbCircle
 10
-14.50000031744569
 20
-675.062709535611
 30
0.0
 40
1.999999999999887
100
AcDbArc
 50
275.7391692698429
 51
359.999998792587
  0
LINE
  5
20E
330
1F
100
AcDbEntity
  8
telaio33cm
100
AcDbLine
 10
-12.5000003174458
 20
-675.0627095777577
 30
0.0
 11
-12.50000024540202
 21
-671.6440129057733
 31
0.0
  0
ARC
  5
20F
330
1F
100
AcDbEntity
  8
telaio33cm
100
AcDbCircle
 10
-14.50000024540182
 20
-671.6440128636259
 30
0.0
 40
1.999999999999801
100
AcDbArc
 50
359.9999987925674
 51
84.26082831531195
  0
ARC
  5
210
330
1F
100
AcDbEntity
  8
telaio33cm
100
AcDbCircle
 10
-15.00000035024129
 20
-676.6189500385321
 30
0.0
 40
6.999999999909965
100
AcDbArc
 50
84.26082831523613
 51
95.73916926992091
  0
ARC
  5
211
330
1F
100
AcDbEntity
  8
telaio33cm
100
AcDbCircle
 10
152.3559872417415
 20
-712.4999998389358
 30
0.0
 40
1.999999999999773
100
AcDbArc
 50
5.739169269841675
 51
89.99999879258857
  0
LINE
  5
212
330
1F
100
AcDbEntity
  8
telaio33cm
100
AcDbLine
 10
152.3559872838881
 20
-710.499999838936
 30
0.0
 11
148.937290611902
 21
-710.4999997668924
 31
0.0
  0
ARC
  5
213
330
1F
100
AcDbEntity
  8
telaio33cm
100
AcDbCircle
 10
148.9372905697551
 20
-712.4999997668924
 30
0.0
 40
2.0
100
AcDbArc
 50
89.99999879258043
 51
174.260828315318
  0
ARC
  5
214
330
1F
100
AcDbEntity
  8
telaio33cm
100
AcDbCircle
 10
153.9122277447575
 20
-712.9999998717321
 30
0.0
 40
7.000000000006066
100
AcDbArc
 50
174.2608283153145
 51
185.739169269837
  0
ARC
  5
215
330
1F
100
AcDbEntity
  8
telaio33cm
100
AcDbCircle
 10
148.9372905486819
 20
-713.499999766892
 30
0.0
 40
2.000000000000455
100
AcDbArc
 50
185.7391692698593
 51
269.9999987925731
  0
LINE
  5
216
330
1F
100
AcDbEntity
  8
telaio33cm
100
AcDbLine
 10
148.9372905065348
 20
-715.4999997668924
 30
0.0
 11
152.355987178521
 21
-715.499999838936
 31
0.0
  0
ARC
  5
217
330
1F
100
AcDbEntity
  8
telaio33cm
100
AcDbCircle
 10
152.3559872206675
 20
-713.4999998389358
 30
0.0
 40
2.000000000000228
100
AcDbArc
 50
269.9999987925918
 51
354.260828315312
  0
ARC
  5
218
330
1F
100
AcDbEntity
  8
telaio33cm
100
AcDbCircle
 10
147.3810500456693
 20
-712.9999997340974
 30
0.0
 40
7.000000000002108
100
AcDbArc
 50
354.2608283153206
 51
5.739169269849546
  0
CIRCLE
  5
219
330
1F
100
AcDbEntity
  8
telaio33cm
100
AcDbCircle
 10
160.0000000842934
 20
-712.9999999999998
 30
0.0
 40
4.000000000000228
  0
CIRCLE
  5
21A
330
1F
100
AcDbEntity
  8
telaio33cm
100
AcDbCircle
 10
160.0000000842937
 20
-713.0
 30
0.0
 40
16.49999999999993
  0
CIRCLE
  5
21B
330
1F
100
AcDbEntity
  8
telaio33cm
100
AcDbCircle
 10
169.0000000842934
 20
-660.9999999999998
 30
0.0
 40
4.000000000000228
  0
CIRCLE
  5
21C
330
1F
100
AcDbEntity
  8
telaio33cm
100
AcDbCircle
 10
169.0000000842937
 20
-661.0
 30
0.0
 40
16.49999999999993
  0
CIRCLE
  5
21D
330
1F
100
AcDbEntity
  8
telaio33cm
100
AcDbCircle
 10
-5.999999915706553
 20
-710.9999999999998
 30
0.0
 40
4.000000000000228
  0
CIRCLE
  5
21E
330
1F
100
AcDbEntity
  8
telaio33cm
100
AcDbCircle
 10
-5.999999915706326
 20
-711.0
 30
0.0
 40
16.49999999999993
  0
CIRCLE
  5
21F
330
1F
100
AcDbEntity
  8
telaio33cm
100
AcDbCircle
 10
-15.00000008429322
 20
-664.0000000000005
 30
0.0
 40
16.49999999999993
  0
CIRCLE
  5
220
330
1F
100
AcDbEntity
  8
telaio33cm
100
AcDbCircle
 10
-15.00000008429345
 20
-664.0000000000002
 30
0.0
 40
4.000000000000228
  0
CIRCLE
  5
221
330
1F
100
AcDbEntity
  8
telaio33cm
100
AcDbCircle
 10
50.2928932188135
 20
-628.7071067811864
 30
0.0
 40
2.0
  0
CIRCLE
  5
222
330
1F
100
AcDbEntity
  8
telaio33cm
100
AcDbCircle
 10
111.7071067811858
 20
-628.7071067811876
 30
0.0
 40
2.0
  0
CIRCLE
  5
223
330
1F
100
AcDbEntity
  8
telaio33cm
100
AcDbCircle
 10
111.7071067811748
 20
-567.2928932188017
 30
0.0
 40
2.0
  0
CIRCLE
  5
224
330
1F
100
AcDbEntity
  8
telaio33cm
100
AcDbCircle
 10
50.29289321881333
 20
-567.2928932188133
 30
0.0
 40
2.0
  0
CIRCLE
  5
225
330
1F
100
AcDbEntity
  8
telaio33cm
100
AcDbCircle
 10
107.5
 20
-598.0
 30
0.0
 40
4.5
  0
CIRCLE
  5
226
330
1F
100
AcDbEntity
  8
telaio33cm
100
AcDbCircle
 10
81.0
 20
-624.5
 30
0.0
 40
4.5
  0
CIRCLE
  5
227
330
1F
100
AcDbEntity
  8
telaio33cm
100
AcDbCircle
 10
54.5
 20
-598.0
 30
0.0
 40
4.5
  0
CIRCLE
  5
228
330
1F
100
AcDbEntity
  8
telaio33cm
100
AcDbCircle
 10
81.0
 20
-571.4999999999999
 30
0.0
 40
4.5
  0
CIRCLE
  5
229
330
1F
100
AcDbEntity
  8
telaio33cm
100
AcDbCircle
 10
79.0
 20
-769.4999999999999
 30
0.0
 40
4.5
  0
CIRCLE
  5
22A
330
1F
100
AcDbEntity
  8
telaio33cm
100
AcDbCircle
 10
52.5
 20
-796.0
 30
0.0
 40
4.5
  0
CIRCLE
  5
22B
330
1F
100
AcDbEntity
  8
telaio33cm
100
AcDbCircle
 10
79.0
 20
-822.5
 30
0.0
 40
4.5
  0
CIRCLE
  5
22C
330
1F
100
AcDbEntity
  8
telaio33cm
100
AcDbCircle
 10
105.5
 20
-796.0
 30
0.0
 40
4.5
  0
ENDSEC
  0
SECTION
  2
OBJECTS
  0
DICTIONARY
  5
C
330
0
100
AcDbDictionary
281
     1
  3
ACAD_DETAILVIEWSTYLE
350
272
  3
ACAD_GROUP
350
D
  3
ACAD_LAYOUT
350
1A
  3
ACAD_MATERIAL
350
43
  3
ACAD_MLEADERSTYLE
350
6B
  3
ACAD_MLINESTYLE
350
17
  3
ACAD_PLOTSETTINGS
350
19
  3
ACAD_PLOTSTYLENAME
350
E
  3
ACAD_SCALELIST
350
47
  3
ACAD_SECTIONVIEWSTYLE
350
273
  3
ACAD_TABLESTYLE
350
69
  3
ACAD_VISUALSTYLE
350
2A
  3
AcDbVariableDictionary
350
22F
  3
ACDB_RECOMPOSE_DATA
350
26F
  0
DICTIONARY
  5
22D
330
8
100
AcDbDictionary
280
     1
281
     1
  3
ACAD_XREC_ROUNDTRIP
360
22E
  0
DICTIONARY
  5
272
102
{ACAD_REACTORS
330
C
102
}
330
C
100
AcDbDictionary
281
     1
  0
DICTIONARY
  5
D
102
{ACAD_REACTORS
330
C
102
}
330
C
100
AcDbDictionary
281
     1
  0
DICTIONARY
  5
1A
102
{ACAD_REACTORS
330
C
102
}
330
C
100
AcDbDictionary
281
     1
  3
Layout1
350
1E
  3
Layout2
350
26
  3
Model
350
22
  0
DICTIONARY
  5
43
102
{ACAD_REACTORS
330
C
102
}
330
C
100
AcDbDictionary
281
     1
  3
ByBlock
350
45
  3
ByLayer
350
44
  3
Global
350
46
  0
DICTIONARY
  5
6B
102
{ACAD_REACTORS
330
C
102
}
330
C
100
AcDbDictionary
281
     1
  3
Standard
350
6C
  0
DICTIONARY
  5
17
102
{ACAD_REACTORS
330
C
102
}
330
C
100
AcDbDictionary
281
     1
  3
Standard
350
18
  0
DICTIONARY
  5
19
102
{ACAD_REACTORS
330
C
102
}
330
C
100
AcDbDictionary
281
     1
  0
ACDBDICTIONARYWDFLT
  5
E
102
{ACAD_REACTORS
330
C
102
}
330
C
100
AcDbDictionary
281
     1
  3
Normal
350
F
100
AcDbDictionaryWithDefault
340
F
  0
DICTIONARY
  5
47
102
{ACAD_REACTORS
330
C
102
}
330
C
100
AcDbDictionary
281
     1
  3
A0
350
48
  3
A1
350
49
  3
A2
350
4A
  3
A3
350
4B
  3
A4
350
4C
  3
A5
350
4D
  3
A6
350
4E
  3
A7
350
4F
  3
A8
350
50
  3
A9
350
51
  3
B0
350
52
  3
B1
350
53
  3
B2
350
54
  3
B3
350
55
  3
B4
350
56
  3
B5
350
57
  3
B6
350
58
  3
B7
350
59
  3
B8
350
5A
  3
B9
350
5B
  3
C0
350
5C
  3
C1
350
5D
  3
C2
350
5E
  3
C3
350
5F
  3
C4
350
60
  3
C5
350
61
  3
C6
350
62
  3
C7
350
63
  3
C8
350
64
  3
C9
350
65
  3
D0
350
66
  3
D1
350
67
  3
D2
350
68
  0
DICTIONARY
  5
273
102
{ACAD_REACTORS
330
C
102
}
330
C
100
AcDbDictionary
281
     1
  0
DICTIONARY
  5
69
102
{ACAD_REACTORS
330
C
102
}
330
C
100
AcDbDictionary
281
     1
  3
Standard
350
6A
  0
DICTIONARY
  5
2A
102
{ACAD_REACTORS
330
C
102
}
330
C
100
AcDbDictionary
281
     1
  3
2dWireframe
350
2F
  3
Basic
350
32
  3
Brighten
350
36
  3
ColorChange
350
3A
  3
Conceptual
350
34
  3
Dim
350
35
  3
EdgeColorOff
350
3D
  3
Facepattern
350
39
  3
Flat
350
2B
  3
FlatWithEdges
350
2C
  3
Gouraud
350
2D
  3
GouraudWithEdges
350
2E
  3
Hidden
350
31
  3
JitterOff
350
3B
  3
Linepattern
350
38
  3
OverhangOff
350
3C
  3
Realistic
350
33
  3
Shaded
350
42
  3
Shaded with edges
350
41
  3
Shades of Gray
350
3E
  3
Sketchy
350
3F
  3
Thicken
350
37
  3
Wireframe
350
30
  3
X-Ray
350
40
  0
DICTIONARY
  5
22F
102
{ACAD_REACTORS
330
C
102
}
330
C
100
AcDbDictionary
281
     1
  3
CANNOSCALE
350
230
  3
CMLEADERSTYLE
350
271
  3
CTABLESTYLE
350
270
  3
MSLTSCALE
350
231
  3
XCLIPFRAME
350
232
  0
XRECORD
  5
26F
102
{ACAD_REACTORS
330
C
102
}
330
C
100
AcDbXrecord
280
     1
 90
        1
330
6A
  0
XRECORD
  5
22E
102
{ACAD_REACTORS
330
22D
102
}
330
22D
100
AcDbXrecord
280
     1
102
VTR_0.000_0.000_1.000_1.000_GRIDDISPLAY
 70
     3
102
VTR_0.000_0.000_1.000_1.000_GRIDMAJOR
 70
     5
102
VTR_0.000_0.000_1.000_1.000_DEFAULTLIGHTING
280
     1
102
VTR_0.000_0.000_1.000_1.000_DEFAULTLIGHTINGTYPE
 70
     1
102
VTR_0.000_0.000_1.000_1.000_BRIGHTNESS
141
0.0
102
VTR_0.000_0.000_1.000_1.000_CONTRAST
142
0.0
  0
LAYOUT
  5
1E
102
{ACAD_REACTORS
330
1A
102
}
330
1A
100
AcDbPlotSettings
  1

  2
none_device
  4

  6

 40
0.0
 41
0.0
 42
0.0
 43
0.0
 44
0.0
 45
0.0
 46
0.0
 47
0.0
 48
0.0
 49
0.0
140
0.0
141
0.0
142
1.0
143
1.0
 70
   688
 72
     0
 73
     0
 74
     5
  7

 75
    16
 76
     0
 77
     2
 78
   300
147
1.0
148
0.0
149
0.0
100
AcDbLayout
  1
Layout1
 70
     1
 71
     1
 10
0.0
 20
0.0
 11
12.0
 21
9.0
 12
0.0
 22
0.0
 32
0.0
 14
1.000000000000000E+20
 24
1.000000000000000E+20
 34
1.000000000000000E+20
 15
-1.000000000000000E+20
 25
-1.000000000000000E+20
 35
-1.000000000000000E+20
146
0.0
 13
0.0
 23
0.0
 33
0.0
 16
1.0
 26
0.0
 36
0.0
 17
0.0
 27
1.0
 37
0.0
 76
     0
330
1B
  0
LAYOUT
  5
26
102
{ACAD_REACTORS
330
1A
102
}
330
1A
100
AcDbPlotSettings
  1

  2
none_device
  4

  6

 40
0.0
 41
0.0
 42
0.0
 43
0.0
 44
0.0
 45
0.0
 46
0.0
 47
0.0
 48
0.0
 49
0.0
140
0.0
141
0.0
142
1.0
143
1.0
 70
   688
 72
     0
 73
     0
 74
     5
  7

 75
    16
 76
     0
 77
     2
 78
   300
147
1.0
148
0.0
149
0.0
100
AcDbLayout
  1
Layout2
 70
     1
 71
     2
 10
0.0
 20
0.0
 11
0.0
 21
0.0
 12
0.0
 22
0.0
 32
0.0
 14
0.0
 24
0.0
 34
0.0
 15
0.0
 25
0.0
 35
0.0
146
0.0
 13
0.0
 23
0.0
 33
0.0
 16
1.0
 26
0.0
 36
0.0
 17
0.0
 27
1.0
 37
0.0
 76
     0
330
23
  0
LAYOUT
  5
22
102
{ACAD_REACTORS
330
1A
102
}
330
1A
100
AcDbPlotSettings
  1

  2
none_device
  4
Letter_(8.50_x_11.00_Inches)
  6

 40
6.35
 41
6.35
 42
6.35000508
 43
6.35000508
 44
215.9
 45
279.4
 46
0.0
 47
0.0
 48
0.0
 49
0.0
140
0.0
141
0.0
142
1.0
143
1.0
 70
  1712
 72
     0
 73
     0
 74
     0
  7

 75
     0
 76
     0
 77
     2
 78
   300
147
1.0
148
0.0
149
0.0
100
AcDbLayout
  1
Model
 70
     1
 71
     0
 10
0.0
 20
0.0
 11
12.0
 21
9.0
 12
0.0
 22
0.0
 32
0.0
 14
-52.38294839533336
 24
-831.0
 34
0.0
 15
213.9622918549189
 25
-561.8273805582446
 35
0.0
146
0.0
 13
0.0
 23
0.0
 33
0.0
 16
1.0
 26
0.0
 36
0.0
 17
0.0
 27
1.0
 37
0.0
 76
     0
330
1F
331
29
  0
MATERIAL
  5
45
102
{ACAD_REACTORS
330
43
102
}
102
{ACAD_XDICTIONARY
360
265
102
}
330
43
100
AcDbMaterial
  1
ByBlock
  0
MATERIAL
  5
44
102
{ACAD_REACTORS
330
43
102
}
102
{ACAD_XDICTIONARY
360
263
102
}
330
43
100
AcDbMaterial
  1
ByLayer
  0
MATERIAL
  5
46
102
{ACAD_REACTORS
330
43
102
}
102
{ACAD_XDICTIONARY
360
267
102
}
330
43
100
AcDbMaterial
  1
Global
  0
MLEADERSTYLE
  5
6C
102
{ACAD_REACTORS
330
6B
102
}
102
{ACAD_XDICTIONARY
360
26D
102
}
330
6B
100
AcDbMLeaderStyle
170
     2
171
     1
172
     0
 90
        2
 40
0.0
 41
0.0
173
     1
 91
-1056964608
340
14
 92
       -2
290
     1
 42
0.09
291
     1
 43
0.36
  3
Standard
341
0
 44
0.18
300

342
11
174
     1
178
     6
175
     1
176
     0
 93
-1056964608
 45
0.18
292
     0
297
     0
 46
0.18
343
0
 94
-1056964608
 47
1.0
 49
1.0
140
1.0
293
     1
141
0.0
294
     1
177
     0
142
1.0
295
     0
296
     0
143
0.125
1001
ACAD_MLEADERVER
1070
     2
  0
MLINESTYLE
  5
18
102
{ACAD_REACTORS
330
17
102
}
330
17
100
AcDbMlineStyle
  2
Standard
 70
     0
  3

 62
   256
 51
90.0
 52
90.0
 71
     2
 49
0.5
 62
   256
  6
BYLAYER
 49
-0.5
 62
   256
  6
BYLAYER
  0
ACDBPLACEHOLDER
  5
F
102
{ACAD_REACTORS
330
E
102
}
330
E
  0
SCALE
  5
48
102
{ACAD_REACTORS
330
47
102
}
330
47
100
AcDbScale
 70
     0
300
1:1
140
1.0
141
1.0
290
     1
  0
SCALE
  5
49
102
{ACAD_REACTORS
330
47
102
}
330
47
100
AcDbScale
 70
     0
300
1:2
140
1.0
141
2.0
290
     0
  0
SCALE
  5
4A
102
{ACAD_REACTORS
330
47
102
}
330
47
100
AcDbScale
 70
     0
300
1:4
140
1.0
141
4.0
290
     0
  0
SCALE
  5
4B
102
{ACAD_REACTORS
330
47
102
}
330
47
100
AcDbScale
 70
     0
300
1:5
140
1.0
141
5.0
290
     0
  0
SCALE
  5
4C
102
{ACAD_REACTORS
330
47
102
}
330
47
100
AcDbScale
 70
     0
300
1:8
140
1.0
141
8.0
290
     0
  0
SCALE
  5
4D
102
{ACAD_REACTORS
330
47
102
}
330
47
100
AcDbScale
 70
     0
300
1:10
140
1.0
141
10.0
290
     0
  0
SCALE
  5
4E
102
{ACAD_REACTORS
330
47
102
}
330
47
100
AcDbScale
 70
     0
300
1:16
140
1.0
141
16.0
290
     0
  0
SCALE
  5
4F
102
{ACAD_REACTORS
330
47
102
}
330
47
100
AcDbScale
 70
     0
300
1:20
140
1.0
141
20.0
290
     0
  0
SCALE
  5
50
102
{ACAD_REACTORS
330
47
102
}
330
47
100
AcDbScale
 70
     0
300
1:30
140
1.0
141
30.0
290
     0
  0
SCALE
  5
51
102
{ACAD_REACTORS
330
47
102
}
330
47
100
AcDbScale
 70
     0
300
1:40
140
1.0
141
40.0
290
     0
  0
SCALE
  5
52
102
{ACAD_REACTORS
330
47
102
}
330
47
100
AcDbScale
 70
     0
300
1:50
140
1.0
141
50.0
290
     0
  0
SCALE
  5
53
102
{ACAD_REACTORS
330
47
102
}
330
47
100
AcDbScale
 70
     0
300
1:100
140
1.0
141
100.0
290
     0
  0
SCALE
  5
54
102
{ACAD_REACTORS
330
47
102
}
330
47
100
AcDbScale
 70
     0
300
2:1
140
2.0
141
1.0
290
     0
  0
SCALE
  5
55
102
{ACAD_REACTORS
330
47
102
}
330
47
100
AcDbScale
 70
     0
300
4:1
140
4.0
141
1.0
290
     0
  0
SCALE
  5
56
102
{ACAD_REACTORS
330
47
102
}
330
47
100
AcDbScale
 70
     0
300
8:1
140
8.0
141
1.0
290
     0
  0
SCALE
  5
57
102
{ACAD_REACTORS
330
47
102
}
330
47
100
AcDbScale
 70
     0
300
10:1
140
10.0
141
1.0
290
     0
  0
SCALE
  5
58
102
{ACAD_REACTORS
330
47
102
}
330
47
100
AcDbScale
 70
     0
300
100:1
140
100.0
141
1.0
290
     0
  0
SCALE
  5
59
102
{ACAD_REACTORS
330
47
102
}
330
47
100
AcDbScale
 70
     0
300
1/128" = 1'-0"
140
0.0078125
141
12.0
290
     0
  0
SCALE
  5
5A
102
{ACAD_REACTORS
330
47
102
}
330
47
100
AcDbScale
 70
     0
300
1/64" = 1'-0"
140
0.015625
141
12.0
290
     0
  0
SCALE
  5
5B
102
{ACAD_REACTORS
330
47
102
}
330
47
100
AcDbScale
 70
     0
300
1/32" = 1'-0"
140
0.03125
141
12.0
290
     0
  0
SCALE
  5
5C
102
{ACAD_REACTORS
330
47
102
}
330
47
100
AcDbScale
 70
     0
300
1/16" = 1'-0"
140
0.0625
141
12.0
290
     0
  0
SCALE
  5
5D
102
{ACAD_REACTORS
330
47
102
}
330
47
100
AcDbScale
 70
     0
300
3/32" = 1'-0"
140
0.09375
141
12.0
290
     0
  0
SCALE
  5
5E
102
{ACAD_REACTORS
330
47
102
}
330
47
100
AcDbScale
 70
     0
300
1/8" = 1'-0"
140
0.125
141
12.0
290
     0
  0
SCALE
  5
5F
102
{ACAD_REACTORS
330
47
102
}
330
47
100
AcDbScale
 70
     0
300
3/16" = 1'-0"
140
0.1875
141
12.0
290
     0
  0
SCALE
  5
60
102
{ACAD_REACTORS
330
47
102
}
330
47
100
AcDbScale
 70
     0
300
1/4" = 1'-0"
140
0.25
141
12.0
290
     0
  0
SCALE
  5
61
102
{ACAD_REACTORS
330
47
102
}
330
47
100
AcDbScale
 70
     0
300
3/8" = 1'-0"
140
0.375
141
12.0
290
     0
  0
SCALE
  5
62
102
{ACAD_REACTORS
330
47
102
}
330
47
100
AcDbScale
 70
     0
300
1/2" = 1'-0"
140
0.5
141
12.0
290
     0
  0
SCALE
  5
63
102
{ACAD_REACTORS
330
47
102
}
330
47
100
AcDbScale
 70
     0
300
3/4" = 1'-0"
140
0.75
141
12.0
290
     0
  0
SCALE
  5
64
102
{ACAD_REACTORS
330
47
102
}
330
47
100
AcDbScale
 70
     0
300
1" = 1'-0"
140
1.0
141
12.0
290
     0
  0
SCALE
  5
65
102
{ACAD_REACTORS
330
47
102
}
330
47
100
AcDbScale
 70
     0
300
1-1/2" = 1'-0"
140
1.5
141
12.0
290
     0
  0
SCALE
  5
66
102
{ACAD_REACTORS
330
47
102
}
330
47
100
AcDbScale
 70
     0
300
3" = 1'-0"
140
3.0
141
12.0
290
     0
  0
SCALE
  5
67
102
{ACAD_REACTORS
330
47
102
}
330
47
100
AcDbScale
 70
     0
300
6" = 1'-0"
140
6.0
141
12.0
290
     0
  0
SCALE
  5
68
102
{ACAD_REACTORS
330
47
102
}
330
47
100
AcDbScale
 70
     0
300
1'-0" = 1'-0"
140
12.0
141
12.0
290
     0
  0
TABLESTYLE
  5
6A
102
{ACAD_REACTORS
330
69
102
}
102
{ACAD_XDICTIONARY
360
269
102
}
330
69
100
AcDbTableStyle
  3
Standard
 70
     0
 71
     0
 40
0.06
 41
0.06
280
     0
281
     0
  7
Standard
140
0.18
170
     2
 62
     0
 63
   257
283
     0
274
    -2
284
     1
 64
     0
275
    -2
285
     1
 65
     0
276
    -2
286
     1
 66
     0
277
    -2
287
     1
 67
     0
278
    -2
288
     1
 68
     0
279
    -2
289
     1
 69
     0
  7
Standard
140
0.25
170
     5
 62
     0
 63
   257
283
     0
274
    -2
284
     1
 64
     0
275
    -2
285
     1
 65
     0
276
    -2
286
     1
 66
     0
277
    -2
287
     1
 67
     0
278
    -2
288
     1
 68
     0
279
    -2
289
     1
 69
     0
  7
Standard
140
0.18
170
     5
 62
     0
 63
   257
283
     0
274
    -2
284
     1
 64
     0
275
    -2
285
     1
 65
     0
276
    -2
286
     1
 66
     0
277
    -2
287
     1
 67
     0
278
    -2
288
     1
 68
     0
279
    -2
289
     1
 69
     0
  0
VISUALSTYLE
  5
2F
102
{ACAD_REACTORS
330
2A
102
}
102
{ACAD_XDICTIONARY
360
23B
102
}
330
2A
100
AcDbVisualStyle
  2
2dWireframe
 70
     4
 71
     0
 72
     2
 73
     0
 90
        0
 40
0.6
 41
30.0
 62
     5
 63
     7
421
 16777215
 74
     1
 91
        4
 64
     7
 65
   257
 75
     1
175
     1
 42
1.0
 92
        0
 66
   257
 43
1.0
 76
     1
 77
     6
 78
     2
 67
     7
 79
     5
170
     0
171
     0
290
     0
174
     0
 93
        1
 44
0.0
173
     0
291
     0
 45
0.0
1001
ACAD
1000
AcDbSavedByObjectVersion
1070
     0
  0
VISUALSTYLE
  5
32
102
{ACAD_REACTORS
330
2A
102
}
102
{ACAD_XDICTIONARY
360
241
102
}
330
2A
100
AcDbVisualStyle
  2
Basic
 70
     7
 71
     1
 72
     0
 73
     1
 90
        0
 40
0.6
 41
30.0
 62
     5
 63
     7
421
 16777215
 74
     0
 91
        4
 64
     7
 65
   257
 75
     1
175
     1
 42
1.0
 92
        8
 66
     7
 43
1.0
 76
     1
 77
     6
 78
     2
 67
     7
 79
     5
170
     0
171
     0
290
     0
174
     0
 93
        1
 44
0.0
173
     0
291
     1
 45
0.0
1001
ACAD
1000
AcDbSavedByObjectVersion
1070
     0
  0
VISUALSTYLE
  5
36
102
{ACAD_REACTORS
330
2A
102
}
102
{ACAD_XDICTIONARY
360
249
102
}
330
2A
100
AcDbVisualStyle
  2
Brighten
 70
    12
 71
     2
 72
     2
 73
     0
 90
        0
 40
0.6
 41
30.0
 62
     5
 63
     7
421
 16777215
 74
     1
 91
        4
 64
     7
 65
   257
 75
     1
175
     1
 42
1.0
 92
        8
 66
     7
 43
1.0
 76
     1
 77
     6
 78
     2
 67
     7
 79
     5
170
     0
171
     0
290
     0
174
     0
 93
        1
 44
50.0
173
     0
291
     1
 45
0.0
1001
ACAD
1000
AcDbSavedByObjectVersion
1070
     0
  0
VISUALSTYLE
  5
3A
102
{ACAD_REACTORS
330
2A
102
}
102
{ACAD_XDICTIONARY
360
251
102
}
330
2A
100
AcDbVisualStyle
  2
ColorChange
 70
    16
 71
     2
 72
     2
 73
     3
 90
        0
 40
0.6
 41
30.0
 62
     5
 63
     8
421
  8421504
 74
     1
 91
        4
 64
     7
 65
   257
 75
     1
175
     1
 42
1.0
 92
        8
 66
     8
424
  8421504
 43
1.0
 76
     1
 77
     6
 78
     2
 67
     7
 79
     5
170
     0
171
     0
290
     0
174
     0
 93
        1
 44
0.0
173
     0
291
     1
 45
0.0
1001
ACAD
1000
AcDbSavedByObjectVersion
1070
     0
  0
VISUALSTYLE
  5
34
102
{ACAD_REACTORS
330
2A
102
}
102
{ACAD_XDICTIONARY
360
245
102
}
330
2A
100
AcDbVisualStyle
  2
Conceptual
 70
     9
 71
     3
 72
     2
 73
     0
 90
        0
 40
0.6
 41
30.0
 62
     5
 63
     7
421
 16777215
 74
     2
 91
        2
 64
     7
 65
   257
 75
     1
175
     1
 42
179.0
 92
        8
 66
     7
 43
1.0
 76
     1
 77
     6
 78
     2
 67
     7
 79
     3
170
     0
171
     0
290
     0
174
     0
 93
        1
 44
0.0
173
     0
291
     0
 45
0.0
1001
ACAD
1000
AcDbSavedByObjectVersion
1070
     0
  0
VISUALSTYLE
  5
35
102
{ACAD_REACTORS
330
2A
102
}
102
{ACAD_XDICTIONARY
360
247
102
}
330
2A
100
AcDbVisualStyle
  2
Dim
 70
    11
 71
     2
 72
     2
 73
     0
 90
        0
 40
0.6
 41
30.0
 62
     5
 63
     7
421
 16777215
 74
     1
 91
        4
 64
     7
 65
   257
 75
     1
175
     1
 42
1.0
 92
        8
 66
     7
 43
1.0
 76
     1
 77
     6
 78
     2
 67
     7
 79
     5
170
     0
171
     0
290
     0
174
     0
 93
        1
 44
-50.0
173
     0
291
     1
 45
0.0
1001
ACAD
1000
AcDbSavedByObjectVersion
1070
     0
  0
VISUALSTYLE
  5
3D
102
{ACAD_REACTORS
330
2A
102
}
102
{ACAD_XDICTIONARY
360
257
102
}
330
2A
100
AcDbVisualStyle
  2
EdgeColorOff
 70
    22
 71
     2
 72
     2
 73
     0
 90
        0
 40
0.6
 41
30.0
 62
     5
 63
     7
421
 16777215
 74
     1
 91
        4
 64
     7
 65
   257
 75
     1
175
     1
 42
1.0
 92
        8
 66
     7
 43
1.0
 76
     1
 77
     6
 78
     2
 67
     7
 79
     5
170
     0
171
     0
290
     0
174
     0
 93
        1
 44
0.0
173
     0
291
     1
 45
0.0
1001
ACAD
1000
AcDbSavedByObjectVersion
1070
     0
  0
VISUALSTYLE
  5
39
102
{ACAD_REACTORS
330
2A
102
}
102
{ACAD_XDICTIONARY
360
24F
102
}
330
2A
100
AcDbVisualStyle
  2
Facepattern
 70
    15
 71
     2
 72
     2
 73
     0
 90
        0
 40
0.6
 41
30.0
 62
     5
 63
     7
421
 16777215
 74
     1
 91
        4
 64
     7
 65
   257
 75
     1
175
     1
 42
1.0
 92
        8
 66
     7
 43
1.0
 76
     1
 77
     6
 78
     2
 67
     7
 79
     5
170
     0
171
     0
290
     0
174
     0
 93
        1
 44
0.0
173
     0
291
     1
 45
0.0
1001
ACAD
1000
AcDbSavedByObjectVersion
1070
     0
  0
VISUALSTYLE
  5
2B
102
{ACAD_REACTORS
330
2A
102
}
102
{ACAD_XDICTIONARY
360
233
102
}
330
2A
100
AcDbVisualStyle
  2
Flat
 70
     0
 71
     2
 72
     1
 73
     1
 90
        2
 40
0.6
 41
30.0
 62
     5
 63
     7
421
 16777215
 74
     0
 91
        0
 64
     7
 65
   257
 75
     1
175
     1
 42
1.0
 92
        8
 66
     7
 43
1.0
 76
     1
 77
     6
 78
     2
 67
     7
 79
     5
170
     0
171
     0
290
     0
174
     0
 93
       13
 44
0.0
173
     0
291
     1
 45
0.0
1001
ACAD
1000
AcDbSavedByObjectVersion
1070
     0
  0
VISUALSTYLE
  5
2C
102
{ACAD_REACTORS
330
2A
102
}
102
{ACAD_XDICTIONARY
360
235
102
}
330
2A
100
AcDbVisualStyle
  2
FlatWithEdges
 70
     1
 71
     2
 72
     1
 73
     1
 90
        2
 40
0.6
 41
30.0
 62
     5
 63
     7
421
 16777215
 74
     1
 91
        0
 64
     7
 65
   257
 75
     1
175
     1
 42
1.0
 92
        0
 66
   257
 43
1.0
 76
     1
 77
     6
 78
     2
 67
     7
 79
     5
170
     0
171
     0
290
     0
174
     0
 93
       13
 44
0.0
173
     0
291
     1
 45
0.0
1001
ACAD
1000
AcDbSavedByObjectVersion
1070
     0
  0
VISUALSTYLE
  5
2D
102
{ACAD_REACTORS
330
2A
102
}
102
{ACAD_XDICTIONARY
360
237
102
}
330
2A
100
AcDbVisualStyle
  2
Gouraud
 70
     2
 71
     2
 72
     2
 73
     1
 90
        2
 40
0.6
 41
30.0
 62
     5
 63
     7
421
 16777215
 74
     0
 91
        0
 64
     7
 65
   257
 75
     1
175
     1
 42
1.0
 92
        0
 66
     7
 43
1.0
 76
     1
 77
     6
 78
     2
 67
     7
 79
     5
170
     0
171
     0
290
     0
174
     0
 93
       13
 44
0.0
173
     0
291
     1
 45
0.0
1001
ACAD
1000
AcDbSavedByObjectVersion
1070
     0
  0
VISUALSTYLE
  5
2E
102
{ACAD_REACTORS
330
2A
102
}
102
{ACAD_XDICTIONARY
360
239
102
}
330
2A
100
AcDbVisualStyle
  2
GouraudWithEdges
 70
     3
 71
     2
 72
     2
 73
     1
 90
        2
 40
0.6
 41
30.0
 62
     5
 63
     7
421
 16777215
 74
     1
 91
        0
 64
     7
 65
   257
 75
     1
175
     1
 42
1.0
 92
        0
 66
   257
 43
1.0
 76
     1
 77
     6
 78
     2
 67
     7
 79
     5
170
     0
171
     0
290
     0
174
     0
 93
       13
 44
0.0
173
     0
291
     1
 45
0.0
1001
ACAD
1000
AcDbSavedByObjectVersion
1070
     0
  0
VISUALSTYLE
  5
31
102
{ACAD_REACTORS
330
2A
102
}
102
{ACAD_XDICTIONARY
360
23F
102
}
330
2A
100
AcDbVisualStyle
  2
Hidden
 70
     6
 71
     1
 72
     2
 73
     2
 90
        0
 40
0.6
 41
30.0
 62
     5
 63
     7
421
 16777215
 74
     2
 91
        2
 64
     7
 65
   257
 75
     2
175
     1
 42
40.0
 92
        0
 66
   257
 43
1.0
 76
     1
 77
     6
 78
     2
 67
     7
 79
     3
170
     0
171
     0
290
     0
174
     0
 93
        1
 44
0.0
173
     0
291
     0
 45
0.0
1001
ACAD
1000
AcDbSavedByObjectVersion
1070
     0
  0
VISUALSTYLE
  5
3B
102
{ACAD_REACTORS
330
2A
102
}
102
{ACAD_XDICTIONARY
360
253
102
}
330
2A
100
AcDbVisualStyle
  2
JitterOff
 70
    20
 71
     2
 72
     2
 73
     0
 90
        0
 40
0.6
 41
30.0
 62
     5
 63
     7
421
 16777215
 74
     1
 91
        4
 64
     7
 65
   257
 75
     1
175
     1
 42
1.0
 92
       10
 66
     7
 43
1.0
 76
     1
 77
     6
 78
     2
 67
     7
 79
     5
170
     0
171
     0
290
     0
174
     0
 93
        1
 44
0.0
173
     0
291
     1
 45
0.0
1001
ACAD
1000
AcDbSavedByObjectVersion
1070
     0
  0
VISUALSTYLE
  5
38
102
{ACAD_REACTORS
330
2A
102
}
102
{ACAD_XDICTIONARY
360
24D
102
}
330
2A
100
AcDbVisualStyle
  2
Linepattern
 70
    14
 71
     2
 72
     2
 73
     0
 90
        0
 40
0.6
 41
30.0
 62
     5
 63
     7
421
 16777215
 74
     1
 91
        4
 64
     7
 65
   257
 75
     7
175
     7
 42
1.0
 92
        8
 66
     7
 43
1.0
 76
     1
 77
     6
 78
     2
 67
     7
 79
     5
170
     0
171
     0
290
     0
174
     0
 93
        1
 44
0.0
173
     0
291
     1
 45
0.0
1001
ACAD
1000
AcDbSavedByObjectVersion
1070
     0
  0
VISUALSTYLE
  5
3C
102
{ACAD_REACTORS
330
2A
102
}
102
{ACAD_XDICTIONARY
360
255
102
}
330
2A
100
AcDbVisualStyle
  2
OverhangOff
 70
    21
 71
     2
 72
     2
 73
     0
 90
        0
 40
0.6
 41
30.0
 62
     5
 63
     7
421
 16777215
 74
     1
 91
        4
 64
     7
 65
   257
 75
     1
175
     1
 42
1.0
 92
        9
 66
     7
 43
1.0
 76
     1
 77
     6
 78
     2
 67
     7
 79
     5
170
     0
171
     0
290
     0
174
     0
 93
        1
 44
0.0
173
     0
291
     1
 45
0.0
1001
ACAD
1000
AcDbSavedByObjectVersion
1070
     0
  0
VISUALSTYLE
  5
33
102
{ACAD_REACTORS
330
2A
102
}
102
{ACAD_XDICTIONARY
360
243
102
}
330
2A
100
AcDbVisualStyle
  2
Realistic
 70
     8
 71
     2
 72
     3
 73
     0
 90
        2
 40
0.6
 41
30.0
 62
     5
 63
     7
421
 16777215
 74
     0
 91
        0
 64
     7
 65
   257
 75
     1
175
     1
 42
1.0
 92
        8
 66
   257
 43
1.0
 76
     1
 77
     6
 78
     2
 67
     7
 79
     3
170
     0
171
     0
290
     0
174
     0
 93
       13
 44
0.0
173
     0
291
     0
 45
0.0
1001
ACAD
1000
AcDbSavedByObjectVersion
1070
     0
  0
VISUALSTYLE
  5
42
102
{ACAD_REACTORS
330
2A
102
}
102
{ACAD_XDICTIONARY
360
261
102
}
330
2A
100
AcDbVisualStyle
  2
Shaded
 70
    27
 71
     2
 72
     2
 73
     1
 90
        2
 40
0.6
 41
30.0
 62
     5
 63
     7
421
 16777215
 74
     0
 91
        4
 64
     7
 65
   257
 75
     1
175
     1
 42
1.0
 92
        8
 66
   257
 43
1.0
 76
     1
 77
     6
 78
     2
 67
     8
425
  7895160
 79
     3
170
     0
171
     0
290
     0
174
     0
 93
        5
 44
0.0
173
     0
291
     0
 45
0.0
1001
ACAD
1000
AcDbSavedByObjectVersion
1070
     0
  0
VISUALSTYLE
  5
41
102
{ACAD_REACTORS
330
2A
102
}
102
{ACAD_XDICTIONARY
360
25F
102
}
330
2A
100
AcDbVisualStyle
  2
Shaded with edges
 70
    26
 71
     2
 72
     2
 73
     1
 90
        2
 40
0.6
 41
30.0
 62
     5
 63
     7
421
 16777215
 74
     1
 91
       10
 64
     7
 65
   257
 75
     2
175
     1
 42
1.0
 92
        8
 66
   257
 43
1.0
 76
     1
 77
     6
 78
     2
 67
     7
 79
     3
170
     0
171
     0
290
     0
174
     0
 93
        5
 44
0.0
173
     0
291
     0
 45
0.0
1001
ACAD
1000
AcDbSavedByObjectVersion
1070
     0
  0
VISUALSTYLE
  5
3E
102
{ACAD_REACTORS
330
2A
102
}
102
{ACAD_XDICTIONARY
360
259
102
}
330
2A
100
AcDbVisualStyle
  2
Shades of Gray
 70
    23
 71
     2
 72
     2
 73
     3
 90
        0
 40
0.6
 41
30.0
 62
     5
 63
     7
421
 16777215
 74
     2
 91
        2
 64
     7
 65
     7
 75
     1
175
     1
 42
40.0
 92
        8
 66
     7
 43
1.0
 76
     1
 77
     6
 78
     2
 67
     7
 79
     3
170
     0
171
     0
290
     0
174
     0
 93
        1
 44
0.0
173
     0
291
     0
 45
0.0
1001
ACAD
1000
AcDbSavedByObjectVersion
1070
     0
  0
VISUALSTYLE
  5
3F
102
{ACAD_REACTORS
330
2A
102
}
102
{ACAD_XDICTIONARY
360
25B
102
}
330
2A
100
AcDbVisualStyle
  2
Sketchy
 70
    24
 71
     1
 72
     2
 73
     2
 90
        0
 40
0.6
 41
30.0
 62
     5
 63
     7
421
 16777215
 74
     2
 91
        2
 64
     7
 65
     7
 75
     1
175
     1
 42
40.0
 92
       11
 66
     7
 43
1.0
 76
     1
 77
     6
 78
     2
 67
     7
 79
     6
170
     0
171
     0
290
     0
174
     0
 93
        1
 44
0.0
173
     0
291
     0
 45
0.0
1001
ACAD
1000
AcDbSavedByObjectVersion
1070
     0
  0
VISUALSTYLE
  5
37
102
{ACAD_REACTORS
330
2A
102
}
102
{ACAD_XDICTIONARY
360
24B
102
}
330
2A
100
AcDbVisualStyle
  2
Thicken
 70
    13
 71
     2
 72
     2
 73
     0
 90
        0
 40
0.6
 41
30.0
 62
     5
 63
     7
421
 16777215
 74
     1
 91
        4
 64
     7
 65
   257
 75
     1
175
     1
 42
1.0
 92
       12
 66
     7
 43
1.0
 76
     1
 77
     6
 78
     2
 67
     7
 79
     5
170
     0
171
     0
290
     0
174
     0
 93
        1
 44
0.0
173
     0
291
     1
 45
0.0
1001
ACAD
1000
AcDbSavedByObjectVersion
1070
     0
  0
VISUALSTYLE
  5
30
102
{ACAD_REACTORS
330
2A
102
}
102
{ACAD_XDICTIONARY
360
23D
102
}
330
2A
100
AcDbVisualStyle
  2
Wireframe
 70
     5
 71
     0
 72
     2
 73
     0
 90
        0
 40
0.6
 41
30.0
 62
     5
 63
     7
421
 16777215
 74
     1
 91
        4
 64
     7
 65
   257
 75
     1
175
     1
 42
1.0
 92
        0
 66
   257
 43
1.0
 76
     1
 77
     6
 78
     2
 67
     7
 79
     3
170
     0
171
     0
290
     0
174
     0
 93
        1
 44
0.0
173
     0
291
     0
 45
0.0
1001
ACAD
1000
AcDbSavedByObjectVersion
1070
     0
  0
VISUALSTYLE
  5
40
102
{ACAD_REACTORS
330
2A
102
}
102
{ACAD_XDICTIONARY
360
25D
102
}
330
2A
100
AcDbVisualStyle
  2
X-Ray
 70
    25
 71
     2
 72
     2
 73
     1
 90
        1
 40
0.5
 41
30.0
 62
     5
 63
     7
421
 16777215
 74
     1
 91
        0
 64
     7
 65
   257
 75
     1
175
     1
 42
1.0
 92
        8
 66
     7
 43
1.0
 76
     1
 77
     6
 78
     2
 67
     7
 79
     3
170
     0
171
     0
290
     0
174
     0
 93
       13
 44
0.0
173
     0
291
     0
 45
0.0
1001
ACAD
1000
AcDbSavedByObjectVersion
1070
     0
  0
DICTIONARYVAR
  5
230
102
{ACAD_REACTORS
330
22F
102
}
330
22F
100
DictionaryVariables
280
     0
  1
1:1
  0
DICTIONARYVAR
  5
271
102
{ACAD_REACTORS
330
22F
102
}
330
22F
100
DictionaryVariables
280
     0
  1
Standard
  0
DICTIONARYVAR
  5
270
102
{ACAD_REACTORS
330
22F
102
}
330
22F
100
DictionaryVariables
280
     0
  1
Standard
  0
DICTIONARYVAR
  5
231
102
{ACAD_REACTORS
330
22F
102
}
330
22F
100
DictionaryVariables
280
     0
  1
1
  0
DICTIONARYVAR
  5
232
102
{ACAD_REACTORS
330
22F
102
}
330
22F
100
DictionaryVariables
280
     0
  1
2
  0
DICTIONARY
  5
265
330
45
100
AcDbDictionary
280
     1
281
     1
  3
ACAD_XREC_ROUNDTRIP
360
266
  0
DICTIONARY
  5
263
330
44
100
AcDbDictionary
280
     1
281
     1
  3
ACAD_XREC_ROUNDTRIP
360
264
  0
DICTIONARY
  5
267
330
46
100
AcDbDictionary
280
     1
281
     1
  3
ACAD_XREC_ROUNDTRIP
360
268
  0
DICTIONARY
  5
26D
330
6C
100
AcDbDictionary
280
     1
281
     1
  3
ACAD_XREC_ROUNDTRIP
360
26E
  0
DICTIONARY
  5
269
330
6A
100
AcDbDictionary
280
     1
281
     1
  3
ACAD_ROUNDTRIP_2008_TABLESTYLE_CELLSTYLEMAP
360
26B
  3
ACAD_XREC_ROUNDTRIP
360
26A
  0
DICTIONARY
  5
23B
330
2F
100
AcDbDictionary
280
     1
281
     1
  3
ACAD_XREC_ROUNDTRIP
360
23C
  0
DICTIONARY
  5
241
330
32
100
AcDbDictionary
280
     1
281
     1
  3
ACAD_XREC_ROUNDTRIP
360
242
  0
DICTIONARY
  5
249
330
36
100
AcDbDictionary
280
     1
281
     1
  3
ACAD_XREC_ROUNDTRIP
360
24A
  0
DICTIONARY
  5
251
330
3A
100
AcDbDictionary
280
     1
281
     1
  3
ACAD_XREC_ROUNDTRIP
360
252
  0
DICTIONARY
  5
245
330
34
100
AcDbDictionary
280
     1
281
     1
  3
ACAD_XREC_ROUNDTRIP
360
246
  0
DICTIONARY
  5
247
330
35
100
AcDbDictionary
280
     1
281
     1
  3
ACAD_XREC_ROUNDTRIP
360
248
  0
DICTIONARY
  5
257
330
3D
100
AcDbDictionary
280
     1
281
     1
  3
ACAD_XREC_ROUNDTRIP
360
258
  0
DICTIONARY
  5
24F
330
39
100
AcDbDictionary
280
     1
281
     1
  3
ACAD_XREC_ROUNDTRIP
360
250
  0
DICTIONARY
  5
233
330
2B
100
AcDbDictionary
280
     1
281
     1
  3
ACAD_XREC_ROUNDTRIP
360
234
  0
DICTIONARY
  5
235
330
2C
100
AcDbDictionary
280
     1
281
     1
  3
ACAD_XREC_ROUNDTRIP
360
236
  0
DICTIONARY
  5
237
330
2D
100
AcDbDictionary
280
     1
281
     1
  3
ACAD_XREC_ROUNDTRIP
360
238
  0
DICTIONARY
  5
239
330
2E
100
AcDbDictionary
280
     1
281
     1
  3
ACAD_XREC_ROUNDTRIP
360
23A
  0
DICTIONARY
  5
23F
330
31
100
AcDbDictionary
280
     1
281
     1
  3
ACAD_XREC_ROUNDTRIP
360
240
  0
DICTIONARY
  5
253
330
3B
100
AcDbDictionary
280
     1
281
     1
  3
ACAD_XREC_ROUNDTRIP
360
254
  0
DICTIONARY
  5
24D
330
38
100
AcDbDictionary
280
     1
281
     1
  3
ACAD_XREC_ROUNDTRIP
360
24E
  0
DICTIONARY
  5
255
330
3C
100
AcDbDictionary
280
     1
281
     1
  3
ACAD_XREC_ROUNDTRIP
360
256
  0
DICTIONARY
  5
243
330
33
100
AcDbDictionary
280
     1
281
     1
  3
ACAD_XREC_ROUNDTRIP
360
244
  0
DICTIONARY
  5
261
330
42
100
AcDbDictionary
280
     1
281
     1
  3
ACAD_XREC_ROUNDTRIP
360
262
  0
DICTIONARY
  5
25F
330
41
100
AcDbDictionary
280
     1
281
     1
  3
ACAD_XREC_ROUNDTRIP
360
260
  0
DICTIONARY
  5
259
330
3E
100
AcDbDictionary
280
     1
281
     1
  3
ACAD_XREC_ROUNDTRIP
360
25A
  0
DICTIONARY
  5
25B
330
3F
100
AcDbDictionary
280
     1
281
     1
  3
ACAD_XREC_ROUNDTRIP
360
25C
  0
DICTIONARY
  5
24B
330
37
100
AcDbDictionary
280
     1
281
     1
  3
ACAD_XREC_ROUNDTRIP
360
24C
  0
DICTIONARY
  5
23D
330
30
100
AcDbDictionary
280
     1
281
     1
  3
ACAD_XREC_ROUNDTRIP
360
23E
  0
DICTIONARY
  5
25D
330
40
100
AcDbDictionary
280
     1
281
     1
  3
ACAD_XREC_ROUNDTRIP
360
25E
  0
XRECORD
  5
266
102
{ACAD_REACTORS
330
265
102
}
330
265
100
AcDbXrecord
280
     1
102
MATERIAL
148
0.0
149
0.0
149
0.0
 93
        0
 94
      127
282
     0
 72
     1
 77
     1
171
     1
175
     1
179
     1
273
     0
  0
XRECORD
  5
264
102
{ACAD_REACTORS
330
263
102
}
330
263
100
AcDbXrecord
280
     1
102
MATERIAL
148
0.0
149
0.0
149
0.0
 93
        0
 94
      127
282
     0
 72
     1
 77
     1
171
     1
175
     1
179
     1
273
     0
  0
XRECORD
  5
268
102
{ACAD_REACTORS
330
267
102
}
330
267
100
AcDbXrecord
280
     1
102
MATERIAL
148
0.0
149
0.0
149
0.0
 93
        0
 94
      127
282
     0
 72
     1
 77
     1
171
     1
175
     1
179
     1
273
     0
  0
XRECORD
  5
26E
102
{ACAD_REACTORS
330
26D
102
}
330
26D
100
AcDbXrecord
280
     1
102
ACAD_ROUNDTRIP_2010_MLEADER_STYLE
  0
CELLSTYLEMAP
  5
26B
102
{ACAD_REACTORS
330
269
102
}
330
269
100
AcDbCellStyleMap
 90
        3
300
CELLSTYLE
  1
TABLEFORMAT_BEGIN
 90
        5
170
     1
 91
        0
 92
    32768
 62
   257
 93
        1
300
CONTENTFORMAT
  1
CONTENTFORMAT_BEGIN
 90
        0
 91
        0
 92
        4
 93
        0
300

 40
0.0
140
1.0
 94
        5
 62
     0
340
11
144
0.25
309
CONTENTFORMAT_END
171
     1
301
MARGIN
  1
CELLMARGIN_BEGIN
 40
0.06
 40
0.06
 40
0.06
 40
0.06
 40
0.06
 40
0.06
309
CELLMARGIN_END
 94
        6
 95
        1
302
GRIDFORMAT
  1
GRIDFORMAT_BEGIN
 90
        0
 91
        1
 62
     0
 92
       -2
340
14
 93
        0
 40
0.045
309
GRIDFORMAT_END
 95
        2
302
GRIDFORMAT
  1
GRIDFORMAT_BEGIN
 90
        0
 91
        1
 62
     0
 92
       -2
340
14
 93
        0
 40
0.045
309
GRIDFORMAT_END
 95
        4
302
GRIDFORMAT
  1
GRIDFORMAT_BEGIN
 90
        0
 91
        1
 62
     0
 92
       -2
340
14
 93
        0
 40
0.045
309
GRIDFORMAT_END
 95
        8
302
GRIDFORMAT
  1
GRIDFORMAT_BEGIN
 90
        0
 91
        1
 62
     0
 92
       -2
340
14
 93
        0
 40
0.045
309
GRIDFORMAT_END
 95
       16
302
GRIDFORMAT
  1
GRIDFORMAT_BEGIN
 90
        0
 91
        1
 62
     0
 92
       -2
340
14
 93
        0
 40
0.045
309
GRIDFORMAT_END
 95
       32
302
GRIDFORMAT
  1
GRIDFORMAT_BEGIN
 90
        0
 91
        1
 62
     0
 92
       -2
340
14
 93
        0
 40
0.045
309
GRIDFORMAT_END
309
TABLEFORMAT_END
  1
CELLSTYLE_BEGIN
 90
        1
 91
        1
300
_TITLE
309
CELLSTYLE_END
300
CELLSTYLE
  1
TABLEFORMAT_BEGIN
 90
        5
170
     1
 91
        0
 92
        0
 62
   257
 93
        1
300
CONTENTFORMAT
  1
CONTENTFORMAT_BEGIN
 90
        0
 91
        0
 92
        4
 93
        0
300

 40
0.0
140
1.0
 94
        5
 62
     0
340
11
144
0.18
309
CONTENTFORMAT_END
171
     1
301
MARGIN
  1
CELLMARGIN_BEGIN
 40
0.06
 40
0.06
 40
0.06
 40
0.06
 40
0.06
 40
0.06
309
CELLMARGIN_END
 94
        6
 95
        1
302
GRIDFORMAT
  1
GRIDFORMAT_BEGIN
 90
        0
 91
        1
 62
     0
 92
       -2
340
14
 93
        0
 40
0.045
309
GRIDFORMAT_END
 95
        2
302
GRIDFORMAT
  1
GRIDFORMAT_BEGIN
 90
        0
 91
        1
 62
     0
 92
       -2
340
14
 93
        0
 40
0.045
309
GRIDFORMAT_END
 95
        4
302
GRIDFORMAT
  1
GRIDFORMAT_BEGIN
 90
        0
 91
        1
 62
     0
 92
       -2
340
14
 93
        0
 40
0.045
309
GRIDFORMAT_END
 95
        8
302
GRIDFORMAT
  1
GRIDFORMAT_BEGIN
 90
        0
 91
        1
 62
     0
 92
       -2
340
14
 93
        0
 40
0.045
309
GRIDFORMAT_END
 95
       16
302
GRIDFORMAT
  1
GRIDFORMAT_BEGIN
 90
        0
 91
        1
 62
     0
 92
       -2
340
14
 93
        0
 40
0.045
309
GRIDFORMAT_END
 95
       32
302
GRIDFORMAT
  1
GRIDFORMAT_BEGIN
 90
        0
 91
        1
 62
     0
 92
       -2
340
14
 93
        0
 40
0.045
309
GRIDFORMAT_END
309
TABLEFORMAT_END
  1
CELLSTYLE_BEGIN
 90
        2
 91
        1
300
_HEADER
309
CELLSTYLE_END
300
CELLSTYLE
  1
TABLEFORMAT_BEGIN
 90
        5
170
     1
 91
        0
 92
        0
 62
   257
 93
        1
300
CONTENTFORMAT
  1
CONTENTFORMAT_BEGIN
 90
        0
 91
        0
 92
        4
 93
        0
300

 40
0.0
140
1.0
 94
        2
 62
     0
340
11
144
0.18
309
CONTENTFORMAT_END
171
     1
301
MARGIN
  1
CELLMARGIN_BEGIN
 40
0.06
 40
0.06
 40
0.06
 40
0.06
 40
0.06
 40
0.06
309
CELLMARGIN_END
 94
        6
 95
        1
302
GRIDFORMAT
  1
GRIDFORMAT_BEGIN
 90
        0
 91
        1
 62
     0
 92
       -2
340
14
 93
        0
 40
0.045
309
GRIDFORMAT_END
 95
        2
302
GRIDFORMAT
  1
GRIDFORMAT_BEGIN
 90
        0
 91
        1
 62
     0
 92
       -2
340
14
 93
        0
 40
0.045
309
GRIDFORMAT_END
 95
        4
302
GRIDFORMAT
  1
GRIDFORMAT_BEGIN
 90
        0
 91
        1
 62
     0
 92
       -2
340
14
 93
        0
 40
0.045
309
GRIDFORMAT_END
 95
        8
302
GRIDFORMAT
  1
GRIDFORMAT_BEGIN
 90
        0
 91
        1
 62
     0
 92
       -2
340
14
 93
        0
 40
0.045
309
GRIDFORMAT_END
 95
       16
302
GRIDFORMAT
  1
GRIDFORMAT_BEGIN
 90
        0
 91
        1
 62
     0
 92
       -2
340
14
 93
        0
 40
0.045
309
GRIDFORMAT_END
 95
       32
302
GRIDFORMAT
  1
GRIDFORMAT_BEGIN
 90
        0
 91
        1
 62
     0
 92
       -2
340
14
 93
        0
 40
0.045
309
GRIDFORMAT_END
309
TABLEFORMAT_END
  1
CELLSTYLE_BEGIN
 90
        3
 91
        2
300
_DATA
309
CELLSTYLE_END
  0
XRECORD
  5
26A
102
{ACAD_REACTORS
330
269
102
}
330
269
100
AcDbXrecord
280
     1
102
ACAD_ROUNDTRIP_PRE2007_TABLESTYLE
 90
        4
 91
        0
  1

 92
        4
 93
        0
  2

 94
        4
 95
        0
  3

  0
XRECORD
  5
23C
102
{ACAD_REACTORS
330
23B
102
}
330
23B
100
AcDbXrecord
280
     1
102
RTVSPropertyOp0
 70
     1
102
RTVSPropertyOp1
 70
     1
102
RTVSPropertyOp2
 70
     1
102
RTVSPropertyOp3
 70
     1
102
RTVSPropertyOp4
 70
     1
102
RTVSPropertyOp5
 70
     1
102
RTVSPropertyOp6
 70
     1
102
RTVSPropertyOp7
 70
     1
102
RTVSPropertyOp8
 70
     1
102
RTVSPropertyOp9
 70
     1
102
RTVSPropertyOp10
 70
     1
102
RTVSPropertyOp11
 70
     1
102
RTVSPropertyOp12
 70
     1
102
RTVSPropertyOp13
 70
     1
102
RTVSPropertyOp14
 70
     1
102
RTVSPropertyOp15
 70
     1
102
RTVSPropertyOp16
 70
     1
102
RTVSPropertyOp17
 70
     1
102
RTVSPropertyOp18
 70
     1
102
RTVSPropertyOp19
 70
     1
102
RTVSPropertyOp20
 70
     1
102
RTVSPropertyOp21
 70
     1
102
RTVSPropertyOp22
 70
     1
102
RTVSPropertyOp23
 70
     1
102
RTVSPropertyOp24
 70
     1
102
RTVSPropertyOp25
 70
     1
102
RTVSPropertyOp26
 70
     1
102
RTVSPropertyOp27
 70
     1
102
RTVSPropertyOp28
 70
     1
102
RTVSPropertyOp29
 70
     1
102
RTVSPropertyOp30
 70
     1
102
RTVSPropertyOp31
 70
     1
102
RTVSPropertyOp32
 70
     1
102
RTVSPropertyOp33
 70
     1
102
RTVSPropertyOp34
 70
     1
102
RTVSPropertyOp35
 70
     1
102
RTVSPropertyOp36
 70
     1
102
RTVSPropertyOp37
 70
     1
102
RTVSPropertyOp38
 70
     1
102
RTVSPropertyOp39
 70
     1
102
RTVSPropertyOp40
 70
     1
102
RTVSPropertyOp41
 70
     1
102
RTVSPropertyOp42
 70
     1
102
RTVSPropertyOp43
 70
     1
102
RTVSPropertyOp44
 70
     1
102
RTVSPropertyOp45
 70
     1
102
RTVSPropertyOp46
 70
     1
102
RTVSPropertyOp47
 70
     1
102
RTVSPropertyOp48
 70
     1
102
RTVSPropertyOp49
 70
     1
102
RTVSPropertyOp50
 70
     1
102
RTVSPropertyOp51
 70
     0
102
RTVSPropertyOp52
 70
     0
102
RTVSPropertyOp53
 70
     1
102
RTVSPropertyOp54
 70
     1
102
RTVSPropertyOp55
 70
     1
102
RTVSPropertyOp56
 70
     1
102
RTVSPropertyOp57
 70
     1
102
RTVSPost2010Prop28
280
     1
102
RTVSPost2010PropOp28
 70
     1
102
RTVSPost2010Prop29
280
     1
102
RTVSPost2010PropOp29
 70
     1
102
RTVSPost2010Prop30
280
     0
102
RTVSPost2010PropOp30
 70
     1
102
RTVSPost2010Prop31
280
     0
102
RTVSPost2010PropOp31
 70
     1
102
RTVSPost2010Prop32
280
     0
102
RTVSPost2010PropOp32
 70
     1
102
RTVSPost2010Prop33
280
     0
102
RTVSPost2010PropOp33
 70
     1
102
RTVSPost2010Prop34
280
     0
102
RTVSPost2010PropOp34
 70
     1
102
RTVSPost2010Prop35
280
     0
102
RTVSPost2010PropOp35
 70
     1
102
RTVSPost2010Prop36
280
     0
102
RTVSPost2010PropOp36
 70
     1
102
RTVSPost2010Prop37
 90
       50
102
RTVSPost2010PropOp37
 70
     1
102
RTVSPost2010Prop38
140
0.0
102
RTVSPost2010PropOp38
 70
     1
102
RTVSPost2010Prop39
140
1.0
102
RTVSPost2010PropOp39
 70
     1
102
RTVSPost2010Prop40
 90
        0
102
RTVSPost2010PropOp40
 70
     1
102
RTVSPost2010Prop41ColorIndex
 90
      178
102
RTVSPost2010Prop41ColorRGB
 90
        0
102
RTVSPost2010PropOp41
 70
     1
102
RTVSPost2010Prop42
 90
       50
102
RTVSPost2010PropOp42
 70
     1
102
RTVSPost2010Prop43
 90
        3
102
RTVSPost2010PropOp43
 70
     1
102
RTVSPost2010Prop44ColorIndex
 90
        5
102
RTVSPost2010Prop44ColorRGB
 90
      255
102
RTVSPost2010PropOp44
 70
     1
102
RTVSPost2010Prop45
280
     0
102
RTVSPost2010PropOp45
 70
     1
102
RTVSPost2010Prop46
 90
       50
102
RTVSPost2010PropOp46
 70
     1
102
RTVSPost2010Prop47
 90
       50
102
RTVSPost2010PropOp47
 70
     1
102
RTVSPost2010Prop48
 90
       50
102
RTVSPost2010PropOp48
 70
     1
102
RTVSPost2010Prop49
280
     0
102
RTVSPost2010PropOp49
 70
     1
102
RTVSPost2010Prop50
 90
       50
102
RTVSPost2010PropOp50
 70
     1
102
RTVSPost2010Prop51ColorIndex
 90
      256
102
RTVSPost2010Prop51ColorRGB
 90
-16777216
102
RTVSPost2010PropOp51
 70
     0
102
RTVSPost2010Prop52
140
1.0
102
RTVSPost2010PropOp52
 70
     0
102
RTVSPost2010Prop53
 90
        2
102
RTVSPost2010PropOp53
 70
     1
102
RTVSPost2010Prop54
  1
strokes_ogs.tif
102
RTVSPost2010PropOp54
 70
     1
102
RTVSPost2010Prop55
280
     0
102
RTVSPost2010PropOp55
 70
     1
102
RTVSPost2010Prop56
140
1.0
102
RTVSPost2010PropOp56
 70
     1
102
RTVSPost2010Prop57
140
1.0
102
RTVSPost2010PropOp57
 70
     1
  0
XRECORD
  5
242
102
{ACAD_REACTORS
330
241
102
}
330
241
100
AcDbXrecord
280
     1
102
RTVSPropertyOp0
 70
     1
102
RTVSPropertyOp1
 70
     1
102
RTVSPropertyOp2
 70
     1
102
RTVSPropertyOp3
 70
     1
102
RTVSPropertyOp4
 70
     1
102
RTVSPropertyOp5
 70
     1
102
RTVSPropertyOp6
 70
     1
102
RTVSPropertyOp7
 70
     1
102
RTVSPropertyOp8
 70
     1
102
RTVSPropertyOp9
 70
     1
102
RTVSPropertyOp10
 70
     1
102
RTVSPropertyOp11
 70
     1
102
RTVSPropertyOp12
 70
     1
102
RTVSPropertyOp13
 70
     1
102
RTVSPropertyOp14
 70
     1
102
RTVSPropertyOp15
 70
     1
102
RTVSPropertyOp16
 70
     1
102
RTVSPropertyOp17
 70
     1
102
RTVSPropertyOp18
 70
     1
102
RTVSPropertyOp19
 70
     1
102
RTVSPropertyOp20
 70
     1
102
RTVSPropertyOp21
 70
     1
102
RTVSPropertyOp22
 70
     1
102
RTVSPropertyOp23
 70
     1
102
RTVSPropertyOp24
 70
     1
102
RTVSPropertyOp25
 70
     1
102
RTVSPropertyOp26
 70
     1
102
RTVSPropertyOp27
 70
     1
102
RTVSPropertyOp28
 70
     1
102
RTVSPropertyOp29
 70
     1
102
RTVSPropertyOp30
 70
     1
102
RTVSPropertyOp31
 70
     1
102
RTVSPropertyOp32
 70
     1
102
RTVSPropertyOp33
 70
     1
102
RTVSPropertyOp34
 70
     1
102
RTVSPropertyOp35
 70
     1
102
RTVSPropertyOp36
 70
     1
102
RTVSPropertyOp37
 70
     1
102
RTVSPropertyOp38
 70
     1
102
RTVSPropertyOp39
 70
     1
102
RTVSPropertyOp40
 70
     1
102
RTVSPropertyOp41
 70
     1
102
RTVSPropertyOp42
 70
     1
102
RTVSPropertyOp43
 70
     1
102
RTVSPropertyOp44
 70
     1
102
RTVSPropertyOp45
 70
     1
102
RTVSPropertyOp46
 70
     1
102
RTVSPropertyOp47
 70
     1
102
RTVSPropertyOp48
 70
     1
102
RTVSPropertyOp49
 70
     1
102
RTVSPropertyOp50
 70
     1
102
RTVSPropertyOp51
 70
     0
102
RTVSPropertyOp52
 70
     0
102
RTVSPropertyOp53
 70
     1
102
RTVSPropertyOp54
 70
     1
102
RTVSPropertyOp55
 70
     1
102
RTVSPropertyOp56
 70
     1
102
RTVSPropertyOp57
 70
     1
102
RTVSPost2010Prop28
280
     0
102
RTVSPost2010PropOp28
 70
     1
102
RTVSPost2010Prop29
280
     1
102
RTVSPost2010PropOp29
 70
     1
102
RTVSPost2010Prop30
280
     1
102
RTVSPost2010PropOp30
 70
     1
102
RTVSPost2010Prop31
280
     0
102
RTVSPost2010PropOp31
 70
     1
102
RTVSPost2010Prop32
280
     0
102
RTVSPost2010PropOp32
 70
     1
102
RTVSPost2010Prop33
280
     0
102
RTVSPost2010PropOp33
 70
     1
102
RTVSPost2010Prop34
280
     0
102
RTVSPost2010PropOp34
 70
     1
102
RTVSPost2010Prop35
280
     0
102
RTVSPost2010PropOp35
 70
     1
102
RTVSPost2010Prop36
280
     0
102
RTVSPost2010PropOp36
 70
     1
102
RTVSPost2010Prop37
 90
       50
102
RTVSPost2010PropOp37
 70
     1
102
RTVSPost2010Prop38
140
0.0
102
RTVSPost2010PropOp38
 70
     1
102
RTVSPost2010Prop39
140
1.0
102
RTVSPost2010PropOp39
 70
     1
102
RTVSPost2010Prop40
 90
        0
102
RTVSPost2010PropOp40
 70
     1
102
RTVSPost2010Prop41ColorIndex
 90
      178
102
RTVSPost2010Prop41ColorRGB
 90
        0
102
RTVSPost2010PropOp41
 70
     1
102
RTVSPost2010Prop42
 90
       50
102
RTVSPost2010PropOp42
 70
     1
102
RTVSPost2010Prop43
 90
        3
102
RTVSPost2010PropOp43
 70
     1
102
RTVSPost2010Prop44ColorIndex
 90
        5
102
RTVSPost2010Prop44ColorRGB
 90
      255
102
RTVSPost2010PropOp44
 70
     1
102
RTVSPost2010Prop45
280
     0
102
RTVSPost2010PropOp45
 70
     1
102
RTVSPost2010Prop46
 90
       50
102
RTVSPost2010PropOp46
 70
     1
102
RTVSPost2010Prop47
 90
       50
102
RTVSPost2010PropOp47
 70
     1
102
RTVSPost2010Prop48
 90
       50
102
RTVSPost2010PropOp48
 70
     1
102
RTVSPost2010Prop49
280
     0
102
RTVSPost2010PropOp49
 70
     1
102
RTVSPost2010Prop50
 90
       50
102
RTVSPost2010PropOp50
 70
     1
102
RTVSPost2010Prop51ColorIndex
 90
      256
102
RTVSPost2010Prop51ColorRGB
 90
-16777216
102
RTVSPost2010PropOp51
 70
     0
102
RTVSPost2010Prop52
140
1.0
102
RTVSPost2010PropOp52
 70
     0
102
RTVSPost2010Prop53
 90
        2
102
RTVSPost2010PropOp53
 70
     1
102
RTVSPost2010Prop54
  1
strokes_ogs.tif
102
RTVSPost2010PropOp54
 70
     1
102
RTVSPost2010Prop55
280
     0
102
RTVSPost2010PropOp55
 70
     1
102
RTVSPost2010Prop56
140
1.0
102
RTVSPost2010PropOp56
 70
     1
102
RTVSPost2010Prop57
140
1.0
102
RTVSPost2010PropOp57
 70
     1
  0
XRECORD
  5
24A
102
{ACAD_REACTORS
330
249
102
}
330
249
100
AcDbXrecord
280
     1
102
RTVSPropertyOp0
 70
     1
102
RTVSPropertyOp1
 70
     1
102
RTVSPropertyOp2
 70
     1
102
RTVSPropertyOp3
 70
     1
102
RTVSPropertyOp4
 70
     1
102
RTVSPropertyOp5
 70
     1
102
RTVSPropertyOp6
 70
     1
102
RTVSPropertyOp7
 70
     1
102
RTVSPropertyOp8
 70
     1
102
RTVSPropertyOp9
 70
     1
102
RTVSPropertyOp10
 70
     1
102
RTVSPropertyOp11
 70
     1
102
RTVSPropertyOp12
 70
     1
102
RTVSPropertyOp13
 70
     1
102
RTVSPropertyOp14
 70
     1
102
RTVSPropertyOp15
 70
     1
102
RTVSPropertyOp16
 70
     1
102
RTVSPropertyOp17
 70
     1
102
RTVSPropertyOp18
 70
     1
102
RTVSPropertyOp19
 70
     1
102
RTVSPropertyOp20
 70
     1
102
RTVSPropertyOp21
 70
     1
102
RTVSPropertyOp22
 70
     1
102
RTVSPropertyOp23
 70
     1
102
RTVSPropertyOp24
 70
     1
102
RTVSPropertyOp25
 70
     1
102
RTVSPropertyOp26
 70
     1
102
RTVSPropertyOp27
 70
     1
102
RTVSPropertyOp28
 70
     1
102
RTVSPropertyOp29
 70
     1
102
RTVSPropertyOp30
 70
     1
102
RTVSPropertyOp31
 70
     1
102
RTVSPropertyOp32
 70
     1
102
RTVSPropertyOp33
 70
     1
102
RTVSPropertyOp34
 70
     1
102
RTVSPropertyOp35
 70
     1
102
RTVSPropertyOp36
 70
     1
102
RTVSPropertyOp37
 70
     1
102
RTVSPropertyOp38
 70
     1
102
RTVSPropertyOp39
 70
     1
102
RTVSPropertyOp40
 70
     1
102
RTVSPropertyOp41
 70
     1
102
RTVSPropertyOp42
 70
     1
102
RTVSPropertyOp43
 70
     1
102
RTVSPropertyOp44
 70
     1
102
RTVSPropertyOp45
 70
     1
102
RTVSPropertyOp46
 70
     1
102
RTVSPropertyOp47
 70
     1
102
RTVSPropertyOp48
 70
     1
102
RTVSPropertyOp49
 70
     1
102
RTVSPropertyOp50
 70
     1
102
RTVSPropertyOp51
 70
     0
102
RTVSPropertyOp52
 70
     0
102
RTVSPropertyOp53
 70
     1
102
RTVSPropertyOp54
 70
     1
102
RTVSPropertyOp55
 70
     1
102
RTVSPropertyOp56
 70
     1
102
RTVSPropertyOp57
 70
     1
102
RTVSPost2010Prop28
280
     0
102
RTVSPost2010PropOp28
 70
     1
102
RTVSPost2010Prop29
280
     1
102
RTVSPost2010PropOp29
 70
     1
102
RTVSPost2010Prop30
280
     1
102
RTVSPost2010PropOp30
 70
     1
102
RTVSPost2010Prop31
280
     0
102
RTVSPost2010PropOp31
 70
     1
102
RTVSPost2010Prop32
280
     0
102
RTVSPost2010PropOp32
 70
     1
102
RTVSPost2010Prop33
280
     0
102
RTVSPost2010PropOp33
 70
     1
102
RTVSPost2010Prop34
280
     0
102
RTVSPost2010PropOp34
 70
     1
102
RTVSPost2010Prop35
280
     0
102
RTVSPost2010PropOp35
 70
     1
102
RTVSPost2010Prop36
280
     0
102
RTVSPost2010PropOp36
 70
     1
102
RTVSPost2010Prop37
 90
       50
102
RTVSPost2010PropOp37
 70
     1
102
RTVSPost2010Prop38
140
0.0
102
RTVSPost2010PropOp38
 70
     1
102
RTVSPost2010Prop39
140
1.0
102
RTVSPost2010PropOp39
 70
     1
102
RTVSPost2010Prop40
 90
        0
102
RTVSPost2010PropOp40
 70
     1
102
RTVSPost2010Prop41ColorIndex
 90
      178
102
RTVSPost2010Prop41ColorRGB
 90
        0
102
RTVSPost2010PropOp41
 70
     1
102
RTVSPost2010Prop42
 90
       50
102
RTVSPost2010PropOp42
 70
     1
102
RTVSPost2010Prop43
 90
        3
102
RTVSPost2010PropOp43
 70
     1
102
RTVSPost2010Prop44ColorIndex
 90
        5
102
RTVSPost2010Prop44ColorRGB
 90
      255
102
RTVSPost2010PropOp44
 70
     1
102
RTVSPost2010Prop45
280
     0
102
RTVSPost2010PropOp45
 70
     1
102
RTVSPost2010Prop46
 90
       50
102
RTVSPost2010PropOp46
 70
     1
102
RTVSPost2010Prop47
 90
       50
102
RTVSPost2010PropOp47
 70
     1
102
RTVSPost2010Prop48
 90
       50
102
RTVSPost2010PropOp48
 70
     1
102
RTVSPost2010Prop49
280
     0
102
RTVSPost2010PropOp49
 70
     1
102
RTVSPost2010Prop50
 90
       50
102
RTVSPost2010PropOp50
 70
     1
102
RTVSPost2010Prop51ColorIndex
 90
      256
102
RTVSPost2010Prop51ColorRGB
 90
-16777216
102
RTVSPost2010PropOp51
 70
     0
102
RTVSPost2010Prop52
140
1.0
102
RTVSPost2010PropOp52
 70
     0
102
RTVSPost2010Prop53
 90
        2
102
RTVSPost2010PropOp53
 70
     1
102
RTVSPost2010Prop54
  1
strokes_ogs.tif
102
RTVSPost2010PropOp54
 70
     1
102
RTVSPost2010Prop55
280
     0
102
RTVSPost2010PropOp55
 70
     1
102
RTVSPost2010Prop56
140
1.0
102
RTVSPost2010PropOp56
 70
     1
102
RTVSPost2010Prop57
140
1.0
102
RTVSPost2010PropOp57
 70
     1
  0
XRECORD
  5
252
102
{ACAD_REACTORS
330
251
102
}
330
251
100
AcDbXrecord
280
     1
102
RTVSPropertyOp0
 70
     1
102
RTVSPropertyOp1
 70
     1
102
RTVSPropertyOp2
 70
     1
102
RTVSPropertyOp3
 70
     1
102
RTVSPropertyOp4
 70
     1
102
RTVSPropertyOp5
 70
     1
102
RTVSPropertyOp6
 70
     1
102
RTVSPropertyOp7
 70
     1
102
RTVSPropertyOp8
 70
     1
102
RTVSPropertyOp9
 70
     1
102
RTVSPropertyOp10
 70
     1
102
RTVSPropertyOp11
 70
     1
102
RTVSPropertyOp12
 70
     1
102
RTVSPropertyOp13
 70
     1
102
RTVSPropertyOp14
 70
     1
102
RTVSPropertyOp15
 70
     1
102
RTVSPropertyOp16
 70
     1
102
RTVSPropertyOp17
 70
     1
102
RTVSPropertyOp18
 70
     1
102
RTVSPropertyOp19
 70
     1
102
RTVSPropertyOp20
 70
     1
102
RTVSPropertyOp21
 70
     1
102
RTVSPropertyOp22
 70
     1
102
RTVSPropertyOp23
 70
     1
102
RTVSPropertyOp24
 70
     1
102
RTVSPropertyOp25
 70
     1
102
RTVSPropertyOp26
 70
     1
102
RTVSPropertyOp27
 70
     1
102
RTVSPropertyOp28
 70
     1
102
RTVSPropertyOp29
 70
     1
102
RTVSPropertyOp30
 70
     1
102
RTVSPropertyOp31
 70
     1
102
RTVSPropertyOp32
 70
     1
102
RTVSPropertyOp33
 70
     1
102
RTVSPropertyOp34
 70
     1
102
RTVSPropertyOp35
 70
     1
102
RTVSPropertyOp36
 70
     1
102
RTVSPropertyOp37
 70
     1
102
RTVSPropertyOp38
 70
     1
102
RTVSPropertyOp39
 70
     1
102
RTVSPropertyOp40
 70
     1
102
RTVSPropertyOp41
 70
     1
102
RTVSPropertyOp42
 70
     1
102
RTVSPropertyOp43
 70
     1
102
RTVSPropertyOp44
 70
     1
102
RTVSPropertyOp45
 70
     1
102
RTVSPropertyOp46
 70
     1
102
RTVSPropertyOp47
 70
     1
102
RTVSPropertyOp48
 70
     1
102
RTVSPropertyOp49
 70
     1
102
RTVSPropertyOp50
 70
     1
102
RTVSPropertyOp51
 70
     0
102
RTVSPropertyOp52
 70
     0
102
RTVSPropertyOp53
 70
     1
102
RTVSPropertyOp54
 70
     1
102
RTVSPropertyOp55
 70
     1
102
RTVSPropertyOp56
 70
     1
102
RTVSPropertyOp57
 70
     1
102
RTVSPost2010Prop28
280
     0
102
RTVSPost2010PropOp28
 70
     1
102
RTVSPost2010Prop29
280
     1
102
RTVSPost2010PropOp29
 70
     1
102
RTVSPost2010Prop30
280
     1
102
RTVSPost2010PropOp30
 70
     1
102
RTVSPost2010Prop31
280
     0
102
RTVSPost2010PropOp31
 70
     1
102
RTVSPost2010Prop32
280
     0
102
RTVSPost2010PropOp32
 70
     1
102
RTVSPost2010Prop33
280
     0
102
RTVSPost2010PropOp33
 70
     1
102
RTVSPost2010Prop34
280
     0
102
RTVSPost2010PropOp34
 70
     1
102
RTVSPost2010Prop35
280
     0
102
RTVSPost2010PropOp35
 70
     1
102
RTVSPost2010Prop36
280
     0
102
RTVSPost2010PropOp36
 70
     1
102
RTVSPost2010Prop37
 90
       50
102
RTVSPost2010PropOp37
 70
     1
102
RTVSPost2010Prop38
140
0.0
102
RTVSPost2010PropOp38
 70
     1
102
RTVSPost2010Prop39
140
1.0
102
RTVSPost2010PropOp39
 70
     1
102
RTVSPost2010Prop40
 90
        0
102
RTVSPost2010PropOp40
 70
     1
102
RTVSPost2010Prop41ColorIndex
 90
      178
102
RTVSPost2010Prop41ColorRGB
 90
        0
102
RTVSPost2010PropOp41
 70
     1
102
RTVSPost2010Prop42
 90
       50
102
RTVSPost2010PropOp42
 70
     1
102
RTVSPost2010Prop43
 90
        3
102
RTVSPost2010PropOp43
 70
     1
102
RTVSPost2010Prop44ColorIndex
 90
        5
102
RTVSPost2010Prop44ColorRGB
 90
      255
102
RTVSPost2010PropOp44
 70
     1
102
RTVSPost2010Prop45
280
     0
102
RTVSPost2010PropOp45
 70
     1
102
RTVSPost2010Prop46
 90
       50
102
RTVSPost2010PropOp46
 70
     1
102
RTVSPost2010Prop47
 90
       50
102
RTVSPost2010PropOp47
 70
     1
102
RTVSPost2010Prop48
 90
       50
102
RTVSPost2010PropOp48
 70
     1
102
RTVSPost2010Prop49
280
     0
102
RTVSPost2010PropOp49
 70
     1
102
RTVSPost2010Prop50
 90
       50
102
RTVSPost2010PropOp50
 70
     1
102
RTVSPost2010Prop51ColorIndex
 90
      256
102
RTVSPost2010Prop51ColorRGB
 90
-16777216
102
RTVSPost2010PropOp51
 70
     0
102
RTVSPost2010Prop52
140
1.0
102
RTVSPost2010PropOp52
 70
     0
102
RTVSPost2010Prop53
 90
        2
102
RTVSPost2010PropOp53
 70
     1
102
RTVSPost2010Prop54
  1
strokes_ogs.tif
102
RTVSPost2010PropOp54
 70
     1
102
RTVSPost2010Prop55
280
     0
102
RTVSPost2010PropOp55
 70
     1
102
RTVSPost2010Prop56
140
1.0
102
RTVSPost2010PropOp56
 70
     1
102
RTVSPost2010Prop57
140
1.0
102
RTVSPost2010PropOp57
 70
     1
  0
XRECORD
  5
246
102
{ACAD_REACTORS
330
245
102
}
330
245
100
AcDbXrecord
280
     1
102
RTVSPropertyOp0
 70
     1
102
RTVSPropertyOp1
 70
     1
102
RTVSPropertyOp2
 70
     1
102
RTVSPropertyOp3
 70
     1
102
RTVSPropertyOp4
 70
     1
102
RTVSPropertyOp5
 70
     1
102
RTVSPropertyOp6
 70
     1
102
RTVSPropertyOp7
 70
     1
102
RTVSPropertyOp8
 70
     1
102
RTVSPropertyOp9
 70
     1
102
RTVSPropertyOp10
 70
     1
102
RTVSPropertyOp11
 70
     1
102
RTVSPropertyOp12
 70
     1
102
RTVSPropertyOp13
 70
     1
102
RTVSPropertyOp14
 70
     1
102
RTVSPropertyOp15
 70
     1
102
RTVSPropertyOp16
 70
     1
102
RTVSPropertyOp17
 70
     1
102
RTVSPropertyOp18
 70
     1
102
RTVSPropertyOp19
 70
     1
102
RTVSPropertyOp20
 70
     1
102
RTVSPropertyOp21
 70
     1
102
RTVSPropertyOp22
 70
     1
102
RTVSPropertyOp23
 70
     1
102
RTVSPropertyOp24
 70
     1
102
RTVSPropertyOp25
 70
     1
102
RTVSPropertyOp26
 70
     1
102
RTVSPropertyOp27
 70
     1
102
RTVSPropertyOp28
 70
     1
102
RTVSPropertyOp29
 70
     1
102
RTVSPropertyOp30
 70
     1
102
RTVSPropertyOp31
 70
     1
102
RTVSPropertyOp32
 70
     1
102
RTVSPropertyOp33
 70
     1
102
RTVSPropertyOp34
 70
     1
102
RTVSPropertyOp35
 70
     1
102
RTVSPropertyOp36
 70
     1
102
RTVSPropertyOp37
 70
     1
102
RTVSPropertyOp38
 70
     1
102
RTVSPropertyOp39
 70
     1
102
RTVSPropertyOp40
 70
     1
102
RTVSPropertyOp41
 70
     1
102
RTVSPropertyOp42
 70
     1
102
RTVSPropertyOp43
 70
     1
102
RTVSPropertyOp44
 70
     1
102
RTVSPropertyOp45
 70
     1
102
RTVSPropertyOp46
 70
     1
102
RTVSPropertyOp47
 70
     1
102
RTVSPropertyOp48
 70
     1
102
RTVSPropertyOp49
 70
     1
102
RTVSPropertyOp50
 70
     1
102
RTVSPropertyOp51
 70
     0
102
RTVSPropertyOp52
 70
     0
102
RTVSPropertyOp53
 70
     1
102
RTVSPropertyOp54
 70
     1
102
RTVSPropertyOp55
 70
     1
102
RTVSPropertyOp56
 70
     1
102
RTVSPropertyOp57
 70
     1
102
RTVSPost2010Prop28
280
     0
102
RTVSPost2010PropOp28
 70
     1
102
RTVSPost2010Prop29
280
     1
102
RTVSPost2010PropOp29
 70
     1
102
RTVSPost2010Prop30
280
     1
102
RTVSPost2010PropOp30
 70
     1
102
RTVSPost2010Prop31
280
     0
102
RTVSPost2010PropOp31
 70
     1
102
RTVSPost2010Prop32
280
     0
102
RTVSPost2010PropOp32
 70
     1
102
RTVSPost2010Prop33
280
     0
102
RTVSPost2010PropOp33
 70
     1
102
RTVSPost2010Prop34
280
     0
102
RTVSPost2010PropOp34
 70
     1
102
RTVSPost2010Prop35
280
     0
102
RTVSPost2010PropOp35
 70
     1
102
RTVSPost2010Prop36
280
     0
102
RTVSPost2010PropOp36
 70
     1
102
RTVSPost2010Prop37
 90
       50
102
RTVSPost2010PropOp37
 70
     1
102
RTVSPost2010Prop38
140
0.0
102
RTVSPost2010PropOp38
 70
     1
102
RTVSPost2010Prop39
140
1.0
102
RTVSPost2010PropOp39
 70
     1
102
RTVSPost2010Prop40
 90
        0
102
RTVSPost2010PropOp40
 70
     1
102
RTVSPost2010Prop41ColorIndex
 90
      178
102
RTVSPost2010Prop41ColorRGB
 90
        0
102
RTVSPost2010PropOp41
 70
     1
102
RTVSPost2010Prop42
 90
       50
102
RTVSPost2010PropOp42
 70
     1
102
RTVSPost2010Prop43
 90
        3
102
RTVSPost2010PropOp43
 70
     1
102
RTVSPost2010Prop44ColorIndex
 90
        5
102
RTVSPost2010Prop44ColorRGB
 90
      255
102
RTVSPost2010PropOp44
 70
     1
102
RTVSPost2010Prop45
280
     0
102
RTVSPost2010PropOp45
 70
     1
102
RTVSPost2010Prop46
 90
       50
102
RTVSPost2010PropOp46
 70
     1
102
RTVSPost2010Prop47
 90
       50
102
RTVSPost2010PropOp47
 70
     1
102
RTVSPost2010Prop48
 90
       50
102
RTVSPost2010PropOp48
 70
     1
102
RTVSPost2010Prop49
280
     0
102
RTVSPost2010PropOp49
 70
     1
102
RTVSPost2010Prop50
 90
       50
102
RTVSPost2010PropOp50
 70
     1
102
RTVSPost2010Prop51ColorIndex
 90
      256
102
RTVSPost2010Prop51ColorRGB
 90
-16777216
102
RTVSPost2010PropOp51
 70
     0
102
RTVSPost2010Prop52
140
1.0
102
RTVSPost2010PropOp52
 70
     0
102
RTVSPost2010Prop53
 90
        2
102
RTVSPost2010PropOp53
 70
     1
102
RTVSPost2010Prop54
  1
strokes_ogs.tif
102
RTVSPost2010PropOp54
 70
     1
102
RTVSPost2010Prop55
280
     0
102
RTVSPost2010PropOp55
 70
     1
102
RTVSPost2010Prop56
140
1.0
102
RTVSPost2010PropOp56
 70
     1
102
RTVSPost2010Prop57
140
1.0
102
RTVSPost2010PropOp57
 70
     1
  0
XRECORD
  5
248
102
{ACAD_REACTORS
330
247
102
}
330
247
100
AcDbXrecord
280
     1
102
RTVSPropertyOp0
 70
     1
102
RTVSPropertyOp1
 70
     1
102
RTVSPropertyOp2
 70
     1
102
RTVSPropertyOp3
 70
     1
102
RTVSPropertyOp4
 70
     1
102
RTVSPropertyOp5
 70
     1
102
RTVSPropertyOp6
 70
     1
102
RTVSPropertyOp7
 70
     1
102
RTVSPropertyOp8
 70
     1
102
RTVSPropertyOp9
 70
     1
102
RTVSPropertyOp10
 70
     1
102
RTVSPropertyOp11
 70
     1
102
RTVSPropertyOp12
 70
     1
102
RTVSPropertyOp13
 70
     1
102
RTVSPropertyOp14
 70
     1
102
RTVSPropertyOp15
 70
     1
102
RTVSPropertyOp16
 70
     1
102
RTVSPropertyOp17
 70
     1
102
RTVSPropertyOp18
 70
     1
102
RTVSPropertyOp19
 70
     1
102
RTVSPropertyOp20
 70
     1
102
RTVSPropertyOp21
 70
     1
102
RTVSPropertyOp22
 70
     1
102
RTVSPropertyOp23
 70
     1
102
RTVSPropertyOp24
 70
     1
102
RTVSPropertyOp25
 70
     1
102
RTVSPropertyOp26
 70
     1
102
RTVSPropertyOp27
 70
     1
102
RTVSPropertyOp28
 70
     1
102
RTVSPropertyOp29
 70
     1
102
RTVSPropertyOp30
 70
     1
102
RTVSPropertyOp31
 70
     1
102
RTVSPropertyOp32
 70
     1
102
RTVSPropertyOp33
 70
     1
102
RTVSPropertyOp34
 70
     1
102
RTVSPropertyOp35
 70
     1
102
RTVSPropertyOp36
 70
     1
102
RTVSPropertyOp37
 70
     1
102
RTVSPropertyOp38
 70
     1
102
RTVSPropertyOp39
 70
     1
102
RTVSPropertyOp40
 70
     1
102
RTVSPropertyOp41
 70
     1
102
RTVSPropertyOp42
 70
     1
102
RTVSPropertyOp43
 70
     1
102
RTVSPropertyOp44
 70
     1
102
RTVSPropertyOp45
 70
     1
102
RTVSPropertyOp46
 70
     1
102
RTVSPropertyOp47
 70
     1
102
RTVSPropertyOp48
 70
     1
102
RTVSPropertyOp49
 70
     1
102
RTVSPropertyOp50
 70
     1
102
RTVSPropertyOp51
 70
     0
102
RTVSPropertyOp52
 70
     0
102
RTVSPropertyOp53
 70
     1
102
RTVSPropertyOp54
 70
     1
102
RTVSPropertyOp55
 70
     1
102
RTVSPropertyOp56
 70
     1
102
RTVSPropertyOp57
 70
     1
102
RTVSPost2010Prop28
280
     0
102
RTVSPost2010PropOp28
 70
     1
102
RTVSPost2010Prop29
280
     1
102
RTVSPost2010PropOp29
 70
     1
102
RTVSPost2010Prop30
280
     1
102
RTVSPost2010PropOp30
 70
     1
102
RTVSPost2010Prop31
280
     0
102
RTVSPost2010PropOp31
 70
     1
102
RTVSPost2010Prop32
280
     0
102
RTVSPost2010PropOp32
 70
     1
102
RTVSPost2010Prop33
280
     0
102
RTVSPost2010PropOp33
 70
     1
102
RTVSPost2010Prop34
280
     0
102
RTVSPost2010PropOp34
 70
     1
102
RTVSPost2010Prop35
280
     0
102
RTVSPost2010PropOp35
 70
     1
102
RTVSPost2010Prop36
280
     0
102
RTVSPost2010PropOp36
 70
     1
102
RTVSPost2010Prop37
 90
       50
102
RTVSPost2010PropOp37
 70
     1
102
RTVSPost2010Prop38
140
0.0
102
RTVSPost2010PropOp38
 70
     1
102
RTVSPost2010Prop39
140
1.0
102
RTVSPost2010PropOp39
 70
     1
102
RTVSPost2010Prop40
 90
        0
102
RTVSPost2010PropOp40
 70
     1
102
RTVSPost2010Prop41ColorIndex
 90
      178
102
RTVSPost2010Prop41ColorRGB
 90
        0
102
RTVSPost2010PropOp41
 70
     1
102
RTVSPost2010Prop42
 90
       50
102
RTVSPost2010PropOp42
 70
     1
102
RTVSPost2010Prop43
 90
        3
102
RTVSPost2010PropOp43
 70
     1
102
RTVSPost2010Prop44ColorIndex
 90
        5
102
RTVSPost2010Prop44ColorRGB
 90
      255
102
RTVSPost2010PropOp44
 70
     1
102
RTVSPost2010Prop45
280
     0
102
RTVSPost2010PropOp45
 70
     1
102
RTVSPost2010Prop46
 90
       50
102
RTVSPost2010PropOp46
 70
     1
102
RTVSPost2010Prop47
 90
       50
102
RTVSPost2010PropOp47
 70
     1
102
RTVSPost2010Prop48
 90
       50
102
RTVSPost2010PropOp48
 70
     1
102
RTVSPost2010Prop49
280
     0
102
RTVSPost2010PropOp49
 70
     1
102
RTVSPost2010Prop50
 90
       50
102
RTVSPost2010PropOp50
 70
     1
102
RTVSPost2010Prop51ColorIndex
 90
      256
102
RTVSPost2010Prop51ColorRGB
 90
-16777216
102
RTVSPost2010PropOp51
 70
     0
102
RTVSPost2010Prop52
140
1.0
102
RTVSPost2010PropOp52
 70
     0
102
RTVSPost2010Prop53
 90
        2
102
RTVSPost2010PropOp53
 70
     1
102
RTVSPost2010Prop54
  1
strokes_ogs.tif
102
RTVSPost2010PropOp54
 70
     1
102
RTVSPost2010Prop55
280
     0
102
RTVSPost2010PropOp55
 70
     1
102
RTVSPost2010Prop56
140
1.0
102
RTVSPost2010PropOp56
 70
     1
102
RTVSPost2010Prop57
140
1.0
102
RTVSPost2010PropOp57
 70
     1
  0
XRECORD
  5
258
102
{ACAD_REACTORS
330
257
102
}
330
257
100
AcDbXrecord
280
     1
102
RTVSPropertyOp0
 70
     0
102
RTVSPropertyOp1
 70
     0
102
RTVSPropertyOp2
 70
     0
102
RTVSPropertyOp3
 70
     0
102
RTVSPropertyOp4
 70
     0
102
RTVSPropertyOp5
 70
     0
102
RTVSPropertyOp6
 70
     0
102
RTVSPropertyOp7
 70
     0
102
RTVSPropertyOp8
 70
     0
102
RTVSPropertyOp9
 70
     0
102
RTVSPropertyOp10
 70
     0
102
RTVSPropertyOp11
 70
     0
102
RTVSPropertyOp12
 70
     0
102
RTVSPropertyOp13
 70
     0
102
RTVSPropertyOp14
 70
     2
102
RTVSPropertyOp15
 70
     0
102
RTVSPropertyOp16
 70
     0
102
RTVSPropertyOp17
 70
     0
102
RTVSPropertyOp18
 70
     0
102
RTVSPropertyOp19
 70
     0
102
RTVSPropertyOp20
 70
     0
102
RTVSPropertyOp21
 70
     0
102
RTVSPropertyOp22
 70
     0
102
RTVSPropertyOp23
 70
     0
102
RTVSPropertyOp24
 70
     0
102
RTVSPropertyOp25
 70
     0
102
RTVSPropertyOp26
 70
     0
102
RTVSPropertyOp27
 70
     0
102
RTVSPropertyOp28
 70
     0
102
RTVSPropertyOp29
 70
     0
102
RTVSPropertyOp30
 70
     0
102
RTVSPropertyOp31
 70
     0
102
RTVSPropertyOp32
 70
     0
102
RTVSPropertyOp33
 70
     0
102
RTVSPropertyOp34
 70
     0
102
RTVSPropertyOp35
 70
     0
102
RTVSPropertyOp36
 70
     0
102
RTVSPropertyOp37
 70
     0
102
RTVSPropertyOp38
 70
     0
102
RTVSPropertyOp39
 70
     0
102
RTVSPropertyOp40
 70
     0
102
RTVSPropertyOp41
 70
     0
102
RTVSPropertyOp42
 70
     0
102
RTVSPropertyOp43
 70
     0
102
RTVSPropertyOp44
 70
     0
102
RTVSPropertyOp45
 70
     0
102
RTVSPropertyOp46
 70
     0
102
RTVSPropertyOp47
 70
     0
102
RTVSPropertyOp48
 70
     0
102
RTVSPropertyOp49
 70
     0
102
RTVSPropertyOp50
 70
     0
102
RTVSPropertyOp51
 70
     0
102
RTVSPropertyOp52
 70
     0
102
RTVSPropertyOp53
 70
     0
102
RTVSPropertyOp54
 70
     0
102
RTVSPropertyOp55
 70
     0
102
RTVSPropertyOp56
 70
     0
102
RTVSPropertyOp57
 70
     0
102
RTVSPost2010Prop28
280
     0
102
RTVSPost2010PropOp28
 70
     0
102
RTVSPost2010Prop29
280
     1
102
RTVSPost2010PropOp29
 70
     0
102
RTVSPost2010Prop30
280
     1
102
RTVSPost2010PropOp30
 70
     0
102
RTVSPost2010Prop31
280
     0
102
RTVSPost2010PropOp31
 70
     0
102
RTVSPost2010Prop32
280
     0
102
RTVSPost2010PropOp32
 70
     0
102
RTVSPost2010Prop33
280
     0
102
RTVSPost2010PropOp33
 70
     0
102
RTVSPost2010Prop34
280
     0
102
RTVSPost2010PropOp34
 70
     0
102
RTVSPost2010Prop35
280
     0
102
RTVSPost2010PropOp35
 70
     0
102
RTVSPost2010Prop36
280
     0
102
RTVSPost2010PropOp36
 70
     0
102
RTVSPost2010Prop37
 90
       50
102
RTVSPost2010PropOp37
 70
     0
102
RTVSPost2010Prop38
140
0.0
102
RTVSPost2010PropOp38
 70
     0
102
RTVSPost2010Prop39
140
1.0
102
RTVSPost2010PropOp39
 70
     0
102
RTVSPost2010Prop40
 90
        0
102
RTVSPost2010PropOp40
 70
     0
102
RTVSPost2010Prop41ColorIndex
 90
      178
102
RTVSPost2010Prop41ColorRGB
 90
        0
102
RTVSPost2010PropOp41
 70
     0
102
RTVSPost2010Prop42
 90
       50
102
RTVSPost2010PropOp42
 70
     0
102
RTVSPost2010Prop43
 90
        3
102
RTVSPost2010PropOp43
 70
     0
102
RTVSPost2010Prop44ColorIndex
 90
        5
102
RTVSPost2010Prop44ColorRGB
 90
      255
102
RTVSPost2010PropOp44
 70
     0
102
RTVSPost2010Prop45
280
     0
102
RTVSPost2010PropOp45
 70
     0
102
RTVSPost2010Prop46
 90
       50
102
RTVSPost2010PropOp46
 70
     0
102
RTVSPost2010Prop47
 90
       50
102
RTVSPost2010PropOp47
 70
     0
102
RTVSPost2010Prop48
 90
       50
102
RTVSPost2010PropOp48
 70
     0
102
RTVSPost2010Prop49
280
     0
102
RTVSPost2010PropOp49
 70
     0
102
RTVSPost2010Prop50
 90
       50
102
RTVSPost2010PropOp50
 70
     0
102
RTVSPost2010Prop51ColorIndex
 90
      256
102
RTVSPost2010Prop51ColorRGB
 90
-16777216
102
RTVSPost2010PropOp51
 70
     0
102
RTVSPost2010Prop52
140
1.0
102
RTVSPost2010PropOp52
 70
     0
102
RTVSPost2010Prop53
 90
        2
102
RTVSPost2010PropOp53
 70
     0
102
RTVSPost2010Prop54
  1
strokes_ogs.tif
102
RTVSPost2010PropOp54
 70
     0
102
RTVSPost2010Prop55
280
     0
102
RTVSPost2010PropOp55
 70
     0
102
RTVSPost2010Prop56
140
1.0
102
RTVSPost2010PropOp56
 70
     0
102
RTVSPost2010Prop57
140
1.0
102
RTVSPost2010PropOp57
 70
     0
  0
XRECORD
  5
250
102
{ACAD_REACTORS
330
24F
102
}
330
24F
100
AcDbXrecord
280
     1
102
RTVSPropertyOp0
 70
     1
102
RTVSPropertyOp1
 70
     1
102
RTVSPropertyOp2
 70
     1
102
RTVSPropertyOp3
 70
     1
102
RTVSPropertyOp4
 70
     1
102
RTVSPropertyOp5
 70
     1
102
RTVSPropertyOp6
 70
     1
102
RTVSPropertyOp7
 70
     1
102
RTVSPropertyOp8
 70
     1
102
RTVSPropertyOp9
 70
     1
102
RTVSPropertyOp10
 70
     1
102
RTVSPropertyOp11
 70
     1
102
RTVSPropertyOp12
 70
     1
102
RTVSPropertyOp13
 70
     1
102
RTVSPropertyOp14
 70
     1
102
RTVSPropertyOp15
 70
     1
102
RTVSPropertyOp16
 70
     1
102
RTVSPropertyOp17
 70
     1
102
RTVSPropertyOp18
 70
     1
102
RTVSPropertyOp19
 70
     1
102
RTVSPropertyOp20
 70
     1
102
RTVSPropertyOp21
 70
     1
102
RTVSPropertyOp22
 70
     1
102
RTVSPropertyOp23
 70
     1
102
RTVSPropertyOp24
 70
     1
102
RTVSPropertyOp25
 70
     1
102
RTVSPropertyOp26
 70
     1
102
RTVSPropertyOp27
 70
     1
102
RTVSPropertyOp28
 70
     1
102
RTVSPropertyOp29
 70
     1
102
RTVSPropertyOp30
 70
     1
102
RTVSPropertyOp31
 70
     1
102
RTVSPropertyOp32
 70
     1
102
RTVSPropertyOp33
 70
     1
102
RTVSPropertyOp34
 70
     1
102
RTVSPropertyOp35
 70
     1
102
RTVSPropertyOp36
 70
     1
102
RTVSPropertyOp37
 70
     1
102
RTVSPropertyOp38
 70
     1
102
RTVSPropertyOp39
 70
     1
102
RTVSPropertyOp40
 70
     1
102
RTVSPropertyOp41
 70
     1
102
RTVSPropertyOp42
 70
     1
102
RTVSPropertyOp43
 70
     1
102
RTVSPropertyOp44
 70
     1
102
RTVSPropertyOp45
 70
     1
102
RTVSPropertyOp46
 70
     1
102
RTVSPropertyOp47
 70
     1
102
RTVSPropertyOp48
 70
     1
102
RTVSPropertyOp49
 70
     1
102
RTVSPropertyOp50
 70
     1
102
RTVSPropertyOp51
 70
     0
102
RTVSPropertyOp52
 70
     0
102
RTVSPropertyOp53
 70
     1
102
RTVSPropertyOp54
 70
     1
102
RTVSPropertyOp55
 70
     1
102
RTVSPropertyOp56
 70
     1
102
RTVSPropertyOp57
 70
     1
102
RTVSPost2010Prop28
280
     0
102
RTVSPost2010PropOp28
 70
     1
102
RTVSPost2010Prop29
280
     1
102
RTVSPost2010PropOp29
 70
     1
102
RTVSPost2010Prop30
280
     1
102
RTVSPost2010PropOp30
 70
     1
102
RTVSPost2010Prop31
280
     0
102
RTVSPost2010PropOp31
 70
     1
102
RTVSPost2010Prop32
280
     0
102
RTVSPost2010PropOp32
 70
     1
102
RTVSPost2010Prop33
280
     0
102
RTVSPost2010PropOp33
 70
     1
102
RTVSPost2010Prop34
280
     0
102
RTVSPost2010PropOp34
 70
     1
102
RTVSPost2010Prop35
280
     0
102
RTVSPost2010PropOp35
 70
     1
102
RTVSPost2010Prop36
280
     0
102
RTVSPost2010PropOp36
 70
     1
102
RTVSPost2010Prop37
 90
       50
102
RTVSPost2010PropOp37
 70
     1
102
RTVSPost2010Prop38
140
0.0
102
RTVSPost2010PropOp38
 70
     1
102
RTVSPost2010Prop39
140
1.0
102
RTVSPost2010PropOp39
 70
     1
102
RTVSPost2010Prop40
 90
        0
102
RTVSPost2010PropOp40
 70
     1
102
RTVSPost2010Prop41ColorIndex
 90
      178
102
RTVSPost2010Prop41ColorRGB
 90
        0
102
RTVSPost2010PropOp41
 70
     1
102
RTVSPost2010Prop42
 90
       50
102
RTVSPost2010PropOp42
 70
     1
102
RTVSPost2010Prop43
 90
        3
102
RTVSPost2010PropOp43
 70
     1
102
RTVSPost2010Prop44ColorIndex
 90
        5
102
RTVSPost2010Prop44ColorRGB
 90
      255
102
RTVSPost2010PropOp44
 70
     1
102
RTVSPost2010Prop45
280
     0
102
RTVSPost2010PropOp45
 70
     1
102
RTVSPost2010Prop46
 90
       50
102
RTVSPost2010PropOp46
 70
     1
102
RTVSPost2010Prop47
 90
       50
102
RTVSPost2010PropOp47
 70
     1
102
RTVSPost2010Prop48
 90
       50
102
RTVSPost2010PropOp48
 70
     1
102
RTVSPost2010Prop49
280
     0
102
RTVSPost2010PropOp49
 70
     1
102
RTVSPost2010Prop50
 90
       50
102
RTVSPost2010PropOp50
 70
     1
102
RTVSPost2010Prop51ColorIndex
 90
      256
102
RTVSPost2010Prop51ColorRGB
 90
-16777216
102
RTVSPost2010PropOp51
 70
     0
102
RTVSPost2010Prop52
140
1.0
102
RTVSPost2010PropOp52
 70
     0
102
RTVSPost2010Prop53
 90
        2
102
RTVSPost2010PropOp53
 70
     1
102
RTVSPost2010Prop54
  1
strokes_ogs.tif
102
RTVSPost2010PropOp54
 70
     1
102
RTVSPost2010Prop55
280
     0
102
RTVSPost2010PropOp55
 70
     1
102
RTVSPost2010Prop56
140
1.0
102
RTVSPost2010PropOp56
 70
     1
102
RTVSPost2010Prop57
140
1.0
102
RTVSPost2010PropOp57
 70
     1
  0
XRECORD
  5
234
102
{ACAD_REACTORS
330
233
102
}
330
233
100
AcDbXrecord
280
     1
102
RTVSPropertyOp0
 70
     1
102
RTVSPropertyOp1
 70
     1
102
RTVSPropertyOp2
 70
     1
102
RTVSPropertyOp3
 70
     1
102
RTVSPropertyOp4
 70
     1
102
RTVSPropertyOp5
 70
     1
102
RTVSPropertyOp6
 70
     1
102
RTVSPropertyOp7
 70
     1
102
RTVSPropertyOp8
 70
     1
102
RTVSPropertyOp9
 70
     1
102
RTVSPropertyOp10
 70
     1
102
RTVSPropertyOp11
 70
     1
102
RTVSPropertyOp12
 70
     1
102
RTVSPropertyOp13
 70
     1
102
RTVSPropertyOp14
 70
     1
102
RTVSPropertyOp15
 70
     1
102
RTVSPropertyOp16
 70
     1
102
RTVSPropertyOp17
 70
     1
102
RTVSPropertyOp18
 70
     1
102
RTVSPropertyOp19
 70
     1
102
RTVSPropertyOp20
 70
     1
102
RTVSPropertyOp21
 70
     1
102
RTVSPropertyOp22
 70
     1
102
RTVSPropertyOp23
 70
     1
102
RTVSPropertyOp24
 70
     1
102
RTVSPropertyOp25
 70
     1
102
RTVSPropertyOp26
 70
     1
102
RTVSPropertyOp27
 70
     1
102
RTVSPropertyOp28
 70
     1
102
RTVSPropertyOp29
 70
     1
102
RTVSPropertyOp30
 70
     1
102
RTVSPropertyOp31
 70
     1
102
RTVSPropertyOp32
 70
     1
102
RTVSPropertyOp33
 70
     1
102
RTVSPropertyOp34
 70
     1
102
RTVSPropertyOp35
 70
     1
102
RTVSPropertyOp36
 70
     1
102
RTVSPropertyOp37
 70
     1
102
RTVSPropertyOp38
 70
     1
102
RTVSPropertyOp39
 70
     1
102
RTVSPropertyOp40
 70
     1
102
RTVSPropertyOp41
 70
     1
102
RTVSPropertyOp42
 70
     1
102
RTVSPropertyOp43
 70
     1
102
RTVSPropertyOp44
 70
     1
102
RTVSPropertyOp45
 70
     1
102
RTVSPropertyOp46
 70
     1
102
RTVSPropertyOp47
 70
     1
102
RTVSPropertyOp48
 70
     1
102
RTVSPropertyOp49
 70
     1
102
RTVSPropertyOp50
 70
     1
102
RTVSPropertyOp51
 70
     0
102
RTVSPropertyOp52
 70
     0
102
RTVSPropertyOp53
 70
     1
102
RTVSPropertyOp54
 70
     1
102
RTVSPropertyOp55
 70
     1
102
RTVSPropertyOp56
 70
     1
102
RTVSPropertyOp57
 70
     1
102
RTVSPost2010Prop28
280
     0
102
RTVSPost2010PropOp28
 70
     1
102
RTVSPost2010Prop29
280
     1
102
RTVSPost2010PropOp29
 70
     1
102
RTVSPost2010Prop30
280
     1
102
RTVSPost2010PropOp30
 70
     1
102
RTVSPost2010Prop31
280
     0
102
RTVSPost2010PropOp31
 70
     1
102
RTVSPost2010Prop32
280
     0
102
RTVSPost2010PropOp32
 70
     1
102
RTVSPost2010Prop33
280
     0
102
RTVSPost2010PropOp33
 70
     1
102
RTVSPost2010Prop34
280
     0
102
RTVSPost2010PropOp34
 70
     1
102
RTVSPost2010Prop35
280
     0
102
RTVSPost2010PropOp35
 70
     1
102
RTVSPost2010Prop36
280
     0
102
RTVSPost2010PropOp36
 70
     1
102
RTVSPost2010Prop37
 90
       50
102
RTVSPost2010PropOp37
 70
     1
102
RTVSPost2010Prop38
140
0.0
102
RTVSPost2010PropOp38
 70
     1
102
RTVSPost2010Prop39
140
1.0
102
RTVSPost2010PropOp39
 70
     1
102
RTVSPost2010Prop40
 90
        0
102
RTVSPost2010PropOp40
 70
     1
102
RTVSPost2010Prop41ColorIndex
 90
      178
102
RTVSPost2010Prop41ColorRGB
 90
        0
102
RTVSPost2010PropOp41
 70
     1
102
RTVSPost2010Prop42
 90
       50
102
RTVSPost2010PropOp42
 70
     1
102
RTVSPost2010Prop43
 90
        3
102
RTVSPost2010PropOp43
 70
     1
102
RTVSPost2010Prop44ColorIndex
 90
        5
102
RTVSPost2010Prop44ColorRGB
 90
      255
102
RTVSPost2010PropOp44
 70
     1
102
RTVSPost2010Prop45
280
     0
102
RTVSPost2010PropOp45
 70
     1
102
RTVSPost2010Prop46
 90
       50
102
RTVSPost2010PropOp46
 70
     1
102
RTVSPost2010Prop47
 90
       50
102
RTVSPost2010PropOp47
 70
     1
102
RTVSPost2010Prop48
 90
       50
102
RTVSPost2010PropOp48
 70
     1
102
RTVSPost2010Prop49
280
     0
102
RTVSPost2010PropOp49
 70
     1
102
RTVSPost2010Prop50
 90
       50
102
RTVSPost2010PropOp50
 70
     1
102
RTVSPost2010Prop51ColorIndex
 90
      256
102
RTVSPost2010Prop51ColorRGB
 90
-16777216
102
RTVSPost2010PropOp51
 70
     0
102
RTVSPost2010Prop52
140
1.0
102
RTVSPost2010PropOp52
 70
     0
102
RTVSPost2010Prop53
 90
        2
102
RTVSPost2010PropOp53
 70
     1
102
RTVSPost2010Prop54
  1
strokes_ogs.tif
102
RTVSPost2010PropOp54
 70
     1
102
RTVSPost2010Prop55
280
     0
102
RTVSPost2010PropOp55
 70
     1
102
RTVSPost2010Prop56
140
1.0
102
RTVSPost2010PropOp56
 70
     1
102
RTVSPost2010Prop57
140
1.0
102
RTVSPost2010PropOp57
 70
     1
  0
XRECORD
  5
236
102
{ACAD_REACTORS
330
235
102
}
330
235
100
AcDbXrecord
280
     1
102
RTVSPropertyOp0
 70
     1
102
RTVSPropertyOp1
 70
     1
102
RTVSPropertyOp2
 70
     1
102
RTVSPropertyOp3
 70
     1
102
RTVSPropertyOp4
 70
     1
102
RTVSPropertyOp5
 70
     1
102
RTVSPropertyOp6
 70
     1
102
RTVSPropertyOp7
 70
     1
102
RTVSPropertyOp8
 70
     1
102
RTVSPropertyOp9
 70
     1
102
RTVSPropertyOp10
 70
     1
102
RTVSPropertyOp11
 70
     1
102
RTVSPropertyOp12
 70
     1
102
RTVSPropertyOp13
 70
     1
102
RTVSPropertyOp14
 70
     1
102
RTVSPropertyOp15
 70
     1
102
RTVSPropertyOp16
 70
     1
102
RTVSPropertyOp17
 70
     1
102
RTVSPropertyOp18
 70
     1
102
RTVSPropertyOp19
 70
     1
102
RTVSPropertyOp20
 70
     1
102
RTVSPropertyOp21
 70
     1
102
RTVSPropertyOp22
 70
     1
102
RTVSPropertyOp23
 70
     1
102
RTVSPropertyOp24
 70
     1
102
RTVSPropertyOp25
 70
     1
102
RTVSPropertyOp26
 70
     1
102
RTVSPropertyOp27
 70
     1
102
RTVSPropertyOp28
 70
     1
102
RTVSPropertyOp29
 70
     1
102
RTVSPropertyOp30
 70
     1
102
RTVSPropertyOp31
 70
     1
102
RTVSPropertyOp32
 70
     1
102
RTVSPropertyOp33
 70
     1
102
RTVSPropertyOp34
 70
     1
102
RTVSPropertyOp35
 70
     1
102
RTVSPropertyOp36
 70
     1
102
RTVSPropertyOp37
 70
     1
102
RTVSPropertyOp38
 70
     1
102
RTVSPropertyOp39
 70
     1
102
RTVSPropertyOp40
 70
     1
102
RTVSPropertyOp41
 70
     1
102
RTVSPropertyOp42
 70
     1
102
RTVSPropertyOp43
 70
     1
102
RTVSPropertyOp44
 70
     1
102
RTVSPropertyOp45
 70
     1
102
RTVSPropertyOp46
 70
     1
102
RTVSPropertyOp47
 70
     1
102
RTVSPropertyOp48
 70
     1
102
RTVSPropertyOp49
 70
     1
102
RTVSPropertyOp50
 70
     1
102
RTVSPropertyOp51
 70
     0
102
RTVSPropertyOp52
 70
     0
102
RTVSPropertyOp53
 70
     1
102
RTVSPropertyOp54
 70
     1
102
RTVSPropertyOp55
 70
     1
102
RTVSPropertyOp56
 70
     1
102
RTVSPropertyOp57
 70
     1
102
RTVSPost2010Prop28
280
     0
102
RTVSPost2010PropOp28
 70
     1
102
RTVSPost2010Prop29
280
     1
102
RTVSPost2010PropOp29
 70
     1
102
RTVSPost2010Prop30
280
     1
102
RTVSPost2010PropOp30
 70
     1
102
RTVSPost2010Prop31
280
     0
102
RTVSPost2010PropOp31
 70
     1
102
RTVSPost2010Prop32
280
     0
102
RTVSPost2010PropOp32
 70
     1
102
RTVSPost2010Prop33
280
     0
102
RTVSPost2010PropOp33
 70
     1
102
RTVSPost2010Prop34
280
     0
102
RTVSPost2010PropOp34
 70
     1
102
RTVSPost2010Prop35
280
     0
102
RTVSPost2010PropOp35
 70
     1
102
RTVSPost2010Prop36
280
     0
102
RTVSPost2010PropOp36
 70
     1
102
RTVSPost2010Prop37
 90
       50
102
RTVSPost2010PropOp37
 70
     1
102
RTVSPost2010Prop38
140
0.0
102
RTVSPost2010PropOp38
 70
     1
102
RTVSPost2010Prop39
140
1.0
102
RTVSPost2010PropOp39
 70
     1
102
RTVSPost2010Prop40
 90
        0
102
RTVSPost2010PropOp40
 70
     1
102
RTVSPost2010Prop41ColorIndex
 90
      178
102
RTVSPost2010Prop41ColorRGB
 90
        0
102
RTVSPost2010PropOp41
 70
     1
102
RTVSPost2010Prop42
 90
       50
102
RTVSPost2010PropOp42
 70
     1
102
RTVSPost2010Prop43
 90
        3
102
RTVSPost2010PropOp43
 70
     1
102
RTVSPost2010Prop44ColorIndex
 90
        5
102
RTVSPost2010Prop44ColorRGB
 90
      255
102
RTVSPost2010PropOp44
 70
     1
102
RTVSPost2010Prop45
280
     0
102
RTVSPost2010PropOp45
 70
     1
102
RTVSPost2010Prop46
 90
       50
102
RTVSPost2010PropOp46
 70
     1
102
RTVSPost2010Prop47
 90
       50
102
RTVSPost2010PropOp47
 70
     1
102
RTVSPost2010Prop48
 90
       50
102
RTVSPost2010PropOp48
 70
     1
102
RTVSPost2010Prop49
280
     0
102
RTVSPost2010PropOp49
 70
     1
102
RTVSPost2010Prop50
 90
       50
102
RTVSPost2010PropOp50
 70
     1
102
RTVSPost2010Prop51ColorIndex
 90
      256
102
RTVSPost2010Prop51ColorRGB
 90
-16777216
102
RTVSPost2010PropOp51
 70
     0
102
RTVSPost2010Prop52
140
1.0
102
RTVSPost2010PropOp52
 70
     0
102
RTVSPost2010Prop53
 90
        2
102
RTVSPost2010PropOp53
 70
     1
102
RTVSPost2010Prop54
  1
strokes_ogs.tif
102
RTVSPost2010PropOp54
 70
     1
102
RTVSPost2010Prop55
280
     0
102
RTVSPost2010PropOp55
 70
     1
102
RTVSPost2010Prop56
140
1.0
102
RTVSPost2010PropOp56
 70
     1
102
RTVSPost2010Prop57
140
1.0
102
RTVSPost2010PropOp57
 70
     1
  0
XRECORD
  5
238
102
{ACAD_REACTORS
330
237
102
}
330
237
100
AcDbXrecord
280
     1
102
RTVSPropertyOp0
 70
     1
102
RTVSPropertyOp1
 70
     1
102
RTVSPropertyOp2
 70
     1
102
RTVSPropertyOp3
 70
     1
102
RTVSPropertyOp4
 70
     1
102
RTVSPropertyOp5
 70
     1
102
RTVSPropertyOp6
 70
     1
102
RTVSPropertyOp7
 70
     1
102
RTVSPropertyOp8
 70
     1
102
RTVSPropertyOp9
 70
     1
102
RTVSPropertyOp10
 70
     1
102
RTVSPropertyOp11
 70
     1
102
RTVSPropertyOp12
 70
     1
102
RTVSPropertyOp13
 70
     1
102
RTVSPropertyOp14
 70
     1
102
RTVSPropertyOp15
 70
     1
102
RTVSPropertyOp16
 70
     1
102
RTVSPropertyOp17
 70
     1
102
RTVSPropertyOp18
 70
     1
102
RTVSPropertyOp19
 70
     1
102
RTVSPropertyOp20
 70
     1
102
RTVSPropertyOp21
 70
     1
102
RTVSPropertyOp22
 70
     1
102
RTVSPropertyOp23
 70
     1
102
RTVSPropertyOp24
 70
     1
102
RTVSPropertyOp25
 70
     1
102
RTVSPropertyOp26
 70
     1
102
RTVSPropertyOp27
 70
     1
102
RTVSPropertyOp28
 70
     1
102
RTVSPropertyOp29
 70
     1
102
RTVSPropertyOp30
 70
     1
102
RTVSPropertyOp31
 70
     1
102
RTVSPropertyOp32
 70
     1
102
RTVSPropertyOp33
 70
     1
102
RTVSPropertyOp34
 70
     1
102
RTVSPropertyOp35
 70
     1
102
RTVSPropertyOp36
 70
     1
102
RTVSPropertyOp37
 70
     1
102
RTVSPropertyOp38
 70
     1
102
RTVSPropertyOp39
 70
     1
102
RTVSPropertyOp40
 70
     1
102
RTVSPropertyOp41
 70
     1
102
RTVSPropertyOp42
 70
     1
102
RTVSPropertyOp43
 70
     1
102
RTVSPropertyOp44
 70
     1
102
RTVSPropertyOp45
 70
     1
102
RTVSPropertyOp46
 70
     1
102
RTVSPropertyOp47
 70
     1
102
RTVSPropertyOp48
 70
     1
102
RTVSPropertyOp49
 70
     1
102
RTVSPropertyOp50
 70
     1
102
RTVSPropertyOp51
 70
     0
102
RTVSPropertyOp52
 70
     0
102
RTVSPropertyOp53
 70
     1
102
RTVSPropertyOp54
 70
     1
102
RTVSPropertyOp55
 70
     1
102
RTVSPropertyOp56
 70
     1
102
RTVSPropertyOp57
 70
     1
102
RTVSPost2010Prop28
280
     0
102
RTVSPost2010PropOp28
 70
     1
102
RTVSPost2010Prop29
280
     1
102
RTVSPost2010PropOp29
 70
     1
102
RTVSPost2010Prop30
280
     1
102
RTVSPost2010PropOp30
 70
     1
102
RTVSPost2010Prop31
280
     0
102
RTVSPost2010PropOp31
 70
     1
102
RTVSPost2010Prop32
280
     0
102
RTVSPost2010PropOp32
 70
     1
102
RTVSPost2010Prop33
280
     0
102
RTVSPost2010PropOp33
 70
     1
102
RTVSPost2010Prop34
280
     0
102
RTVSPost2010PropOp34
 70
     1
102
RTVSPost2010Prop35
280
     0
102
RTVSPost2010PropOp35
 70
     1
102
RTVSPost2010Prop36
280
     0
102
RTVSPost2010PropOp36
 70
     1
102
RTVSPost2010Prop37
 90
       50
102
RTVSPost2010PropOp37
 70
     1
102
RTVSPost2010Prop38
140
0.0
102
RTVSPost2010PropOp38
 70
     1
102
RTVSPost2010Prop39
140
1.0
102
RTVSPost2010PropOp39
 70
     1
102
RTVSPost2010Prop40
 90
        0
102
RTVSPost2010PropOp40
 70
     1
102
RTVSPost2010Prop41ColorIndex
 90
      178
102
RTVSPost2010Prop41ColorRGB
 90
        0
102
RTVSPost2010PropOp41
 70
     1
102
RTVSPost2010Prop42
 90
       50
102
RTVSPost2010PropOp42
 70
     1
102
RTVSPost2010Prop43
 90
        3
102
RTVSPost2010PropOp43
 70
     1
102
RTVSPost2010Prop44ColorIndex
 90
        5
102
RTVSPost2010Prop44ColorRGB
 90
      255
102
RTVSPost2010PropOp44
 70
     1
102
RTVSPost2010Prop45
280
     0
102
RTVSPost2010PropOp45
 70
     1
102
RTVSPost2010Prop46
 90
       50
102
RTVSPost2010PropOp46
 70
     1
102
RTVSPost2010Prop47
 90
       50
102
RTVSPost2010PropOp47
 70
     1
102
RTVSPost2010Prop48
 90
       50
102
RTVSPost2010PropOp48
 70
     1
102
RTVSPost2010Prop49
280
     0
102
RTVSPost2010PropOp49
 70
     1
102
RTVSPost2010Prop50
 90
       50
102
RTVSPost2010PropOp50
 70
     1
102
RTVSPost2010Prop51ColorIndex
 90
      256
102
RTVSPost2010Prop51ColorRGB
 90
-16777216
102
RTVSPost2010PropOp51
 70
     0
102
RTVSPost2010Prop52
140
1.0
102
RTVSPost2010PropOp52
 70
     0
102
RTVSPost2010Prop53
 90
        2
102
RTVSPost2010PropOp53
 70
     1
102
RTVSPost2010Prop54
  1
strokes_ogs.tif
102
RTVSPost2010PropOp54
 70
     1
102
RTVSPost2010Prop55
280
     0
102
RTVSPost2010PropOp55
 70
     1
102
RTVSPost2010Prop56
140
1.0
102
RTVSPost2010PropOp56
 70
     1
102
RTVSPost2010Prop57
140
1.0
102
RTVSPost2010PropOp57
 70
     1
  0
XRECORD
  5
23A
102
{ACAD_REACTORS
330
239
102
}
330
239
100
AcDbXrecord
280
     1
102
RTVSPropertyOp0
 70
     1
102
RTVSPropertyOp1
 70
     1
102
RTVSPropertyOp2
 70
     1
102
RTVSPropertyOp3
 70
     1
102
RTVSPropertyOp4
 70
     1
102
RTVSPropertyOp5
 70
     1
102
RTVSPropertyOp6
 70
     1
102
RTVSPropertyOp7
 70
     1
102
RTVSPropertyOp8
 70
     1
102
RTVSPropertyOp9
 70
     1
102
RTVSPropertyOp10
 70
     1
102
RTVSPropertyOp11
 70
     1
102
RTVSPropertyOp12
 70
     1
102
RTVSPropertyOp13
 70
     1
102
RTVSPropertyOp14
 70
     1
102
RTVSPropertyOp15
 70
     1
102
RTVSPropertyOp16
 70
     1
102
RTVSPropertyOp17
 70
     1
102
RTVSPropertyOp18
 70
     1
102
RTVSPropertyOp19
 70
     1
102
RTVSPropertyOp20
 70
     1
102
RTVSPropertyOp21
 70
     1
102
RTVSPropertyOp22
 70
     1
102
RTVSPropertyOp23
 70
     1
102
RTVSPropertyOp24
 70
     1
102
RTVSPropertyOp25
 70
     1
102
RTVSPropertyOp26
 70
     1
102
RTVSPropertyOp27
 70
     1
102
RTVSPropertyOp28
 70
     1
102
RTVSPropertyOp29
 70
     1
102
RTVSPropertyOp30
 70
     1
102
RTVSPropertyOp31
 70
     1
102
RTVSPropertyOp32
 70
     1
102
RTVSPropertyOp33
 70
     1
102
RTVSPropertyOp34
 70
     1
102
RTVSPropertyOp35
 70
     1
102
RTVSPropertyOp36
 70
     1
102
RTVSPropertyOp37
 70
     1
102
RTVSPropertyOp38
 70
     1
102
RTVSPropertyOp39
 70
     1
102
RTVSPropertyOp40
 70
     1
102
RTVSPropertyOp41
 70
     1
102
RTVSPropertyOp42
 70
     1
102
RTVSPropertyOp43
 70
     1
102
RTVSPropertyOp44
 70
     1
102
RTVSPropertyOp45
 70
     1
102
RTVSPropertyOp46
 70
     1
102
RTVSPropertyOp47
 70
     1
102
RTVSPropertyOp48
 70
     1
102
RTVSPropertyOp49
 70
     1
102
RTVSPropertyOp50
 70
     1
102
RTVSPropertyOp51
 70
     0
102
RTVSPropertyOp52
 70
     0
102
RTVSPropertyOp53
 70
     1
102
RTVSPropertyOp54
 70
     1
102
RTVSPropertyOp55
 70
     1
102
RTVSPropertyOp56
 70
     1
102
RTVSPropertyOp57
 70
     1
102
RTVSPost2010Prop28
280
     0
102
RTVSPost2010PropOp28
 70
     1
102
RTVSPost2010Prop29
280
     1
102
RTVSPost2010PropOp29
 70
     1
102
RTVSPost2010Prop30
280
     1
102
RTVSPost2010PropOp30
 70
     1
102
RTVSPost2010Prop31
280
     0
102
RTVSPost2010PropOp31
 70
     1
102
RTVSPost2010Prop32
280
     0
102
RTVSPost2010PropOp32
 70
     1
102
RTVSPost2010Prop33
280
     0
102
RTVSPost2010PropOp33
 70
     1
102
RTVSPost2010Prop34
280
     0
102
RTVSPost2010PropOp34
 70
     1
102
RTVSPost2010Prop35
280
     0
102
RTVSPost2010PropOp35
 70
     1
102
RTVSPost2010Prop36
280
     0
102
RTVSPost2010PropOp36
 70
     1
102
RTVSPost2010Prop37
 90
       50
102
RTVSPost2010PropOp37
 70
     1
102
RTVSPost2010Prop38
140
0.0
102
RTVSPost2010PropOp38
 70
     1
102
RTVSPost2010Prop39
140
1.0
102
RTVSPost2010PropOp39
 70
     1
102
RTVSPost2010Prop40
 90
        0
102
RTVSPost2010PropOp40
 70
     1
102
RTVSPost2010Prop41ColorIndex
 90
      178
102
RTVSPost2010Prop41ColorRGB
 90
        0
102
RTVSPost2010PropOp41
 70
     1
102
RTVSPost2010Prop42
 90
       50
102
RTVSPost2010PropOp42
 70
     1
102
RTVSPost2010Prop43
 90
        3
102
RTVSPost2010PropOp43
 70
     1
102
RTVSPost2010Prop44ColorIndex
 90
        5
102
RTVSPost2010Prop44ColorRGB
 90
      255
102
RTVSPost2010PropOp44
 70
     1
102
RTVSPost2010Prop45
280
     0
102
RTVSPost2010PropOp45
 70
     1
102
RTVSPost2010Prop46
 90
       50
102
RTVSPost2010PropOp46
 70
     1
102
RTVSPost2010Prop47
 90
       50
102
RTVSPost2010PropOp47
 70
     1
102
RTVSPost2010Prop48
 90
       50
102
RTVSPost2010PropOp48
 70
     1
102
RTVSPost2010Prop49
280
     0
102
RTVSPost2010PropOp49
 70
     1
102
RTVSPost2010Prop50
 90
       50
102
RTVSPost2010PropOp50
 70
     1
102
RTVSPost2010Prop51ColorIndex
 90
      256
102
RTVSPost2010Prop51ColorRGB
 90
-16777216
102
RTVSPost2010PropOp51
 70
     0
102
RTVSPost2010Prop52
140
1.0
102
RTVSPost2010PropOp52
 70
     0
102
RTVSPost2010Prop53
 90
        2
102
RTVSPost2010PropOp53
 70
     1
102
RTVSPost2010Prop54
  1
strokes_ogs.tif
102
RTVSPost2010PropOp54
 70
     1
102
RTVSPost2010Prop55
280
     0
102
RTVSPost2010PropOp55
 70
     1
102
RTVSPost2010Prop56
140
1.0
102
RTVSPost2010PropOp56
 70
     1
102
RTVSPost2010Prop57
140
1.0
102
RTVSPost2010PropOp57
 70
     1
  0
XRECORD
  5
240
102
{ACAD_REACTORS
330
23F
102
}
330
23F
100
AcDbXrecord
280
     1
102
RTVSPropertyOp0
 70
     1
102
RTVSPropertyOp1
 70
     1
102
RTVSPropertyOp2
 70
     1
102
RTVSPropertyOp3
 70
     1
102
RTVSPropertyOp4
 70
     1
102
RTVSPropertyOp5
 70
     1
102
RTVSPropertyOp6
 70
     1
102
RTVSPropertyOp7
 70
     1
102
RTVSPropertyOp8
 70
     1
102
RTVSPropertyOp9
 70
     1
102
RTVSPropertyOp10
 70
     1
102
RTVSPropertyOp11
 70
     1
102
RTVSPropertyOp12
 70
     1
102
RTVSPropertyOp13
 70
     1
102
RTVSPropertyOp14
 70
     1
102
RTVSPropertyOp15
 70
     1
102
RTVSPropertyOp16
 70
     1
102
RTVSPropertyOp17
 70
     1
102
RTVSPropertyOp18
 70
     1
102
RTVSPropertyOp19
 70
     1
102
RTVSPropertyOp20
 70
     1
102
RTVSPropertyOp21
 70
     1
102
RTVSPropertyOp22
 70
     1
102
RTVSPropertyOp23
 70
     1
102
RTVSPropertyOp24
 70
     1
102
RTVSPropertyOp25
 70
     1
102
RTVSPropertyOp26
 70
     1
102
RTVSPropertyOp27
 70
     1
102
RTVSPropertyOp28
 70
     1
102
RTVSPropertyOp29
 70
     1
102
RTVSPropertyOp30
 70
     1
102
RTVSPropertyOp31
 70
     1
102
RTVSPropertyOp32
 70
     1
102
RTVSPropertyOp33
 70
     1
102
RTVSPropertyOp34
 70
     1
102
RTVSPropertyOp35
 70
     1
102
RTVSPropertyOp36
 70
     1
102
RTVSPropertyOp37
 70
     1
102
RTVSPropertyOp38
 70
     1
102
RTVSPropertyOp39
 70
     1
102
RTVSPropertyOp40
 70
     1
102
RTVSPropertyOp41
 70
     1
102
RTVSPropertyOp42
 70
     1
102
RTVSPropertyOp43
 70
     1
102
RTVSPropertyOp44
 70
     1
102
RTVSPropertyOp45
 70
     1
102
RTVSPropertyOp46
 70
     1
102
RTVSPropertyOp47
 70
     1
102
RTVSPropertyOp48
 70
     1
102
RTVSPropertyOp49
 70
     1
102
RTVSPropertyOp50
 70
     1
102
RTVSPropertyOp51
 70
     0
102
RTVSPropertyOp52
 70
     0
102
RTVSPropertyOp53
 70
     1
102
RTVSPropertyOp54
 70
     1
102
RTVSPropertyOp55
 70
     1
102
RTVSPropertyOp56
 70
     1
102
RTVSPropertyOp57
 70
     1
102
RTVSPost2010Prop28
280
     0
102
RTVSPost2010PropOp28
 70
     1
102
RTVSPost2010Prop29
280
     1
102
RTVSPost2010PropOp29
 70
     1
102
RTVSPost2010Prop30
280
     1
102
RTVSPost2010PropOp30
 70
     1
102
RTVSPost2010Prop31
280
     0
102
RTVSPost2010PropOp31
 70
     1
102
RTVSPost2010Prop32
280
     0
102
RTVSPost2010PropOp32
 70
     1
102
RTVSPost2010Prop33
280
     0
102
RTVSPost2010PropOp33
 70
     1
102
RTVSPost2010Prop34
280
     0
102
RTVSPost2010PropOp34
 70
     1
102
RTVSPost2010Prop35
280
     0
102
RTVSPost2010PropOp35
 70
     1
102
RTVSPost2010Prop36
280
     0
102
RTVSPost2010PropOp36
 70
     1
102
RTVSPost2010Prop37
 90
       50
102
RTVSPost2010PropOp37
 70
     1
102
RTVSPost2010Prop38
140
0.0
102
RTVSPost2010PropOp38
 70
     1
102
RTVSPost2010Prop39
140
1.0
102
RTVSPost2010PropOp39
 70
     1
102
RTVSPost2010Prop40
 90
        0
102
RTVSPost2010PropOp40
 70
     1
102
RTVSPost2010Prop41ColorIndex
 90
      178
102
RTVSPost2010Prop41ColorRGB
 90
        0
102
RTVSPost2010PropOp41
 70
     1
102
RTVSPost2010Prop42
 90
       50
102
RTVSPost2010PropOp42
 70
     1
102
RTVSPost2010Prop43
 90
        3
102
RTVSPost2010PropOp43
 70
     1
102
RTVSPost2010Prop44ColorIndex
 90
        5
102
RTVSPost2010Prop44ColorRGB
 90
      255
102
RTVSPost2010PropOp44
 70
     1
102
RTVSPost2010Prop45
280
     0
102
RTVSPost2010PropOp45
 70
     1
102
RTVSPost2010Prop46
 90
       50
102
RTVSPost2010PropOp46
 70
     1
102
RTVSPost2010Prop47
 90
       50
102
RTVSPost2010PropOp47
 70
     1
102
RTVSPost2010Prop48
 90
       50
102
RTVSPost2010PropOp48
 70
     1
102
RTVSPost2010Prop49
280
     0
102
RTVSPost2010PropOp49
 70
     1
102
RTVSPost2010Prop50
 90
       50
102
RTVSPost2010PropOp50
 70
     1
102
RTVSPost2010Prop51ColorIndex
 90
      256
102
RTVSPost2010Prop51ColorRGB
 90
-16777216
102
RTVSPost2010PropOp51
 70
     0
102
RTVSPost2010Prop52
140
1.0
102
RTVSPost2010PropOp52
 70
     0
102
RTVSPost2010Prop53
 90
        2
102
RTVSPost2010PropOp53
 70
     1
102
RTVSPost2010Prop54
  1
strokes_ogs.tif
102
RTVSPost2010PropOp54
 70
     1
102
RTVSPost2010Prop55
280
     0
102
RTVSPost2010PropOp55
 70
     1
102
RTVSPost2010Prop56
140
1.0
102
RTVSPost2010PropOp56
 70
     1
102
RTVSPost2010Prop57
140
1.0
102
RTVSPost2010PropOp57
 70
     1
  0
XRECORD
  5
254
102
{ACAD_REACTORS
330
253
102
}
330
253
100
AcDbXrecord
280
     1
102
RTVSPropertyOp0
 70
     0
102
RTVSPropertyOp1
 70
     0
102
RTVSPropertyOp2
 70
     0
102
RTVSPropertyOp3
 70
     0
102
RTVSPropertyOp4
 70
     0
102
RTVSPropertyOp5
 70
     0
102
RTVSPropertyOp6
 70
     0
102
RTVSPropertyOp7
 70
     0
102
RTVSPropertyOp8
 70
     0
102
RTVSPropertyOp9
 70
     0
102
RTVSPropertyOp10
 70
     0
102
RTVSPropertyOp11
 70
     0
102
RTVSPropertyOp12
 70
     0
102
RTVSPropertyOp13
 70
     0
102
RTVSPropertyOp14
 70
     2
102
RTVSPropertyOp15
 70
     0
102
RTVSPropertyOp16
 70
     0
102
RTVSPropertyOp17
 70
     0
102
RTVSPropertyOp18
 70
     0
102
RTVSPropertyOp19
 70
     0
102
RTVSPropertyOp20
 70
     0
102
RTVSPropertyOp21
 70
     0
102
RTVSPropertyOp22
 70
     0
102
RTVSPropertyOp23
 70
     0
102
RTVSPropertyOp24
 70
     0
102
RTVSPropertyOp25
 70
     0
102
RTVSPropertyOp26
 70
     0
102
RTVSPropertyOp27
 70
     0
102
RTVSPropertyOp28
 70
     0
102
RTVSPropertyOp29
 70
     0
102
RTVSPropertyOp30
 70
     0
102
RTVSPropertyOp31
 70
     0
102
RTVSPropertyOp32
 70
     0
102
RTVSPropertyOp33
 70
     0
102
RTVSPropertyOp34
 70
     0
102
RTVSPropertyOp35
 70
     0
102
RTVSPropertyOp36
 70
     0
102
RTVSPropertyOp37
 70
     0
102
RTVSPropertyOp38
 70
     0
102
RTVSPropertyOp39
 70
     0
102
RTVSPropertyOp40
 70
     0
102
RTVSPropertyOp41
 70
     0
102
RTVSPropertyOp42
 70
     0
102
RTVSPropertyOp43
 70
     0
102
RTVSPropertyOp44
 70
     0
102
RTVSPropertyOp45
 70
     0
102
RTVSPropertyOp46
 70
     0
102
RTVSPropertyOp47
 70
     0
102
RTVSPropertyOp48
 70
     0
102
RTVSPropertyOp49
 70
     0
102
RTVSPropertyOp50
 70
     0
102
RTVSPropertyOp51
 70
     0
102
RTVSPropertyOp52
 70
     0
102
RTVSPropertyOp53
 70
     0
102
RTVSPropertyOp54
 70
     0
102
RTVSPropertyOp55
 70
     0
102
RTVSPropertyOp56
 70
     0
102
RTVSPropertyOp57
 70
     0
102
RTVSPost2010Prop28
280
     0
102
RTVSPost2010PropOp28
 70
     0
102
RTVSPost2010Prop29
280
     1
102
RTVSPost2010PropOp29
 70
     0
102
RTVSPost2010Prop30
280
     1
102
RTVSPost2010PropOp30
 70
     0
102
RTVSPost2010Prop31
280
     0
102
RTVSPost2010PropOp31
 70
     0
102
RTVSPost2010Prop32
280
     0
102
RTVSPost2010PropOp32
 70
     0
102
RTVSPost2010Prop33
280
     0
102
RTVSPost2010PropOp33
 70
     0
102
RTVSPost2010Prop34
280
     0
102
RTVSPost2010PropOp34
 70
     0
102
RTVSPost2010Prop35
280
     0
102
RTVSPost2010PropOp35
 70
     0
102
RTVSPost2010Prop36
280
     0
102
RTVSPost2010PropOp36
 70
     0
102
RTVSPost2010Prop37
 90
       50
102
RTVSPost2010PropOp37
 70
     0
102
RTVSPost2010Prop38
140
0.0
102
RTVSPost2010PropOp38
 70
     0
102
RTVSPost2010Prop39
140
1.0
102
RTVSPost2010PropOp39
 70
     0
102
RTVSPost2010Prop40
 90
        0
102
RTVSPost2010PropOp40
 70
     0
102
RTVSPost2010Prop41ColorIndex
 90
      178
102
RTVSPost2010Prop41ColorRGB
 90
        0
102
RTVSPost2010PropOp41
 70
     0
102
RTVSPost2010Prop42
 90
       50
102
RTVSPost2010PropOp42
 70
     0
102
RTVSPost2010Prop43
 90
        3
102
RTVSPost2010PropOp43
 70
     0
102
RTVSPost2010Prop44ColorIndex
 90
        5
102
RTVSPost2010Prop44ColorRGB
 90
      255
102
RTVSPost2010PropOp44
 70
     0
102
RTVSPost2010Prop45
280
     0
102
RTVSPost2010PropOp45
 70
     0
102
RTVSPost2010Prop46
 90
       50
102
RTVSPost2010PropOp46
 70
     0
102
RTVSPost2010Prop47
 90
       50
102
RTVSPost2010PropOp47
 70
     0
102
RTVSPost2010Prop48
 90
       50
102
RTVSPost2010PropOp48
 70
     0
102
RTVSPost2010Prop49
280
     0
102
RTVSPost2010PropOp49
 70
     0
102
RTVSPost2010Prop50
 90
       50
102
RTVSPost2010PropOp50
 70
     0
102
RTVSPost2010Prop51ColorIndex
 90
      256
102
RTVSPost2010Prop51ColorRGB
 90
-16777216
102
RTVSPost2010PropOp51
 70
     0
102
RTVSPost2010Prop52
140
1.0
102
RTVSPost2010PropOp52
 70
     0
102
RTVSPost2010Prop53
 90
        2
102
RTVSPost2010PropOp53
 70
     0
102
RTVSPost2010Prop54
  1
strokes_ogs.tif
102
RTVSPost2010PropOp54
 70
     0
102
RTVSPost2010Prop55
280
     0
102
RTVSPost2010PropOp55
 70
     0
102
RTVSPost2010Prop56
140
1.0
102
RTVSPost2010PropOp56
 70
     0
102
RTVSPost2010Prop57
140
1.0
102
RTVSPost2010PropOp57
 70
     0
  0
XRECORD
  5
24E
102
{ACAD_REACTORS
330
24D
102
}
330
24D
100
AcDbXrecord
280
     1
102
RTVSPropertyOp0
 70
     1
102
RTVSPropertyOp1
 70
     1
102
RTVSPropertyOp2
 70
     1
102
RTVSPropertyOp3
 70
     1
102
RTVSPropertyOp4
 70
     1
102
RTVSPropertyOp5
 70
     1
102
RTVSPropertyOp6
 70
     1
102
RTVSPropertyOp7
 70
     1
102
RTVSPropertyOp8
 70
     1
102
RTVSPropertyOp9
 70
     1
102
RTVSPropertyOp10
 70
     1
102
RTVSPropertyOp11
 70
     1
102
RTVSPropertyOp12
 70
     1
102
RTVSPropertyOp13
 70
     1
102
RTVSPropertyOp14
 70
     1
102
RTVSPropertyOp15
 70
     1
102
RTVSPropertyOp16
 70
     1
102
RTVSPropertyOp17
 70
     1
102
RTVSPropertyOp18
 70
     1
102
RTVSPropertyOp19
 70
     1
102
RTVSPropertyOp20
 70
     1
102
RTVSPropertyOp21
 70
     1
102
RTVSPropertyOp22
 70
     1
102
RTVSPropertyOp23
 70
     1
102
RTVSPropertyOp24
 70
     1
102
RTVSPropertyOp25
 70
     1
102
RTVSPropertyOp26
 70
     1
102
RTVSPropertyOp27
 70
     1
102
RTVSPropertyOp28
 70
     1
102
RTVSPropertyOp29
 70
     1
102
RTVSPropertyOp30
 70
     1
102
RTVSPropertyOp31
 70
     1
102
RTVSPropertyOp32
 70
     1
102
RTVSPropertyOp33
 70
     1
102
RTVSPropertyOp34
 70
     1
102
RTVSPropertyOp35
 70
     1
102
RTVSPropertyOp36
 70
     1
102
RTVSPropertyOp37
 70
     1
102
RTVSPropertyOp38
 70
     1
102
RTVSPropertyOp39
 70
     1
102
RTVSPropertyOp40
 70
     1
102
RTVSPropertyOp41
 70
     1
102
RTVSPropertyOp42
 70
     1
102
RTVSPropertyOp43
 70
     1
102
RTVSPropertyOp44
 70
     1
102
RTVSPropertyOp45
 70
     1
102
RTVSPropertyOp46
 70
     1
102
RTVSPropertyOp47
 70
     1
102
RTVSPropertyOp48
 70
     1
102
RTVSPropertyOp49
 70
     1
102
RTVSPropertyOp50
 70
     1
102
RTVSPropertyOp51
 70
     0
102
RTVSPropertyOp52
 70
     0
102
RTVSPropertyOp53
 70
     1
102
RTVSPropertyOp54
 70
     1
102
RTVSPropertyOp55
 70
     1
102
RTVSPropertyOp56
 70
     1
102
RTVSPropertyOp57
 70
     1
102
RTVSPost2010Prop28
280
     0
102
RTVSPost2010PropOp28
 70
     1
102
RTVSPost2010Prop29
280
     1
102
RTVSPost2010PropOp29
 70
     1
102
RTVSPost2010Prop30
280
     1
102
RTVSPost2010PropOp30
 70
     1
102
RTVSPost2010Prop31
280
     0
102
RTVSPost2010PropOp31
 70
     1
102
RTVSPost2010Prop32
280
     0
102
RTVSPost2010PropOp32
 70
     1
102
RTVSPost2010Prop33
280
     0
102
RTVSPost2010PropOp33
 70
     1
102
RTVSPost2010Prop34
280
     0
102
RTVSPost2010PropOp34
 70
     1
102
RTVSPost2010Prop35
280
     0
102
RTVSPost2010PropOp35
 70
     1
102
RTVSPost2010Prop36
280
     0
102
RTVSPost2010PropOp36
 70
     1
102
RTVSPost2010Prop37
 90
       50
102
RTVSPost2010PropOp37
 70
     1
102
RTVSPost2010Prop38
140
0.0
102
RTVSPost2010PropOp38
 70
     1
102
RTVSPost2010Prop39
140
1.0
102
RTVSPost2010PropOp39
 70
     1
102
RTVSPost2010Prop40
 90
        0
102
RTVSPost2010PropOp40
 70
     1
102
RTVSPost2010Prop41ColorIndex
 90
      178
102
RTVSPost2010Prop41ColorRGB
 90
        0
102
RTVSPost2010PropOp41
 70
     1
102
RTVSPost2010Prop42
 90
       50
102
RTVSPost2010PropOp42
 70
     1
102
RTVSPost2010Prop43
 90
        3
102
RTVSPost2010PropOp43
 70
     1
102
RTVSPost2010Prop44ColorIndex
 90
        5
102
RTVSPost2010Prop44ColorRGB
 90
      255
102
RTVSPost2010PropOp44
 70
     1
102
RTVSPost2010Prop45
280
     0
102
RTVSPost2010PropOp45
 70
     1
102
RTVSPost2010Prop46
 90
       50
102
RTVSPost2010PropOp46
 70
     1
102
RTVSPost2010Prop47
 90
       50
102
RTVSPost2010PropOp47
 70
     1
102
RTVSPost2010Prop48
 90
       50
102
RTVSPost2010PropOp48
 70
     1
102
RTVSPost2010Prop49
280
     0
102
RTVSPost2010PropOp49
 70
     1
102
RTVSPost2010Prop50
 90
       50
102
RTVSPost2010PropOp50
 70
     1
102
RTVSPost2010Prop51ColorIndex
 90
      256
102
RTVSPost2010Prop51ColorRGB
 90
-16777216
102
RTVSPost2010PropOp51
 70
     0
102
RTVSPost2010Prop52
140
1.0
102
RTVSPost2010PropOp52
 70
     0
102
RTVSPost2010Prop53
 90
        2
102
RTVSPost2010PropOp53
 70
     1
102
RTVSPost2010Prop54
  1
strokes_ogs.tif
102
RTVSPost2010PropOp54
 70
     1
102
RTVSPost2010Prop55
280
     0
102
RTVSPost2010PropOp55
 70
     1
102
RTVSPost2010Prop56
140
1.0
102
RTVSPost2010PropOp56
 70
     1
102
RTVSPost2010Prop57
140
1.0
102
RTVSPost2010PropOp57
 70
     1
  0
XRECORD
  5
256
102
{ACAD_REACTORS
330
255
102
}
330
255
100
AcDbXrecord
280
     1
102
RTVSPropertyOp0
 70
     0
102
RTVSPropertyOp1
 70
     0
102
RTVSPropertyOp2
 70
     0
102
RTVSPropertyOp3
 70
     0
102
RTVSPropertyOp4
 70
     0
102
RTVSPropertyOp5
 70
     0
102
RTVSPropertyOp6
 70
     0
102
RTVSPropertyOp7
 70
     0
102
RTVSPropertyOp8
 70
     0
102
RTVSPropertyOp9
 70
     0
102
RTVSPropertyOp10
 70
     0
102
RTVSPropertyOp11
 70
     0
102
RTVSPropertyOp12
 70
     0
102
RTVSPropertyOp13
 70
     0
102
RTVSPropertyOp14
 70
     2
102
RTVSPropertyOp15
 70
     0
102
RTVSPropertyOp16
 70
     0
102
RTVSPropertyOp17
 70
     0
102
RTVSPropertyOp18
 70
     0
102
RTVSPropertyOp19
 70
     0
102
RTVSPropertyOp20
 70
     0
102
RTVSPropertyOp21
 70
     0
102
RTVSPropertyOp22
 70
     0
102
RTVSPropertyOp23
 70
     0
102
RTVSPropertyOp24
 70
     0
102
RTVSPropertyOp25
 70
     0
102
RTVSPropertyOp26
 70
     0
102
RTVSPropertyOp27
 70
     0
102
RTVSPropertyOp28
 70
     0
102
RTVSPropertyOp29
 70
     0
102
RTVSPropertyOp30
 70
     0
102
RTVSPropertyOp31
 70
     0
102
RTVSPropertyOp32
 70
     0
102
RTVSPropertyOp33
 70
     0
102
RTVSPropertyOp34
 70
     0
102
RTVSPropertyOp35
 70
     0
102
RTVSPropertyOp36
 70
     0
102
RTVSPropertyOp37
 70
     0
102
RTVSPropertyOp38
 70
     0
102
RTVSPropertyOp39
 70
     0
102
RTVSPropertyOp40
 70
     0
102
RTVSPropertyOp41
 70
     0
102
RTVSPropertyOp42
 70
     0
102
RTVSPropertyOp43
 70
     0
102
RTVSPropertyOp44
 70
     0
102
RTVSPropertyOp45
 70
     0
102
RTVSPropertyOp46
 70
     0
102
RTVSPropertyOp47
 70
     0
102
RTVSPropertyOp48
 70
     0
102
RTVSPropertyOp49
 70
     0
102
RTVSPropertyOp50
 70
     0
102
RTVSPropertyOp51
 70
     0
102
RTVSPropertyOp52
 70
     0
102
RTVSPropertyOp53
 70
     0
102
RTVSPropertyOp54
 70
     0
102
RTVSPropertyOp55
 70
     0
102
RTVSPropertyOp56
 70
     0
102
RTVSPropertyOp57
 70
     0
102
RTVSPost2010Prop28
280
     0
102
RTVSPost2010PropOp28
 70
     0
102
RTVSPost2010Prop29
280
     1
102
RTVSPost2010PropOp29
 70
     0
102
RTVSPost2010Prop30
280
     1
102
RTVSPost2010PropOp30
 70
     0
102
RTVSPost2010Prop31
280
     0
102
RTVSPost2010PropOp31
 70
     0
102
RTVSPost2010Prop32
280
     0
102
RTVSPost2010PropOp32
 70
     0
102
RTVSPost2010Prop33
280
     0
102
RTVSPost2010PropOp33
 70
     0
102
RTVSPost2010Prop34
280
     0
102
RTVSPost2010PropOp34
 70
     0
102
RTVSPost2010Prop35
280
     0
102
RTVSPost2010PropOp35
 70
     0
102
RTVSPost2010Prop36
280
     0
102
RTVSPost2010PropOp36
 70
     0
102
RTVSPost2010Prop37
 90
       50
102
RTVSPost2010PropOp37
 70
     0
102
RTVSPost2010Prop38
140
0.0
102
RTVSPost2010PropOp38
 70
     0
102
RTVSPost2010Prop39
140
1.0
102
RTVSPost2010PropOp39
 70
     0
102
RTVSPost2010Prop40
 90
        0
102
RTVSPost2010PropOp40
 70
     0
102
RTVSPost2010Prop41ColorIndex
 90
      178
102
RTVSPost2010Prop41ColorRGB
 90
        0
102
RTVSPost2010PropOp41
 70
     0
102
RTVSPost2010Prop42
 90
       50
102
RTVSPost2010PropOp42
 70
     0
102
RTVSPost2010Prop43
 90
        3
102
RTVSPost2010PropOp43
 70
     0
102
RTVSPost2010Prop44ColorIndex
 90
        5
102
RTVSPost2010Prop44ColorRGB
 90
      255
102
RTVSPost2010PropOp44
 70
     0
102
RTVSPost2010Prop45
280
     0
102
RTVSPost2010PropOp45
 70
     0
102
RTVSPost2010Prop46
 90
       50
102
RTVSPost2010PropOp46
 70
     0
102
RTVSPost2010Prop47
 90
       50
102
RTVSPost2010PropOp47
 70
     0
102
RTVSPost2010Prop48
 90
       50
102
RTVSPost2010PropOp48
 70
     0
102
RTVSPost2010Prop49
280
     0
102
RTVSPost2010PropOp49
 70
     0
102
RTVSPost2010Prop50
 90
       50
102
RTVSPost2010PropOp50
 70
     0
102
RTVSPost2010Prop51ColorIndex
 90
      256
102
RTVSPost2010Prop51ColorRGB
 90
-16777216
102
RTVSPost2010PropOp51
 70
     0
102
RTVSPost2010Prop52
140
1.0
102
RTVSPost2010PropOp52
 70
     0
102
RTVSPost2010Prop53
 90
        2
102
RTVSPost2010PropOp53
 70
     0
102
RTVSPost2010Prop54
  1
strokes_ogs.tif
102
RTVSPost2010PropOp54
 70
     0
102
RTVSPost2010Prop55
280
     0
102
RTVSPost2010PropOp55
 70
     0
102
RTVSPost2010Prop56
140
1.0
102
RTVSPost2010PropOp56
 70
     0
102
RTVSPost2010Prop57
140
1.0
102
RTVSPost2010PropOp57
 70
     0
  0
XRECORD
  5
244
102
{ACAD_REACTORS
330
243
102
}
330
243
100
AcDbXrecord
280
     1
102
RTVSPropertyOp0
 70
     1
102
RTVSPropertyOp1
 70
     1
102
RTVSPropertyOp2
 70
     1
102
RTVSPropertyOp3
 70
     1
102
RTVSPropertyOp4
 70
     1
102
RTVSPropertyOp5
 70
     1
102
RTVSPropertyOp6
 70
     1
102
RTVSPropertyOp7
 70
     1
102
RTVSPropertyOp8
 70
     1
102
RTVSPropertyOp9
 70
     1
102
RTVSPropertyOp10
 70
     1
102
RTVSPropertyOp11
 70
     1
102
RTVSPropertyOp12
 70
     1
102
RTVSPropertyOp13
 70
     1
102
RTVSPropertyOp14
 70
     1
102
RTVSPropertyOp15
 70
     1
102
RTVSPropertyOp16
 70
     1
102
RTVSPropertyOp17
 70
     1
102
RTVSPropertyOp18
 70
     1
102
RTVSPropertyOp19
 70
     1
102
RTVSPropertyOp20
 70
     1
102
RTVSPropertyOp21
 70
     1
102
RTVSPropertyOp22
 70
     1
102
RTVSPropertyOp23
 70
     1
102
RTVSPropertyOp24
 70
     1
102
RTVSPropertyOp25
 70
     1
102
RTVSPropertyOp26
 70
     1
102
RTVSPropertyOp27
 70
     1
102
RTVSPropertyOp28
 70
     1
102
RTVSPropertyOp29
 70
     1
102
RTVSPropertyOp30
 70
     1
102
RTVSPropertyOp31
 70
     1
102
RTVSPropertyOp32
 70
     1
102
RTVSPropertyOp33
 70
     1
102
RTVSPropertyOp34
 70
     1
102
RTVSPropertyOp35
 70
     1
102
RTVSPropertyOp36
 70
     1
102
RTVSPropertyOp37
 70
     1
102
RTVSPropertyOp38
 70
     1
102
RTVSPropertyOp39
 70
     1
102
RTVSPropertyOp40
 70
     1
102
RTVSPropertyOp41
 70
     1
102
RTVSPropertyOp42
 70
     1
102
RTVSPropertyOp43
 70
     1
102
RTVSPropertyOp44
 70
     1
102
RTVSPropertyOp45
 70
     1
102
RTVSPropertyOp46
 70
     1
102
RTVSPropertyOp47
 70
     1
102
RTVSPropertyOp48
 70
     1
102
RTVSPropertyOp49
 70
     1
102
RTVSPropertyOp50
 70
     1
102
RTVSPropertyOp51
 70
     0
102
RTVSPropertyOp52
 70
     0
102
RTVSPropertyOp53
 70
     1
102
RTVSPropertyOp54
 70
     1
102
RTVSPropertyOp55
 70
     1
102
RTVSPropertyOp56
 70
     1
102
RTVSPropertyOp57
 70
     1
102
RTVSPost2010Prop28
280
     0
102
RTVSPost2010PropOp28
 70
     1
102
RTVSPost2010Prop29
280
     1
102
RTVSPost2010PropOp29
 70
     1
102
RTVSPost2010Prop30
280
     1
102
RTVSPost2010PropOp30
 70
     1
102
RTVSPost2010Prop31
280
     0
102
RTVSPost2010PropOp31
 70
     1
102
RTVSPost2010Prop32
280
     0
102
RTVSPost2010PropOp32
 70
     1
102
RTVSPost2010Prop33
280
     0
102
RTVSPost2010PropOp33
 70
     1
102
RTVSPost2010Prop34
280
     0
102
RTVSPost2010PropOp34
 70
     1
102
RTVSPost2010Prop35
280
     0
102
RTVSPost2010PropOp35
 70
     1
102
RTVSPost2010Prop36
280
     0
102
RTVSPost2010PropOp36
 70
     1
102
RTVSPost2010Prop37
 90
       50
102
RTVSPost2010PropOp37
 70
     1
102
RTVSPost2010Prop38
140
0.0
102
RTVSPost2010PropOp38
 70
     1
102
RTVSPost2010Prop39
140
1.0
102
RTVSPost2010PropOp39
 70
     1
102
RTVSPost2010Prop40
 90
        0
102
RTVSPost2010PropOp40
 70
     1
102
RTVSPost2010Prop41ColorIndex
 90
      178
102
RTVSPost2010Prop41ColorRGB
 90
        0
102
RTVSPost2010PropOp41
 70
     1
102
RTVSPost2010Prop42
 90
       50
102
RTVSPost2010PropOp42
 70
     1
102
RTVSPost2010Prop43
 90
        3
102
RTVSPost2010PropOp43
 70
     1
102
RTVSPost2010Prop44ColorIndex
 90
        5
102
RTVSPost2010Prop44ColorRGB
 90
      255
102
RTVSPost2010PropOp44
 70
     1
102
RTVSPost2010Prop45
280
     0
102
RTVSPost2010PropOp45
 70
     1
102
RTVSPost2010Prop46
 90
       50
102
RTVSPost2010PropOp46
 70
     1
102
RTVSPost2010Prop47
 90
       50
102
RTVSPost2010PropOp47
 70
     1
102
RTVSPost2010Prop48
 90
       50
102
RTVSPost2010PropOp48
 70
     1
102
RTVSPost2010Prop49
280
     0
102
RTVSPost2010PropOp49
 70
     1
102
RTVSPost2010Prop50
 90
       50
102
RTVSPost2010PropOp50
 70
     1
102
RTVSPost2010Prop51ColorIndex
 90
      256
102
RTVSPost2010Prop51ColorRGB
 90
-16777216
102
RTVSPost2010PropOp51
 70
     0
102
RTVSPost2010Prop52
140
1.0
102
RTVSPost2010PropOp52
 70
     0
102
RTVSPost2010Prop53
 90
        2
102
RTVSPost2010PropOp53
 70
     1
102
RTVSPost2010Prop54
  1
strokes_ogs.tif
102
RTVSPost2010PropOp54
 70
     1
102
RTVSPost2010Prop55
280
     0
102
RTVSPost2010PropOp55
 70
     1
102
RTVSPost2010Prop56
140
1.0
102
RTVSPost2010PropOp56
 70
     1
102
RTVSPost2010Prop57
140
1.0
102
RTVSPost2010PropOp57
 70
     1
  0
XRECORD
  5
262
102
{ACAD_REACTORS
330
261
102
}
330
261
100
AcDbXrecord
280
     1
102
RTVSPropertyOp0
 70
     1
102
RTVSPropertyOp1
 70
     1
102
RTVSPropertyOp2
 70
     1
102
RTVSPropertyOp3
 70
     1
102
RTVSPropertyOp4
 70
     1
102
RTVSPropertyOp5
 70
     1
102
RTVSPropertyOp6
 70
     1
102
RTVSPropertyOp7
 70
     1
102
RTVSPropertyOp8
 70
     1
102
RTVSPropertyOp9
 70
     1
102
RTVSPropertyOp10
 70
     1
102
RTVSPropertyOp11
 70
     1
102
RTVSPropertyOp12
 70
     1
102
RTVSPropertyOp13
 70
     1
102
RTVSPropertyOp14
 70
     1
102
RTVSPropertyOp15
 70
     1
102
RTVSPropertyOp16
 70
     1
102
RTVSPropertyOp17
 70
     1
102
RTVSPropertyOp18
 70
     1
102
RTVSPropertyOp19
 70
     1
102
RTVSPropertyOp20
 70
     1
102
RTVSPropertyOp21
 70
     1
102
RTVSPropertyOp22
 70
     1
102
RTVSPropertyOp23
 70
     1
102
RTVSPropertyOp24
 70
     1
102
RTVSPropertyOp25
 70
     1
102
RTVSPropertyOp26
 70
     1
102
RTVSPropertyOp27
 70
     1
102
RTVSPropertyOp28
 70
     1
102
RTVSPropertyOp29
 70
     1
102
RTVSPropertyOp30
 70
     1
102
RTVSPropertyOp31
 70
     1
102
RTVSPropertyOp32
 70
     1
102
RTVSPropertyOp33
 70
     1
102
RTVSPropertyOp34
 70
     1
102
RTVSPropertyOp35
 70
     1
102
RTVSPropertyOp36
 70
     1
102
RTVSPropertyOp37
 70
     1
102
RTVSPropertyOp38
 70
     1
102
RTVSPropertyOp39
 70
     1
102
RTVSPropertyOp40
 70
     1
102
RTVSPropertyOp41
 70
     1
102
RTVSPropertyOp42
 70
     1
102
RTVSPropertyOp43
 70
     1
102
RTVSPropertyOp44
 70
     1
102
RTVSPropertyOp45
 70
     1
102
RTVSPropertyOp46
 70
     1
102
RTVSPropertyOp47
 70
     1
102
RTVSPropertyOp48
 70
     1
102
RTVSPropertyOp49
 70
     1
102
RTVSPropertyOp50
 70
     1
102
RTVSPropertyOp51
 70
     0
102
RTVSPropertyOp52
 70
     0
102
RTVSPropertyOp53
 70
     1
102
RTVSPropertyOp54
 70
     1
102
RTVSPropertyOp55
 70
     1
102
RTVSPropertyOp56
 70
     1
102
RTVSPropertyOp57
 70
     1
102
RTVSPost2010Prop28
280
     0
102
RTVSPost2010PropOp28
 70
     1
102
RTVSPost2010Prop29
280
     1
102
RTVSPost2010PropOp29
 70
     1
102
RTVSPost2010Prop30
280
     1
102
RTVSPost2010PropOp30
 70
     1
102
RTVSPost2010Prop31
280
     0
102
RTVSPost2010PropOp31
 70
     1
102
RTVSPost2010Prop32
280
     0
102
RTVSPost2010PropOp32
 70
     1
102
RTVSPost2010Prop33
280
     0
102
RTVSPost2010PropOp33
 70
     1
102
RTVSPost2010Prop34
280
     0
102
RTVSPost2010PropOp34
 70
     1
102
RTVSPost2010Prop35
280
     0
102
RTVSPost2010PropOp35
 70
     1
102
RTVSPost2010Prop36
280
     0
102
RTVSPost2010PropOp36
 70
     1
102
RTVSPost2010Prop37
 90
       50
102
RTVSPost2010PropOp37
 70
     1
102
RTVSPost2010Prop38
140
0.0
102
RTVSPost2010PropOp38
 70
     1
102
RTVSPost2010Prop39
140
1.0
102
RTVSPost2010PropOp39
 70
     1
102
RTVSPost2010Prop40
 90
        0
102
RTVSPost2010PropOp40
 70
     1
102
RTVSPost2010Prop41ColorIndex
 90
      178
102
RTVSPost2010Prop41ColorRGB
 90
        0
102
RTVSPost2010PropOp41
 70
     1
102
RTVSPost2010Prop42
 90
       50
102
RTVSPost2010PropOp42
 70
     1
102
RTVSPost2010Prop43
 90
        3
102
RTVSPost2010PropOp43
 70
     1
102
RTVSPost2010Prop44ColorIndex
 90
        5
102
RTVSPost2010Prop44ColorRGB
 90
      255
102
RTVSPost2010PropOp44
 70
     1
102
RTVSPost2010Prop45
280
     0
102
RTVSPost2010PropOp45
 70
     1
102
RTVSPost2010Prop46
 90
       50
102
RTVSPost2010PropOp46
 70
     1
102
RTVSPost2010Prop47
 90
       50
102
RTVSPost2010PropOp47
 70
     1
102
RTVSPost2010Prop48
 90
       50
102
RTVSPost2010PropOp48
 70
     1
102
RTVSPost2010Prop49
280
     0
102
RTVSPost2010PropOp49
 70
     1
102
RTVSPost2010Prop50
 90
       50
102
RTVSPost2010PropOp50
 70
     1
102
RTVSPost2010Prop51ColorIndex
 90
      256
102
RTVSPost2010Prop51ColorRGB
 90
-16777216
102
RTVSPost2010PropOp51
 70
     0
102
RTVSPost2010Prop52
140
1.0
102
RTVSPost2010PropOp52
 70
     0
102
RTVSPost2010Prop53
 90
        2
102
RTVSPost2010PropOp53
 70
     1
102
RTVSPost2010Prop54
  1
strokes_ogs.tif
102
RTVSPost2010PropOp54
 70
     1
102
RTVSPost2010Prop55
280
     0
102
RTVSPost2010PropOp55
 70
     1
102
RTVSPost2010Prop56
140
1.0
102
RTVSPost2010PropOp56
 70
     1
102
RTVSPost2010Prop57
140
1.0
102
RTVSPost2010PropOp57
 70
     1
  0
XRECORD
  5
260
102
{ACAD_REACTORS
330
25F
102
}
330
25F
100
AcDbXrecord
280
     1
102
RTVSPropertyOp0
 70
     1
102
RTVSPropertyOp1
 70
     1
102
RTVSPropertyOp2
 70
     1
102
RTVSPropertyOp3
 70
     1
102
RTVSPropertyOp4
 70
     1
102
RTVSPropertyOp5
 70
     1
102
RTVSPropertyOp6
 70
     1
102
RTVSPropertyOp7
 70
     1
102
RTVSPropertyOp8
 70
     1
102
RTVSPropertyOp9
 70
     1
102
RTVSPropertyOp10
 70
     1
102
RTVSPropertyOp11
 70
     1
102
RTVSPropertyOp12
 70
     1
102
RTVSPropertyOp13
 70
     1
102
RTVSPropertyOp14
 70
     1
102
RTVSPropertyOp15
 70
     1
102
RTVSPropertyOp16
 70
     1
102
RTVSPropertyOp17
 70
     1
102
RTVSPropertyOp18
 70
     1
102
RTVSPropertyOp19
 70
     1
102
RTVSPropertyOp20
 70
     1
102
RTVSPropertyOp21
 70
     1
102
RTVSPropertyOp22
 70
     1
102
RTVSPropertyOp23
 70
     1
102
RTVSPropertyOp24
 70
     1
102
RTVSPropertyOp25
 70
     1
102
RTVSPropertyOp26
 70
     1
102
RTVSPropertyOp27
 70
     1
102
RTVSPropertyOp28
 70
     1
102
RTVSPropertyOp29
 70
     1
102
RTVSPropertyOp30
 70
     1
102
RTVSPropertyOp31
 70
     1
102
RTVSPropertyOp32
 70
     1
102
RTVSPropertyOp33
 70
     1
102
RTVSPropertyOp34
 70
     1
102
RTVSPropertyOp35
 70
     1
102
RTVSPropertyOp36
 70
     1
102
RTVSPropertyOp37
 70
     1
102
RTVSPropertyOp38
 70
     1
102
RTVSPropertyOp39
 70
     1
102
RTVSPropertyOp40
 70
     1
102
RTVSPropertyOp41
 70
     1
102
RTVSPropertyOp42
 70
     1
102
RTVSPropertyOp43
 70
     1
102
RTVSPropertyOp44
 70
     1
102
RTVSPropertyOp45
 70
     1
102
RTVSPropertyOp46
 70
     1
102
RTVSPropertyOp47
 70
     1
102
RTVSPropertyOp48
 70
     1
102
RTVSPropertyOp49
 70
     1
102
RTVSPropertyOp50
 70
     1
102
RTVSPropertyOp51
 70
     0
102
RTVSPropertyOp52
 70
     0
102
RTVSPropertyOp53
 70
     1
102
RTVSPropertyOp54
 70
     1
102
RTVSPropertyOp55
 70
     1
102
RTVSPropertyOp56
 70
     1
102
RTVSPropertyOp57
 70
     1
102
RTVSPost2010Prop28
280
     0
102
RTVSPost2010PropOp28
 70
     1
102
RTVSPost2010Prop29
280
     1
102
RTVSPost2010PropOp29
 70
     1
102
RTVSPost2010Prop30
280
     1
102
RTVSPost2010PropOp30
 70
     1
102
RTVSPost2010Prop31
280
     0
102
RTVSPost2010PropOp31
 70
     1
102
RTVSPost2010Prop32
280
     0
102
RTVSPost2010PropOp32
 70
     1
102
RTVSPost2010Prop33
280
     0
102
RTVSPost2010PropOp33
 70
     1
102
RTVSPost2010Prop34
280
     0
102
RTVSPost2010PropOp34
 70
     1
102
RTVSPost2010Prop35
280
     0
102
RTVSPost2010PropOp35
 70
     1
102
RTVSPost2010Prop36
280
     0
102
RTVSPost2010PropOp36
 70
     1
102
RTVSPost2010Prop37
 90
       50
102
RTVSPost2010PropOp37
 70
     1
102
RTVSPost2010Prop38
140
0.0
102
RTVSPost2010PropOp38
 70
     1
102
RTVSPost2010Prop39
140
1.0
102
RTVSPost2010PropOp39
 70
     1
102
RTVSPost2010Prop40
 90
        0
102
RTVSPost2010PropOp40
 70
     1
102
RTVSPost2010Prop41ColorIndex
 90
      178
102
RTVSPost2010Prop41ColorRGB
 90
        0
102
RTVSPost2010PropOp41
 70
     1
102
RTVSPost2010Prop42
 90
       50
102
RTVSPost2010PropOp42
 70
     1
102
RTVSPost2010Prop43
 90
        3
102
RTVSPost2010PropOp43
 70
     1
102
RTVSPost2010Prop44ColorIndex
 90
        5
102
RTVSPost2010Prop44ColorRGB
 90
      255
102
RTVSPost2010PropOp44
 70
     1
102
RTVSPost2010Prop45
280
     0
102
RTVSPost2010PropOp45
 70
     1
102
RTVSPost2010Prop46
 90
       50
102
RTVSPost2010PropOp46
 70
     1
102
RTVSPost2010Prop47
 90
       50
102
RTVSPost2010PropOp47
 70
     1
102
RTVSPost2010Prop48
 90
       50
102
RTVSPost2010PropOp48
 70
     1
102
RTVSPost2010Prop49
280
     0
102
RTVSPost2010PropOp49
 70
     1
102
RTVSPost2010Prop50
 90
       50
102
RTVSPost2010PropOp50
 70
     1
102
RTVSPost2010Prop51ColorIndex
 90
      256
102
RTVSPost2010Prop51ColorRGB
 90
-16777216
102
RTVSPost2010PropOp51
 70
     0
102
RTVSPost2010Prop52
140
1.0
102
RTVSPost2010PropOp52
 70
     0
102
RTVSPost2010Prop53
 90
        2
102
RTVSPost2010PropOp53
 70
     1
102
RTVSPost2010Prop54
  1
strokes_ogs.tif
102
RTVSPost2010PropOp54
 70
     1
102
RTVSPost2010Prop55
280
     0
102
RTVSPost2010PropOp55
 70
     1
102
RTVSPost2010Prop56
140
1.0
102
RTVSPost2010PropOp56
 70
     1
102
RTVSPost2010Prop57
140
1.0
102
RTVSPost2010PropOp57
 70
     1
  0
XRECORD
  5
25A
102
{ACAD_REACTORS
330
259
102
}
330
259
100
AcDbXrecord
280
     1
102
RTVSPropertyOp0
 70
     1
102
RTVSPropertyOp1
 70
     1
102
RTVSPropertyOp2
 70
     1
102
RTVSPropertyOp3
 70
     1
102
RTVSPropertyOp4
 70
     1
102
RTVSPropertyOp5
 70
     1
102
RTVSPropertyOp6
 70
     1
102
RTVSPropertyOp7
 70
     1
102
RTVSPropertyOp8
 70
     1
102
RTVSPropertyOp9
 70
     1
102
RTVSPropertyOp10
 70
     1
102
RTVSPropertyOp11
 70
     1
102
RTVSPropertyOp12
 70
     1
102
RTVSPropertyOp13
 70
     1
102
RTVSPropertyOp14
 70
     1
102
RTVSPropertyOp15
 70
     1
102
RTVSPropertyOp16
 70
     1
102
RTVSPropertyOp17
 70
     1
102
RTVSPropertyOp18
 70
     1
102
RTVSPropertyOp19
 70
     1
102
RTVSPropertyOp20
 70
     1
102
RTVSPropertyOp21
 70
     1
102
RTVSPropertyOp22
 70
     1
102
RTVSPropertyOp23
 70
     1
102
RTVSPropertyOp24
 70
     1
102
RTVSPropertyOp25
 70
     1
102
RTVSPropertyOp26
 70
     1
102
RTVSPropertyOp27
 70
     1
102
RTVSPropertyOp28
 70
     1
102
RTVSPropertyOp29
 70
     1
102
RTVSPropertyOp30
 70
     1
102
RTVSPropertyOp31
 70
     1
102
RTVSPropertyOp32
 70
     1
102
RTVSPropertyOp33
 70
     1
102
RTVSPropertyOp34
 70
     1
102
RTVSPropertyOp35
 70
     1
102
RTVSPropertyOp36
 70
     1
102
RTVSPropertyOp37
 70
     1
102
RTVSPropertyOp38
 70
     1
102
RTVSPropertyOp39
 70
     1
102
RTVSPropertyOp40
 70
     1
102
RTVSPropertyOp41
 70
     1
102
RTVSPropertyOp42
 70
     1
102
RTVSPropertyOp43
 70
     1
102
RTVSPropertyOp44
 70
     1
102
RTVSPropertyOp45
 70
     1
102
RTVSPropertyOp46
 70
     1
102
RTVSPropertyOp47
 70
     1
102
RTVSPropertyOp48
 70
     1
102
RTVSPropertyOp49
 70
     1
102
RTVSPropertyOp50
 70
     1
102
RTVSPropertyOp51
 70
     0
102
RTVSPropertyOp52
 70
     0
102
RTVSPropertyOp53
 70
     1
102
RTVSPropertyOp54
 70
     1
102
RTVSPropertyOp55
 70
     1
102
RTVSPropertyOp56
 70
     1
102
RTVSPropertyOp57
 70
     1
102
RTVSPost2010Prop28
280
     0
102
RTVSPost2010PropOp28
 70
     1
102
RTVSPost2010Prop29
280
     1
102
RTVSPost2010PropOp29
 70
     1
102
RTVSPost2010Prop30
280
     1
102
RTVSPost2010PropOp30
 70
     1
102
RTVSPost2010Prop31
280
     0
102
RTVSPost2010PropOp31
 70
     1
102
RTVSPost2010Prop32
280
     0
102
RTVSPost2010PropOp32
 70
     1
102
RTVSPost2010Prop33
280
     0
102
RTVSPost2010PropOp33
 70
     1
102
RTVSPost2010Prop34
280
     0
102
RTVSPost2010PropOp34
 70
     1
102
RTVSPost2010Prop35
280
     0
102
RTVSPost2010PropOp35
 70
     1
102
RTVSPost2010Prop36
280
     0
102
RTVSPost2010PropOp36
 70
     1
102
RTVSPost2010Prop37
 90
       50
102
RTVSPost2010PropOp37
 70
     1
102
RTVSPost2010Prop38
140
0.0
102
RTVSPost2010PropOp38
 70
     1
102
RTVSPost2010Prop39
140
1.0
102
RTVSPost2010PropOp39
 70
     1
102
RTVSPost2010Prop40
 90
        0
102
RTVSPost2010PropOp40
 70
     1
102
RTVSPost2010Prop41ColorIndex
 90
      178
102
RTVSPost2010Prop41ColorRGB
 90
        0
102
RTVSPost2010PropOp41
 70
     1
102
RTVSPost2010Prop42
 90
       50
102
RTVSPost2010PropOp42
 70
     1
102
RTVSPost2010Prop43
 90
        3
102
RTVSPost2010PropOp43
 70
     1
102
RTVSPost2010Prop44ColorIndex
 90
        5
102
RTVSPost2010Prop44ColorRGB
 90
      255
102
RTVSPost2010PropOp44
 70
     1
102
RTVSPost2010Prop45
280
     0
102
RTVSPost2010PropOp45
 70
     1
102
RTVSPost2010Prop46
 90
       50
102
RTVSPost2010PropOp46
 70
     1
102
RTVSPost2010Prop47
 90
       50
102
RTVSPost2010PropOp47
 70
     1
102
RTVSPost2010Prop48
 90
       50
102
RTVSPost2010PropOp48
 70
     1
102
RTVSPost2010Prop49
280
     0
102
RTVSPost2010PropOp49
 70
     1
102
RTVSPost2010Prop50
 90
       50
102
RTVSPost2010PropOp50
 70
     1
102
RTVSPost2010Prop51ColorIndex
 90
      256
102
RTVSPost2010Prop51ColorRGB
 90
-16777216
102
RTVSPost2010PropOp51
 70
     0
102
RTVSPost2010Prop52
140
1.0
102
RTVSPost2010PropOp52
 70
     0
102
RTVSPost2010Prop53
 90
        2
102
RTVSPost2010PropOp53
 70
     1
102
RTVSPost2010Prop54
  1
strokes_ogs.tif
102
RTVSPost2010PropOp54
 70
     1
102
RTVSPost2010Prop55
280
     0
102
RTVSPost2010PropOp55
 70
     1
102
RTVSPost2010Prop56
140
1.0
102
RTVSPost2010PropOp56
 70
     1
102
RTVSPost2010Prop57
140
1.0
102
RTVSPost2010PropOp57
 70
     1
  0
XRECORD
  5
25C
102
{ACAD_REACTORS
330
25B
102
}
330
25B
100
AcDbXrecord
280
     1
102
RTVSPropertyOp0
 70
     1
102
RTVSPropertyOp1
 70
     1
102
RTVSPropertyOp2
 70
     1
102
RTVSPropertyOp3
 70
     1
102
RTVSPropertyOp4
 70
     1
102
RTVSPropertyOp5
 70
     1
102
RTVSPropertyOp6
 70
     1
102
RTVSPropertyOp7
 70
     1
102
RTVSPropertyOp8
 70
     1
102
RTVSPropertyOp9
 70
     1
102
RTVSPropertyOp10
 70
     1
102
RTVSPropertyOp11
 70
     1
102
RTVSPropertyOp12
 70
     1
102
RTVSPropertyOp13
 70
     1
102
RTVSPropertyOp14
 70
     1
102
RTVSPropertyOp15
 70
     1
102
RTVSPropertyOp16
 70
     1
102
RTVSPropertyOp17
 70
     1
102
RTVSPropertyOp18
 70
     1
102
RTVSPropertyOp19
 70
     1
102
RTVSPropertyOp20
 70
     1
102
RTVSPropertyOp21
 70
     1
102
RTVSPropertyOp22
 70
     1
102
RTVSPropertyOp23
 70
     1
102
RTVSPropertyOp24
 70
     1
102
RTVSPropertyOp25
 70
     1
102
RTVSPropertyOp26
 70
     1
102
RTVSPropertyOp27
 70
     1
102
RTVSPropertyOp28
 70
     1
102
RTVSPropertyOp29
 70
     1
102
RTVSPropertyOp30
 70
     1
102
RTVSPropertyOp31
 70
     1
102
RTVSPropertyOp32
 70
     1
102
RTVSPropertyOp33
 70
     1
102
RTVSPropertyOp34
 70
     1
102
RTVSPropertyOp35
 70
     1
102
RTVSPropertyOp36
 70
     1
102
RTVSPropertyOp37
 70
     1
102
RTVSPropertyOp38
 70
     1
102
RTVSPropertyOp39
 70
     1
102
RTVSPropertyOp40
 70
     1
102
RTVSPropertyOp41
 70
     1
102
RTVSPropertyOp42
 70
     1
102
RTVSPropertyOp43
 70
     1
102
RTVSPropertyOp44
 70
     1
102
RTVSPropertyOp45
 70
     1
102
RTVSPropertyOp46
 70
     1
102
RTVSPropertyOp47
 70
     1
102
RTVSPropertyOp48
 70
     1
102
RTVSPropertyOp49
 70
     1
102
RTVSPropertyOp50
 70
     1
102
RTVSPropertyOp51
 70
     0
102
RTVSPropertyOp52
 70
     0
102
RTVSPropertyOp53
 70
     1
102
RTVSPropertyOp54
 70
     1
102
RTVSPropertyOp55
 70
     1
102
RTVSPropertyOp56
 70
     1
102
RTVSPropertyOp57
 70
     1
102
RTVSPost2010Prop28
280
     0
102
RTVSPost2010PropOp28
 70
     1
102
RTVSPost2010Prop29
280
     1
102
RTVSPost2010PropOp29
 70
     1
102
RTVSPost2010Prop30
280
     1
102
RTVSPost2010PropOp30
 70
     1
102
RTVSPost2010Prop31
280
     0
102
RTVSPost2010PropOp31
 70
     1
102
RTVSPost2010Prop32
280
     0
102
RTVSPost2010PropOp32
 70
     1
102
RTVSPost2010Prop33
280
     0
102
RTVSPost2010PropOp33
 70
     1
102
RTVSPost2010Prop34
280
     0
102
RTVSPost2010PropOp34
 70
     1
102
RTVSPost2010Prop35
280
     0
102
RTVSPost2010PropOp35
 70
     1
102
RTVSPost2010Prop36
280
     0
102
RTVSPost2010PropOp36
 70
     1
102
RTVSPost2010Prop37
 90
       50
102
RTVSPost2010PropOp37
 70
     1
102
RTVSPost2010Prop38
140
0.0
102
RTVSPost2010PropOp38
 70
     1
102
RTVSPost2010Prop39
140
1.0
102
RTVSPost2010PropOp39
 70
     1
102
RTVSPost2010Prop40
 90
        0
102
RTVSPost2010PropOp40
 70
     1
102
RTVSPost2010Prop41ColorIndex
 90
      178
102
RTVSPost2010Prop41ColorRGB
 90
        0
102
RTVSPost2010PropOp41
 70
     1
102
RTVSPost2010Prop42
 90
       50
102
RTVSPost2010PropOp42
 70
     1
102
RTVSPost2010Prop43
 90
        3
102
RTVSPost2010PropOp43
 70
     1
102
RTVSPost2010Prop44ColorIndex
 90
        5
102
RTVSPost2010Prop44ColorRGB
 90
      255
102
RTVSPost2010PropOp44
 70
     1
102
RTVSPost2010Prop45
280
     0
102
RTVSPost2010PropOp45
 70
     1
102
RTVSPost2010Prop46
 90
       50
102
RTVSPost2010PropOp46
 70
     1
102
RTVSPost2010Prop47
 90
       50
102
RTVSPost2010PropOp47
 70
     1
102
RTVSPost2010Prop48
 90
       50
102
RTVSPost2010PropOp48
 70
     1
102
RTVSPost2010Prop49
280
     0
102
RTVSPost2010PropOp49
 70
     1
102
RTVSPost2010Prop50
 90
       50
102
RTVSPost2010PropOp50
 70
     1
102
RTVSPost2010Prop51ColorIndex
 90
      256
102
RTVSPost2010Prop51ColorRGB
 90
-16777216
102
RTVSPost2010PropOp51
 70
     0
102
RTVSPost2010Prop52
140
1.0
102
RTVSPost2010PropOp52
 70
     0
102
RTVSPost2010Prop53
 90
        2
102
RTVSPost2010PropOp53
 70
     1
102
RTVSPost2010Prop54
  1
strokes_ogs.tif
102
RTVSPost2010PropOp54
 70
     1
102
RTVSPost2010Prop55
280
     0
102
RTVSPost2010PropOp55
 70
     1
102
RTVSPost2010Prop56
140
1.0
102
RTVSPost2010PropOp56
 70
     1
102
RTVSPost2010Prop57
140
1.0
102
RTVSPost2010PropOp57
 70
     1
  0
XRECORD
  5
24C
102
{ACAD_REACTORS
330
24B
102
}
330
24B
100
AcDbXrecord
280
     1
102
RTVSPropertyOp0
 70
     1
102
RTVSPropertyOp1
 70
     1
102
RTVSPropertyOp2
 70
     1
102
RTVSPropertyOp3
 70
     1
102
RTVSPropertyOp4
 70
     1
102
RTVSPropertyOp5
 70
     1
102
RTVSPropertyOp6
 70
     1
102
RTVSPropertyOp7
 70
     1
102
RTVSPropertyOp8
 70
     1
102
RTVSPropertyOp9
 70
     1
102
RTVSPropertyOp10
 70
     1
102
RTVSPropertyOp11
 70
     1
102
RTVSPropertyOp12
 70
     1
102
RTVSPropertyOp13
 70
     1
102
RTVSPropertyOp14
 70
     1
102
RTVSPropertyOp15
 70
     1
102
RTVSPropertyOp16
 70
     1
102
RTVSPropertyOp17
 70
     1
102
RTVSPropertyOp18
 70
     1
102
RTVSPropertyOp19
 70
     1
102
RTVSPropertyOp20
 70
     1
102
RTVSPropertyOp21
 70
     1
102
RTVSPropertyOp22
 70
     1
102
RTVSPropertyOp23
 70
     1
102
RTVSPropertyOp24
 70
     1
102
RTVSPropertyOp25
 70
     1
102
RTVSPropertyOp26
 70
     1
102
RTVSPropertyOp27
 70
     1
102
RTVSPropertyOp28
 70
     1
102
RTVSPropertyOp29
 70
     1
102
RTVSPropertyOp30
 70
     1
102
RTVSPropertyOp31
 70
     1
102
RTVSPropertyOp32
 70
     1
102
RTVSPropertyOp33
 70
     1
102
RTVSPropertyOp34
 70
     1
102
RTVSPropertyOp35
 70
     1
102
RTVSPropertyOp36
 70
     1
102
RTVSPropertyOp37
 70
     1
102
RTVSPropertyOp38
 70
     1
102
RTVSPropertyOp39
 70
     1
102
RTVSPropertyOp40
 70
     1
102
RTVSPropertyOp41
 70
     1
102
RTVSPropertyOp42
 70
     1
102
RTVSPropertyOp43
 70
     1
102
RTVSPropertyOp44
 70
     1
102
RTVSPropertyOp45
 70
     1
102
RTVSPropertyOp46
 70
     1
102
RTVSPropertyOp47
 70
     1
102
RTVSPropertyOp48
 70
     1
102
RTVSPropertyOp49
 70
     1
102
RTVSPropertyOp50
 70
     1
102
RTVSPropertyOp51
 70
     0
102
RTVSPropertyOp52
 70
     0
102
RTVSPropertyOp53
 70
     1
102
RTVSPropertyOp54
 70
     1
102
RTVSPropertyOp55
 70
     1
102
RTVSPropertyOp56
 70
     1
102
RTVSPropertyOp57
 70
     1
102
RTVSPost2010Prop28
280
     0
102
RTVSPost2010PropOp28
 70
     1
102
RTVSPost2010Prop29
280
     1
102
RTVSPost2010PropOp29
 70
     1
102
RTVSPost2010Prop30
280
     1
102
RTVSPost2010PropOp30
 70
     1
102
RTVSPost2010Prop31
280
     0
102
RTVSPost2010PropOp31
 70
     1
102
RTVSPost2010Prop32
280
     0
102
RTVSPost2010PropOp32
 70
     1
102
RTVSPost2010Prop33
280
     0
102
RTVSPost2010PropOp33
 70
     1
102
RTVSPost2010Prop34
280
     0
102
RTVSPost2010PropOp34
 70
     1
102
RTVSPost2010Prop35
280
     0
102
RTVSPost2010PropOp35
 70
     1
102
RTVSPost2010Prop36
280
     0
102
RTVSPost2010PropOp36
 70
     1
102
RTVSPost2010Prop37
 90
       50
102
RTVSPost2010PropOp37
 70
     1
102
RTVSPost2010Prop38
140
0.0
102
RTVSPost2010PropOp38
 70
     1
102
RTVSPost2010Prop39
140
1.0
102
RTVSPost2010PropOp39
 70
     1
102
RTVSPost2010Prop40
 90
        0
102
RTVSPost2010PropOp40
 70
     1
102
RTVSPost2010Prop41ColorIndex
 90
      178
102
RTVSPost2010Prop41ColorRGB
 90
        0
102
RTVSPost2010PropOp41
 70
     1
102
RTVSPost2010Prop42
 90
       50
102
RTVSPost2010PropOp42
 70
     1
102
RTVSPost2010Prop43
 90
        3
102
RTVSPost2010PropOp43
 70
     1
102
RTVSPost2010Prop44ColorIndex
 90
        5
102
RTVSPost2010Prop44ColorRGB
 90
      255
102
RTVSPost2010PropOp44
 70
     1
102
RTVSPost2010Prop45
280
     0
102
RTVSPost2010PropOp45
 70
     1
102
RTVSPost2010Prop46
 90
       50
102
RTVSPost2010PropOp46
 70
     1
102
RTVSPost2010Prop47
 90
       50
102
RTVSPost2010PropOp47
 70
     1
102
RTVSPost2010Prop48
 90
       50
102
RTVSPost2010PropOp48
 70
     1
102
RTVSPost2010Prop49
280
     0
102
RTVSPost2010PropOp49
 70
     1
102
RTVSPost2010Prop50
 90
       50
102
RTVSPost2010PropOp50
 70
     1
102
RTVSPost2010Prop51ColorIndex
 90
      256
102
RTVSPost2010Prop51ColorRGB
 90
-16777216
102
RTVSPost2010PropOp51
 70
     0
102
RTVSPost2010Prop52
140
1.0
102
RTVSPost2010PropOp52
 70
     0
102
RTVSPost2010Prop53
 90
        2
102
RTVSPost2010PropOp53
 70
     1
102
RTVSPost2010Prop54
  1
strokes_ogs.tif
102
RTVSPost2010PropOp54
 70
     1
102
RTVSPost2010Prop55
280
     0
102
RTVSPost2010PropOp55
 70
     1
102
RTVSPost2010Prop56
140
1.0
102
RTVSPost2010PropOp56
 70
     1
102
RTVSPost2010Prop57
140
1.0
102
RTVSPost2010PropOp57
 70
     1
  0
XRECORD
  5
23E
102
{ACAD_REACTORS
330
23D
102
}
330
23D
100
AcDbXrecord
280
     1
102
RTVSPropertyOp0
 70
     1
102
RTVSPropertyOp1
 70
     1
102
RTVSPropertyOp2
 70
     1
102
RTVSPropertyOp3
 70
     1
102
RTVSPropertyOp4
 70
     1
102
RTVSPropertyOp5
 70
     1
102
RTVSPropertyOp6
 70
     1
102
RTVSPropertyOp7
 70
     1
102
RTVSPropertyOp8
 70
     1
102
RTVSPropertyOp9
 70
     1
102
RTVSPropertyOp10
 70
     1
102
RTVSPropertyOp11
 70
     1
102
RTVSPropertyOp12
 70
     1
102
RTVSPropertyOp13
 70
     1
102
RTVSPropertyOp14
 70
     1
102
RTVSPropertyOp15
 70
     1
102
RTVSPropertyOp16
 70
     1
102
RTVSPropertyOp17
 70
     1
102
RTVSPropertyOp18
 70
     1
102
RTVSPropertyOp19
 70
     1
102
RTVSPropertyOp20
 70
     1
102
RTVSPropertyOp21
 70
     1
102
RTVSPropertyOp22
 70
     1
102
RTVSPropertyOp23
 70
     1
102
RTVSPropertyOp24
 70
     1
102
RTVSPropertyOp25
 70
     1
102
RTVSPropertyOp26
 70
     1
102
RTVSPropertyOp27
 70
     1
102
RTVSPropertyOp28
 70
     1
102
RTVSPropertyOp29
 70
     1
102
RTVSPropertyOp30
 70
     1
102
RTVSPropertyOp31
 70
     1
102
RTVSPropertyOp32
 70
     1
102
RTVSPropertyOp33
 70
     1
102
RTVSPropertyOp34
 70
     1
102
RTVSPropertyOp35
 70
     1
102
RTVSPropertyOp36
 70
     1
102
RTVSPropertyOp37
 70
     1
102
RTVSPropertyOp38
 70
     1
102
RTVSPropertyOp39
 70
     1
102
RTVSPropertyOp40
 70
     1
102
RTVSPropertyOp41
 70
     1
102
RTVSPropertyOp42
 70
     1
102
RTVSPropertyOp43
 70
     1
102
RTVSPropertyOp44
 70
     1
102
RTVSPropertyOp45
 70
     1
102
RTVSPropertyOp46
 70
     1
102
RTVSPropertyOp47
 70
     1
102
RTVSPropertyOp48
 70
     1
102
RTVSPropertyOp49
 70
     1
102
RTVSPropertyOp50
 70
     1
102
RTVSPropertyOp51
 70
     0
102
RTVSPropertyOp52
 70
     0
102
RTVSPropertyOp53
 70
     1
102
RTVSPropertyOp54
 70
     1
102
RTVSPropertyOp55
 70
     1
102
RTVSPropertyOp56
 70
     1
102
RTVSPropertyOp57
 70
     1
102
RTVSPost2010Prop28
280
     0
102
RTVSPost2010PropOp28
 70
     1
102
RTVSPost2010Prop29
280
     1
102
RTVSPost2010PropOp29
 70
     1
102
RTVSPost2010Prop30
280
     1
102
RTVSPost2010PropOp30
 70
     1
102
RTVSPost2010Prop31
280
     0
102
RTVSPost2010PropOp31
 70
     1
102
RTVSPost2010Prop32
280
     0
102
RTVSPost2010PropOp32
 70
     1
102
RTVSPost2010Prop33
280
     0
102
RTVSPost2010PropOp33
 70
     1
102
RTVSPost2010Prop34
280
     0
102
RTVSPost2010PropOp34
 70
     1
102
RTVSPost2010Prop35
280
     0
102
RTVSPost2010PropOp35
 70
     1
102
RTVSPost2010Prop36
280
     0
102
RTVSPost2010PropOp36
 70
     1
102
RTVSPost2010Prop37
 90
       50
102
RTVSPost2010PropOp37
 70
     1
102
RTVSPost2010Prop38
140
0.0
102
RTVSPost2010PropOp38
 70
     1
102
RTVSPost2010Prop39
140
1.0
102
RTVSPost2010PropOp39
 70
     1
102
RTVSPost2010Prop40
 90
        0
102
RTVSPost2010PropOp40
 70
     1
102
RTVSPost2010Prop41ColorIndex
 90
      178
102
RTVSPost2010Prop41ColorRGB
 90
        0
102
RTVSPost2010PropOp41
 70
     1
102
RTVSPost2010Prop42
 90
       50
102
RTVSPost2010PropOp42
 70
     1
102
RTVSPost2010Prop43
 90
        3
102
RTVSPost2010PropOp43
 70
     1
102
RTVSPost2010Prop44ColorIndex
 90
        5
102
RTVSPost2010Prop44ColorRGB
 90
      255
102
RTVSPost2010PropOp44
 70
     1
102
RTVSPost2010Prop45
280
     0
102
RTVSPost2010PropOp45
 70
     1
102
RTVSPost2010Prop46
 90
       50
102
RTVSPost2010PropOp46
 70
     1
102
RTVSPost2010Prop47
 90
       50
102
RTVSPost2010PropOp47
 70
     1
102
RTVSPost2010Prop48
 90
       50
102
RTVSPost2010PropOp48
 70
     1
102
RTVSPost2010Prop49
280
     0
102
RTVSPost2010PropOp49
 70
     1
102
RTVSPost2010Prop50
 90
       50
102
RTVSPost2010PropOp50
 70
     1
102
RTVSPost2010Prop51ColorIndex
 90
      256
102
RTVSPost2010Prop51ColorRGB
 90
-16777216
102
RTVSPost2010PropOp51
 70
     0
102
RTVSPost2010Prop52
140
1.0
102
RTVSPost2010PropOp52
 70
     0
102
RTVSPost2010Prop53
 90
        2
102
RTVSPost2010PropOp53
 70
     1
102
RTVSPost2010Prop54
  1
strokes_ogs.tif
102
RTVSPost2010PropOp54
 70
     1
102
RTVSPost2010Prop55
280
     0
102
RTVSPost2010PropOp55
 70
     1
102
RTVSPost2010Prop56
140
1.0
102
RTVSPost2010PropOp56
 70
     1
102
RTVSPost2010Prop57
140
1.0
102
RTVSPost2010PropOp57
 70
     1
  0
XRECORD
  5
25E
102
{ACAD_REACTORS
330
25D
102
}
330
25D
100
AcDbXrecord
280
     1
102
RTVSPropertyOp0
 70
     1
102
RTVSPropertyOp1
 70
     1
102
RTVSPropertyOp2
 70
     1
102
RTVSPropertyOp3
 70
     1
102
RTVSPropertyOp4
 70
     1
102
RTVSPropertyOp5
 70
     1
102
RTVSPropertyOp6
 70
     1
102
RTVSPropertyOp7
 70
     1
102
RTVSPropertyOp8
 70
     1
102
RTVSPropertyOp9
 70
     1
102
RTVSPropertyOp10
 70
     1
102
RTVSPropertyOp11
 70
     1
102
RTVSPropertyOp12
 70
     1
102
RTVSPropertyOp13
 70
     1
102
RTVSPropertyOp14
 70
     1
102
RTVSPropertyOp15
 70
     1
102
RTVSPropertyOp16
 70
     1
102
RTVSPropertyOp17
 70
     1
102
RTVSPropertyOp18
 70
     1
102
RTVSPropertyOp19
 70
     1
102
RTVSPropertyOp20
 70
     1
102
RTVSPropertyOp21
 70
     1
102
RTVSPropertyOp22
 70
     1
102
RTVSPropertyOp23
 70
     1
102
RTVSPropertyOp24
 70
     1
102
RTVSPropertyOp25
 70
     1
102
RTVSPropertyOp26
 70
     1
102
RTVSPropertyOp27
 70
     1
102
RTVSPropertyOp28
 70
     1
102
RTVSPropertyOp29
 70
     1
102
RTVSPropertyOp30
 70
     1
102
RTVSPropertyOp31
 70
     1
102
RTVSPropertyOp32
 70
     1
102
RTVSPropertyOp33
 70
     1
102
RTVSPropertyOp34
 70
     1
102
RTVSPropertyOp35
 70
     1
102
RTVSPropertyOp36
 70
     1
102
RTVSPropertyOp37
 70
     1
102
RTVSPropertyOp38
 70
     1
102
RTVSPropertyOp39
 70
     1
102
RTVSPropertyOp40
 70
     1
102
RTVSPropertyOp41
 70
     1
102
RTVSPropertyOp42
 70
     1
102
RTVSPropertyOp43
 70
     1
102
RTVSPropertyOp44
 70
     1
102
RTVSPropertyOp45
 70
     1
102
RTVSPropertyOp46
 70
     1
102
RTVSPropertyOp47
 70
     1
102
RTVSPropertyOp48
 70
     1
102
RTVSPropertyOp49
 70
     1
102
RTVSPropertyOp50
 70
     1
102
RTVSPropertyOp51
 70
     0
102
RTVSPropertyOp52
 70
     0
102
RTVSPropertyOp53
 70
     1
102
RTVSPropertyOp54
 70
     1
102
RTVSPropertyOp55
 70
     1
102
RTVSPropertyOp56
 70
     1
102
RTVSPropertyOp57
 70
     1
102
RTVSPost2010Prop28
280
     0
102
RTVSPost2010PropOp28
 70
     1
102
RTVSPost2010Prop29
280
     1
102
RTVSPost2010PropOp29
 70
     1
102
RTVSPost2010Prop30
280
     1
102
RTVSPost2010PropOp30
 70
     1
102
RTVSPost2010Prop31
280
     0
102
RTVSPost2010PropOp31
 70
     1
102
RTVSPost2010Prop32
280
     0
102
RTVSPost2010PropOp32
 70
     1
102
RTVSPost2010Prop33
280
     0
102
RTVSPost2010PropOp33
 70
     1
102
RTVSPost2010Prop34
280
     0
102
RTVSPost2010PropOp34
 70
     1
102
RTVSPost2010Prop35
280
     0
102
RTVSPost2010PropOp35
 70
     1
102
RTVSPost2010Prop36
280
     0
102
RTVSPost2010PropOp36
 70
     1
102
RTVSPost2010Prop37
 90
       50
102
RTVSPost2010PropOp37
 70
     1
102
RTVSPost2010Prop38
140
0.0
102
RTVSPost2010PropOp38
 70
     1
102
RTVSPost2010Prop39
140
1.0
102
RTVSPost2010PropOp39
 70
     1
102
RTVSPost2010Prop40
 90
        0
102
RTVSPost2010PropOp40
 70
     1
102
RTVSPost2010Prop41ColorIndex
 90
      178
102
RTVSPost2010Prop41ColorRGB
 90
        0
102
RTVSPost2010PropOp41
 70
     1
102
RTVSPost2010Prop42
 90
       50
102
RTVSPost2010PropOp42
 70
     1
102
RTVSPost2010Prop43
 90
        3
102
RTVSPost2010PropOp43
 70
     1
102
RTVSPost2010Prop44ColorIndex
 90
        5
102
RTVSPost2010Prop44ColorRGB
 90
      255
102
RTVSPost2010PropOp44
 70
     1
102
RTVSPost2010Prop45
280
     0
102
RTVSPost2010PropOp45
 70
     1
102
RTVSPost2010Prop46
 90
       50
102
RTVSPost2010PropOp46
 70
     1
102
RTVSPost2010Prop47
 90
       50
102
RTVSPost2010PropOp47
 70
     1
102
RTVSPost2010Prop48
 90
       50
102
RTVSPost2010PropOp48
 70
     1
102
RTVSPost2010Prop49
280
     0
102
RTVSPost2010PropOp49
 70
     1
102
RTVSPost2010Prop50
 90
       50
102
RTVSPost2010PropOp50
 70
     1
102
RTVSPost2010Prop51ColorIndex
 90
      256
102
RTVSPost2010Prop51ColorRGB
 90
-16777216
102
RTVSPost2010PropOp51
 70
     0
102
RTVSPost2010Prop52
140
1.0
102
RTVSPost2010PropOp52
 70
     0
102
RTVSPost2010Prop53
 90
        2
102
RTVSPost2010PropOp53
 70
     1
102
RTVSPost2010Prop54
  1
strokes_ogs.tif
102
RTVSPost2010PropOp54
 70
     1
102
RTVSPost2010Prop55
280
     0
102
RTVSPost2010PropOp55
 70
     1
102
RTVSPost2010Prop56
140
1.0
102
RTVSPost2010PropOp56
 70
     1
102
RTVSPost2010Prop57
140
1.0
102
RTVSPost2010PropOp57
 70
     1
  0
ENDSEC
  0
EOF
