ISO-10303-21;
HEADER;
/* Generated by software containing ST-Developer
 * from STEP Tools, Inc. (www.steptools.com) 
 */

FILE_DESCRIPTION(
/* description */ (''),
/* implementation_level */ '2;1');

FILE_NAME(
/* name */ 'lidV2.step',
/* time_stamp */ '2025-04-21T23:16:03-04:00',
/* author */ (''),
/* organization */ (''),
/* preprocessor_version */ 'ST-DEVELOPER v20.1',
/* originating_system */ 'Autodesk Translation Framework v14.4.0.0',
/* authorisation */ '');

FILE_SCHEMA (('AUTOMOTIVE_DESIGN { 1 0 10303 214 3 1 1 }'));
ENDSEC;

DATA;
#10=MECHANICAL_DESIGN_GEOMETRIC_PRESENTATION_REPRESENTATION('',(#13),#325);
#11=SHAPE_REPRESENTATION_RELATIONSHIP('SRR','None',#332,#12);
#12=ADVANCED_BREP_SHAPE_REPRESENTATION('',(#14),#324);
#13=STYLED_ITEM('',(#341),#14);
#14=MANIFOLD_SOLID_BREP('Body1',#197);
#15=FACE_BOUND('',#33,.T.);
#16=FACE_OUTER_BOUND('',#27,.T.);
#17=FACE_OUTER_BOUND('',#28,.T.);
#18=FACE_OUTER_BOUND('',#29,.T.);
#19=FACE_OUTER_BOUND('',#30,.T.);
#20=FACE_OUTER_BOUND('',#31,.T.);
#21=FACE_OUTER_BOUND('',#32,.T.);
#22=FACE_OUTER_BOUND('',#34,.T.);
#23=FACE_OUTER_BOUND('',#35,.T.);
#24=FACE_OUTER_BOUND('',#36,.T.);
#25=FACE_OUTER_BOUND('',#37,.T.);
#26=FACE_OUTER_BOUND('',#38,.T.);
#27=EDGE_LOOP('',(#127,#128,#129,#130));
#28=EDGE_LOOP('',(#131,#132,#133,#134));
#29=EDGE_LOOP('',(#135,#136,#137,#138));
#30=EDGE_LOOP('',(#139,#140,#141,#142));
#31=EDGE_LOOP('',(#143,#144,#145,#146));
#32=EDGE_LOOP('',(#147,#148,#149,#150));
#33=EDGE_LOOP('',(#151,#152,#153,#154));
#34=EDGE_LOOP('',(#155,#156,#157,#158));
#35=EDGE_LOOP('',(#159,#160,#161,#162));
#36=EDGE_LOOP('',(#163,#164,#165,#166));
#37=EDGE_LOOP('',(#167,#168,#169,#170));
#38=EDGE_LOOP('',(#171,#172,#173,#174));
#39=LINE('',#274,#63);
#40=LINE('',#276,#64);
#41=LINE('',#278,#65);
#42=LINE('',#279,#66);
#43=LINE('',#282,#67);
#44=LINE('',#284,#68);
#45=LINE('',#285,#69);
#46=LINE('',#288,#70);
#47=LINE('',#290,#71);
#48=LINE('',#291,#72);
#49=LINE('',#293,#73);
#50=LINE('',#294,#74);
#51=LINE('',#299,#75);
#52=LINE('',#301,#76);
#53=LINE('',#303,#77);
#54=LINE('',#304,#78);
#55=LINE('',#308,#79);
#56=LINE('',#310,#80);
#57=LINE('',#312,#81);
#58=LINE('',#313,#82);
#59=LINE('',#315,#83);
#60=LINE('',#316,#84);
#61=LINE('',#318,#85);
#62=LINE('',#320,#86);
#63=VECTOR('',#226,10.);
#64=VECTOR('',#227,10.);
#65=VECTOR('',#228,10.);
#66=VECTOR('',#229,10.);
#67=VECTOR('',#232,10.);
#68=VECTOR('',#233,10.);
#69=VECTOR('',#234,10.);
#70=VECTOR('',#237,10.);
#71=VECTOR('',#238,10.);
#72=VECTOR('',#239,10.);
#73=VECTOR('',#242,10.);
#74=VECTOR('',#243,10.);
#75=VECTOR('',#248,10.);
#76=VECTOR('',#249,10.);
#77=VECTOR('',#250,10.);
#78=VECTOR('',#251,10.);
#79=VECTOR('',#254,10.);
#80=VECTOR('',#255,10.);
#81=VECTOR('',#256,10.);
#82=VECTOR('',#257,10.);
#83=VECTOR('',#260,10.);
#84=VECTOR('',#261,10.);
#85=VECTOR('',#264,10.);
#86=VECTOR('',#267,10.);
#87=VERTEX_POINT('',#272);
#88=VERTEX_POINT('',#273);
#89=VERTEX_POINT('',#275);
#90=VERTEX_POINT('',#277);
#91=VERTEX_POINT('',#281);
#92=VERTEX_POINT('',#283);
#93=VERTEX_POINT('',#287);
#94=VERTEX_POINT('',#289);
#95=VERTEX_POINT('',#297);
#96=VERTEX_POINT('',#298);
#97=VERTEX_POINT('',#300);
#98=VERTEX_POINT('',#302);
#99=VERTEX_POINT('',#306);
#100=VERTEX_POINT('',#307);
#101=VERTEX_POINT('',#309);
#102=VERTEX_POINT('',#311);
#103=EDGE_CURVE('',#87,#88,#39,.T.);
#104=EDGE_CURVE('',#87,#89,#40,.T.);
#105=EDGE_CURVE('',#89,#90,#41,.T.);
#106=EDGE_CURVE('',#88,#90,#42,.T.);
#107=EDGE_CURVE('',#91,#87,#43,.T.);
#108=EDGE_CURVE('',#91,#92,#44,.T.);
#109=EDGE_CURVE('',#92,#89,#45,.T.);
#110=EDGE_CURVE('',#93,#91,#46,.T.);
#111=EDGE_CURVE('',#93,#94,#47,.T.);
#112=EDGE_CURVE('',#94,#92,#48,.T.);
#113=EDGE_CURVE('',#88,#93,#49,.T.);
#114=EDGE_CURVE('',#90,#94,#50,.T.);
#115=EDGE_CURVE('',#95,#96,#51,.T.);
#116=EDGE_CURVE('',#96,#97,#52,.T.);
#117=EDGE_CURVE('',#97,#98,#53,.T.);
#118=EDGE_CURVE('',#98,#95,#54,.T.);
#119=EDGE_CURVE('',#99,#100,#55,.T.);
#120=EDGE_CURVE('',#100,#101,#56,.T.);
#121=EDGE_CURVE('',#101,#102,#57,.T.);
#122=EDGE_CURVE('',#102,#99,#58,.T.);
#123=EDGE_CURVE('',#98,#101,#59,.T.);
#124=EDGE_CURVE('',#95,#100,#60,.T.);
#125=EDGE_CURVE('',#97,#102,#61,.T.);
#126=EDGE_CURVE('',#96,#99,#62,.T.);
#127=ORIENTED_EDGE('',*,*,#103,.F.);
#128=ORIENTED_EDGE('',*,*,#104,.T.);
#129=ORIENTED_EDGE('',*,*,#105,.T.);
#130=ORIENTED_EDGE('',*,*,#106,.F.);
#131=ORIENTED_EDGE('',*,*,#107,.F.);
#132=ORIENTED_EDGE('',*,*,#108,.T.);
#133=ORIENTED_EDGE('',*,*,#109,.T.);
#134=ORIENTED_EDGE('',*,*,#104,.F.);
#135=ORIENTED_EDGE('',*,*,#110,.F.);
#136=ORIENTED_EDGE('',*,*,#111,.T.);
#137=ORIENTED_EDGE('',*,*,#112,.T.);
#138=ORIENTED_EDGE('',*,*,#108,.F.);
#139=ORIENTED_EDGE('',*,*,#113,.F.);
#140=ORIENTED_EDGE('',*,*,#106,.T.);
#141=ORIENTED_EDGE('',*,*,#114,.T.);
#142=ORIENTED_EDGE('',*,*,#111,.F.);
#143=ORIENTED_EDGE('',*,*,#114,.F.);
#144=ORIENTED_EDGE('',*,*,#105,.F.);
#145=ORIENTED_EDGE('',*,*,#109,.F.);
#146=ORIENTED_EDGE('',*,*,#112,.F.);
#147=ORIENTED_EDGE('',*,*,#115,.T.);
#148=ORIENTED_EDGE('',*,*,#116,.T.);
#149=ORIENTED_EDGE('',*,*,#117,.T.);
#150=ORIENTED_EDGE('',*,*,#118,.T.);
#151=ORIENTED_EDGE('',*,*,#103,.T.);
#152=ORIENTED_EDGE('',*,*,#113,.T.);
#153=ORIENTED_EDGE('',*,*,#110,.T.);
#154=ORIENTED_EDGE('',*,*,#107,.T.);
#155=ORIENTED_EDGE('',*,*,#119,.T.);
#156=ORIENTED_EDGE('',*,*,#120,.T.);
#157=ORIENTED_EDGE('',*,*,#121,.T.);
#158=ORIENTED_EDGE('',*,*,#122,.T.);
#159=ORIENTED_EDGE('',*,*,#123,.T.);
#160=ORIENTED_EDGE('',*,*,#120,.F.);
#161=ORIENTED_EDGE('',*,*,#124,.F.);
#162=ORIENTED_EDGE('',*,*,#118,.F.);
#163=ORIENTED_EDGE('',*,*,#125,.T.);
#164=ORIENTED_EDGE('',*,*,#121,.F.);
#165=ORIENTED_EDGE('',*,*,#123,.F.);
#166=ORIENTED_EDGE('',*,*,#117,.F.);
#167=ORIENTED_EDGE('',*,*,#126,.T.);
#168=ORIENTED_EDGE('',*,*,#122,.F.);
#169=ORIENTED_EDGE('',*,*,#125,.F.);
#170=ORIENTED_EDGE('',*,*,#116,.F.);
#171=ORIENTED_EDGE('',*,*,#124,.T.);
#172=ORIENTED_EDGE('',*,*,#119,.F.);
#173=ORIENTED_EDGE('',*,*,#126,.F.);
#174=ORIENTED_EDGE('',*,*,#115,.F.);
#175=PLANE('',#211);
#176=PLANE('',#212);
#177=PLANE('',#213);
#178=PLANE('',#214);
#179=PLANE('',#215);
#180=PLANE('',#216);
#181=PLANE('',#217);
#182=PLANE('',#218);
#183=PLANE('',#219);
#184=PLANE('',#220);
#185=PLANE('',#221);
#186=ADVANCED_FACE('',(#16),#175,.F.);
#187=ADVANCED_FACE('',(#17),#176,.F.);
#188=ADVANCED_FACE('',(#18),#177,.F.);
#189=ADVANCED_FACE('',(#19),#178,.F.);
#190=ADVANCED_FACE('',(#20),#179,.F.);
#191=ADVANCED_FACE('',(#21,#15),#180,.T.);
#192=ADVANCED_FACE('',(#22),#181,.F.);
#193=ADVANCED_FACE('',(#23),#182,.F.);
#194=ADVANCED_FACE('',(#24),#183,.F.);
#195=ADVANCED_FACE('',(#25),#184,.F.);
#196=ADVANCED_FACE('',(#26),#185,.F.);
#197=CLOSED_SHELL('',(#186,#187,#188,#189,#190,#191,#192,#193,#194,#195,
#196));
#198=DERIVED_UNIT_ELEMENT(#200,1.);
#199=DERIVED_UNIT_ELEMENT(#327,-3.);
#200=(
MASS_UNIT()
NAMED_UNIT(*)
SI_UNIT(.KILO.,.GRAM.)
);
#201=DERIVED_UNIT((#198,#199));
#202=MEASURE_REPRESENTATION_ITEM('density measure',
POSITIVE_RATIO_MEASURE(7850.),#201);
#203=PROPERTY_DEFINITION_REPRESENTATION(#208,#205);
#204=PROPERTY_DEFINITION_REPRESENTATION(#209,#206);
#205=REPRESENTATION('material name',(#207),#324);
#206=REPRESENTATION('density',(#202),#324);
#207=DESCRIPTIVE_REPRESENTATION_ITEM('Steel','Steel');
#208=PROPERTY_DEFINITION('material property','material name',#334);
#209=PROPERTY_DEFINITION('material property','density of part',#334);
#210=AXIS2_PLACEMENT_3D('',#270,#222,#223);
#211=AXIS2_PLACEMENT_3D('',#271,#224,#225);
#212=AXIS2_PLACEMENT_3D('',#280,#230,#231);
#213=AXIS2_PLACEMENT_3D('',#286,#235,#236);
#214=AXIS2_PLACEMENT_3D('',#292,#240,#241);
#215=AXIS2_PLACEMENT_3D('',#295,#244,#245);
#216=AXIS2_PLACEMENT_3D('',#296,#246,#247);
#217=AXIS2_PLACEMENT_3D('',#305,#252,#253);
#218=AXIS2_PLACEMENT_3D('',#314,#258,#259);
#219=AXIS2_PLACEMENT_3D('',#317,#262,#263);
#220=AXIS2_PLACEMENT_3D('',#319,#265,#266);
#221=AXIS2_PLACEMENT_3D('',#321,#268,#269);
#222=DIRECTION('axis',(0.,0.,1.));
#223=DIRECTION('refdir',(1.,0.,0.));
#224=DIRECTION('center_axis',(0.,-1.,0.));
#225=DIRECTION('ref_axis',(-1.,0.,0.));
#226=DIRECTION('',(-1.,0.,0.));
#227=DIRECTION('',(0.,0.,-1.));
#228=DIRECTION('',(-1.,0.,0.));
#229=DIRECTION('',(0.,0.,-1.));
#230=DIRECTION('center_axis',(1.,0.,0.));
#231=DIRECTION('ref_axis',(0.,-1.,0.));
#232=DIRECTION('',(0.,-1.,0.));
#233=DIRECTION('',(0.,0.,-1.));
#234=DIRECTION('',(0.,-1.,0.));
#235=DIRECTION('center_axis',(-2.15315980533364E-16,1.,0.));
#236=DIRECTION('ref_axis',(1.,2.15315980533364E-16,0.));
#237=DIRECTION('',(1.,2.15315980533364E-16,0.));
#238=DIRECTION('',(0.,0.,-1.));
#239=DIRECTION('',(1.,2.15315980533364E-16,0.));
#240=DIRECTION('center_axis',(-1.,-6.72862439166762E-18,0.));
#241=DIRECTION('ref_axis',(-6.72862439166762E-18,1.,0.));
#242=DIRECTION('',(-6.72862439166762E-18,1.,0.));
#243=DIRECTION('',(-6.72862439166762E-18,1.,0.));
#244=DIRECTION('center_axis',(0.,0.,-1.));
#245=DIRECTION('ref_axis',(-1.,0.,0.));
#246=DIRECTION('center_axis',(0.,0.,1.));
#247=DIRECTION('ref_axis',(0.,1.,0.));
#248=DIRECTION('',(-1.,0.,0.));
#249=DIRECTION('',(0.,-1.,0.));
#250=DIRECTION('',(1.,0.,0.));
#251=DIRECTION('',(0.,1.,0.));
#252=DIRECTION('center_axis',(0.,0.,1.));
#253=DIRECTION('ref_axis',(0.,1.,0.));
#254=DIRECTION('',(1.,0.,0.));
#255=DIRECTION('',(0.,-1.,0.));
#256=DIRECTION('',(-1.,0.,0.));
#257=DIRECTION('',(0.,1.,0.));
#258=DIRECTION('center_axis',(-1.,0.,0.));
#259=DIRECTION('ref_axis',(0.,0.,1.));
#260=DIRECTION('',(0.,0.,-1.));
#261=DIRECTION('',(0.,0.,-1.));
#262=DIRECTION('center_axis',(0.,1.,0.));
#263=DIRECTION('ref_axis',(0.,0.,-1.));
#264=DIRECTION('',(0.,0.,-1.));
#265=DIRECTION('center_axis',(1.,0.,0.));
#266=DIRECTION('ref_axis',(0.,0.,-1.));
#267=DIRECTION('',(0.,0.,-1.));
#268=DIRECTION('center_axis',(0.,-1.,0.));
#269=DIRECTION('ref_axis',(0.,0.,1.));
#270=CARTESIAN_POINT('',(0.,0.,0.));
#271=CARTESIAN_POINT('Origin',(164.25,2.25,9.));
#272=CARTESIAN_POINT('',(164.25,2.25,9.));
#273=CARTESIAN_POINT('',(-0.750000000000043,2.25000000000001,9.));
#274=CARTESIAN_POINT('',(123.,2.25,9.));
#275=CARTESIAN_POINT('',(164.25,2.25000000000001,3.));
#276=CARTESIAN_POINT('',(164.25,2.25,9.));
#277=CARTESIAN_POINT('',(-0.750000000000043,2.25000000000001,3.));
#278=CARTESIAN_POINT('',(-0.750000000000043,2.25,3.));
#279=CARTESIAN_POINT('',(-0.750000000000043,2.25000000000001,9.));
#280=CARTESIAN_POINT('Origin',(164.25,167.25,9.));
#281=CARTESIAN_POINT('',(164.25,167.25,9.));
#282=CARTESIAN_POINT('',(164.25,126.,9.));
#283=CARTESIAN_POINT('',(164.25,167.25,3.));
#284=CARTESIAN_POINT('',(164.25,167.25,9.));
#285=CARTESIAN_POINT('',(164.25,2.25,3.));
#286=CARTESIAN_POINT('Origin',(-0.750000000000028,167.25,9.));
#287=CARTESIAN_POINT('',(-0.750000000000044,167.25,9.));
#288=CARTESIAN_POINT('',(40.5,167.25,9.));
#289=CARTESIAN_POINT('',(-0.750000000000044,167.25,3.));
#290=CARTESIAN_POINT('',(-0.750000000000044,167.25,9.));
#291=CARTESIAN_POINT('',(164.25,167.25,3.));
#292=CARTESIAN_POINT('Origin',(-0.750000000000043,2.25000000000001,9.));
#293=CARTESIAN_POINT('',(-0.750000000000046,43.5,9.));
#294=CARTESIAN_POINT('',(-0.750000000000044,167.25,3.));
#295=CARTESIAN_POINT('Origin',(81.75,84.75,3.));
#296=CARTESIAN_POINT('Origin',(81.75,84.75,9.));
#297=CARTESIAN_POINT('',(166.5,169.5,9.));
#298=CARTESIAN_POINT('',(-3.00000000000004,169.5,9.));
#299=CARTESIAN_POINT('',(81.75,169.5,9.));
#300=CARTESIAN_POINT('',(-3.00000000000004,0.,9.));
#301=CARTESIAN_POINT('',(-3.00000000000004,84.75,9.));
#302=CARTESIAN_POINT('',(166.5,0.,9.));
#303=CARTESIAN_POINT('',(81.75,0.,9.));
#304=CARTESIAN_POINT('',(166.5,84.75,9.));
#305=CARTESIAN_POINT('Origin',(81.75,84.75,0.));
#306=CARTESIAN_POINT('',(-3.00000000000004,169.5,0.));
#307=CARTESIAN_POINT('',(166.5,169.5,0.));
#308=CARTESIAN_POINT('',(81.75,169.5,0.));
#309=CARTESIAN_POINT('',(166.5,0.,0.));
#310=CARTESIAN_POINT('',(166.5,84.75,0.));
#311=CARTESIAN_POINT('',(-3.00000000000004,0.,0.));
#312=CARTESIAN_POINT('',(81.75,0.,0.));
#313=CARTESIAN_POINT('',(-3.00000000000004,84.75,0.));
#314=CARTESIAN_POINT('Origin',(166.5,84.75,4.5));
#315=CARTESIAN_POINT('',(166.5,0.,4.5));
#316=CARTESIAN_POINT('',(166.5,169.5,4.5));
#317=CARTESIAN_POINT('Origin',(81.75,0.,4.5));
#318=CARTESIAN_POINT('',(-3.00000000000004,0.,4.5));
#319=CARTESIAN_POINT('Origin',(-3.00000000000004,84.75,4.5));
#320=CARTESIAN_POINT('',(-3.00000000000004,169.5,4.5));
#321=CARTESIAN_POINT('Origin',(81.75,169.5,4.5));
#322=UNCERTAINTY_MEASURE_WITH_UNIT(LENGTH_MEASURE(0.01),#326,
'DISTANCE_ACCURACY_VALUE',
'Maximum model space distance between geometric entities at asserted c
onnectivities');
#323=UNCERTAINTY_MEASURE_WITH_UNIT(LENGTH_MEASURE(0.01),#326,
'DISTANCE_ACCURACY_VALUE',
'Maximum model space distance between geometric entities at asserted c
onnectivities');
#324=(
GEOMETRIC_REPRESENTATION_CONTEXT(3)
GLOBAL_UNCERTAINTY_ASSIGNED_CONTEXT((#322))
GLOBAL_UNIT_ASSIGNED_CONTEXT((#326,#328,#329))
REPRESENTATION_CONTEXT('','3D')
);
#325=(
GEOMETRIC_REPRESENTATION_CONTEXT(3)
GLOBAL_UNCERTAINTY_ASSIGNED_CONTEXT((#323))
GLOBAL_UNIT_ASSIGNED_CONTEXT((#326,#328,#329))
REPRESENTATION_CONTEXT('','3D')
);
#326=(
LENGTH_UNIT()
NAMED_UNIT(*)
SI_UNIT(.MILLI.,.METRE.)
);
#327=(
LENGTH_UNIT()
NAMED_UNIT(*)
SI_UNIT($,.METRE.)
);
#328=(
NAMED_UNIT(*)
PLANE_ANGLE_UNIT()
SI_UNIT($,.RADIAN.)
);
#329=(
NAMED_UNIT(*)
SI_UNIT($,.STERADIAN.)
SOLID_ANGLE_UNIT()
);
#330=SHAPE_DEFINITION_REPRESENTATION(#331,#332);
#331=PRODUCT_DEFINITION_SHAPE('',$,#334);
#332=SHAPE_REPRESENTATION('',(#210),#324);
#333=PRODUCT_DEFINITION_CONTEXT('part definition',#338,'design');
#334=PRODUCT_DEFINITION('lid','lid v1',#335,#333);
#335=PRODUCT_DEFINITION_FORMATION('',$,#340);
#336=PRODUCT_RELATED_PRODUCT_CATEGORY('lid v1','lid v1',(#340));
#337=APPLICATION_PROTOCOL_DEFINITION('international standard',
'automotive_design',2009,#338);
#338=APPLICATION_CONTEXT(
'Core Data for Automotive Mechanical Design Process');
#339=PRODUCT_CONTEXT('part definition',#338,'mechanical');
#340=PRODUCT('lid','lid v1',$,(#339));
#341=PRESENTATION_STYLE_ASSIGNMENT((#342));
#342=SURFACE_STYLE_USAGE(.BOTH.,#343);
#343=SURFACE_SIDE_STYLE('',(#344));
#344=SURFACE_STYLE_FILL_AREA(#345);
#345=FILL_AREA_STYLE('Steel - Satin',(#346));
#346=FILL_AREA_STYLE_COLOUR('Steel - Satin',#347);
#347=COLOUR_RGB('Steel - Satin',0.627450980392157,0.627450980392157,0.627450980392157);
ENDSEC;
END-ISO-10303-21;
