ISO-10303-21;
HEADER;
/* Generated by software containing ST-Developer
 * from STEP Tools, Inc. (www.steptools.com) 
 */

FILE_DESCRIPTION(
/* description */ (''),
/* implementation_level */ '2;1');

FILE_NAME(
/* name */ 'hinge2.step',
/* time_stamp */ '2025-10-15T18:35:09-04:00',
/* author */ (''),
/* organization */ (''),
/* preprocessor_version */ 'ST-DEVELOPER v20.1',
/* originating_system */ 'Autodesk Translation Framework v14.10.0.0',
/* authorisation */ '');

FILE_SCHEMA (('AUTOMOTIVE_DESIGN { 1 0 10303 214 3 1 1 }'));
ENDSEC;

DATA;
#10=MECHANICAL_DESIGN_GEOMETRIC_PRESENTATION_REPRESENTATION('',(#13),#481);
#11=SHAPE_REPRESENTATION_RELATIONSHIP('SRR','None',#491,#12);
#12=ADVANCED_BREP_SHAPE_REPRESENTATION('',(#14),#480);
#13=STYLED_ITEM('',(#500),#14);
#14=MANIFOLD_SOLID_BREP('tube',#281);
#15=FACE_BOUND('',#54,.T.);
#16=FACE_BOUND('',#55,.T.);
#17=FACE_BOUND('',#56,.T.);
#18=FACE_BOUND('',#57,.T.);
#19=FACE_BOUND('',#59,.T.);
#20=FACE_BOUND('',#60,.T.);
#21=FACE_BOUND('',#61,.T.);
#22=FACE_BOUND('',#62,.T.);
#23=FACE_BOUND('',#64,.T.);
#24=FACE_BOUND('',#68,.T.);
#25=CYLINDRICAL_SURFACE('',#297,0.075);
#26=CYLINDRICAL_SURFACE('',#300,0.075);
#27=CYLINDRICAL_SURFACE('',#303,0.075);
#28=CYLINDRICAL_SURFACE('',#306,0.075);
#29=CYLINDRICAL_SURFACE('',#318,0.2065);
#30=CYLINDRICAL_SURFACE('',#320,0.3065);
#31=FACE_OUTER_BOUND('',#45,.T.);
#32=FACE_OUTER_BOUND('',#46,.T.);
#33=FACE_OUTER_BOUND('',#47,.T.);
#34=FACE_OUTER_BOUND('',#48,.T.);
#35=FACE_OUTER_BOUND('',#49,.T.);
#36=FACE_OUTER_BOUND('',#50,.T.);
#37=FACE_OUTER_BOUND('',#51,.T.);
#38=FACE_OUTER_BOUND('',#52,.T.);
#39=FACE_OUTER_BOUND('',#53,.T.);
#40=FACE_OUTER_BOUND('',#58,.T.);
#41=FACE_OUTER_BOUND('',#63,.T.);
#42=FACE_OUTER_BOUND('',#65,.T.);
#43=FACE_OUTER_BOUND('',#66,.T.);
#44=FACE_OUTER_BOUND('',#67,.T.);
#45=EDGE_LOOP('',(#187,#188,#189,#190,#191,#192));
#46=EDGE_LOOP('',(#193,#194,#195,#196));
#47=EDGE_LOOP('',(#197,#198,#199,#200));
#48=EDGE_LOOP('',(#201,#202,#203,#204));
#49=EDGE_LOOP('',(#205,#206,#207,#208));
#50=EDGE_LOOP('',(#209,#210,#211,#212));
#51=EDGE_LOOP('',(#213,#214,#215,#216));
#52=EDGE_LOOP('',(#217,#218,#219,#220));
#53=EDGE_LOOP('',(#221,#222,#223,#224,#225,#226,#227,#228));
#54=EDGE_LOOP('',(#229));
#55=EDGE_LOOP('',(#230));
#56=EDGE_LOOP('',(#231));
#57=EDGE_LOOP('',(#232));
#58=EDGE_LOOP('',(#233,#234,#235,#236));
#59=EDGE_LOOP('',(#237));
#60=EDGE_LOOP('',(#238));
#61=EDGE_LOOP('',(#239));
#62=EDGE_LOOP('',(#240));
#63=EDGE_LOOP('',(#241,#242,#243));
#64=EDGE_LOOP('',(#244));
#65=EDGE_LOOP('',(#245,#246,#247,#248));
#66=EDGE_LOOP('',(#249,#250,#251,#252,#253,#254,#255,#256));
#67=EDGE_LOOP('',(#257));
#68=EDGE_LOOP('',(#258));
#69=LINE('',#409,#91);
#70=LINE('',#411,#92);
#71=LINE('',#413,#93);
#72=LINE('',#415,#94);
#73=LINE('',#416,#95);
#74=LINE('',#421,#96);
#75=LINE('',#427,#97);
#76=LINE('',#433,#98);
#77=LINE('',#439,#99);
#78=LINE('',#443,#100);
#79=LINE('',#445,#101);
#80=LINE('',#446,#102);
#81=LINE('',#449,#103);
#82=LINE('',#451,#104);
#83=LINE('',#452,#105);
#84=LINE('',#454,#106);
#85=LINE('',#455,#107);
#86=LINE('',#458,#108);
#87=LINE('',#460,#109);
#88=LINE('',#461,#110);
#89=LINE('',#471,#111);
#90=LINE('',#476,#112);
#91=VECTOR('',#329,0.393700787401575);
#92=VECTOR('',#330,0.393700787401575);
#93=VECTOR('',#331,0.393700787401575);
#94=VECTOR('',#332,0.393700787401575);
#95=VECTOR('',#333,0.393700787401575);
#96=VECTOR('',#338,0.075);
#97=VECTOR('',#345,0.075);
#98=VECTOR('',#352,0.075);
#99=VECTOR('',#359,0.075);
#100=VECTOR('',#364,0.393700787401575);
#101=VECTOR('',#365,0.393700787401575);
#102=VECTOR('',#366,0.393700787401575);
#103=VECTOR('',#369,0.393700787401575);
#104=VECTOR('',#370,0.393700787401575);
#105=VECTOR('',#371,0.393700787401575);
#106=VECTOR('',#374,0.393700787401575);
#107=VECTOR('',#375,0.393700787401575);
#108=VECTOR('',#378,0.393700787401575);
#109=VECTOR('',#379,0.393700787401575);
#110=VECTOR('',#380,0.393700787401575);
#111=VECTOR('',#393,0.2065);
#112=VECTOR('',#400,0.3065);
#113=CIRCLE('',#296,0.3065);
#114=CIRCLE('',#298,0.075);
#115=CIRCLE('',#299,0.075);
#116=CIRCLE('',#301,0.075);
#117=CIRCLE('',#302,0.075);
#118=CIRCLE('',#304,0.075);
#119=CIRCLE('',#305,0.075);
#120=CIRCLE('',#307,0.075);
#121=CIRCLE('',#308,0.075);
#122=CIRCLE('',#315,0.3065);
#123=CIRCLE('',#316,0.3065);
#124=CIRCLE('',#317,0.2065);
#125=CIRCLE('',#319,0.2065);
#126=CIRCLE('',#321,0.3065);
#127=VERTEX_POINT('',#405);
#128=VERTEX_POINT('',#406);
#129=VERTEX_POINT('',#408);
#130=VERTEX_POINT('',#410);
#131=VERTEX_POINT('',#412);
#132=VERTEX_POINT('',#414);
#133=VERTEX_POINT('',#418);
#134=VERTEX_POINT('',#420);
#135=VERTEX_POINT('',#424);
#136=VERTEX_POINT('',#426);
#137=VERTEX_POINT('',#430);
#138=VERTEX_POINT('',#432);
#139=VERTEX_POINT('',#436);
#140=VERTEX_POINT('',#438);
#141=VERTEX_POINT('',#442);
#142=VERTEX_POINT('',#444);
#143=VERTEX_POINT('',#448);
#144=VERTEX_POINT('',#450);
#145=VERTEX_POINT('',#457);
#146=VERTEX_POINT('',#459);
#147=VERTEX_POINT('',#464);
#148=VERTEX_POINT('',#467);
#149=VERTEX_POINT('',#470);
#150=VERTEX_POINT('',#474);
#151=EDGE_CURVE('',#127,#128,#113,.T.);
#152=EDGE_CURVE('',#129,#127,#69,.T.);
#153=EDGE_CURVE('',#130,#129,#70,.T.);
#154=EDGE_CURVE('',#131,#130,#71,.T.);
#155=EDGE_CURVE('',#131,#132,#72,.T.);
#156=EDGE_CURVE('',#128,#132,#73,.T.);
#157=EDGE_CURVE('',#133,#133,#114,.T.);
#158=EDGE_CURVE('',#133,#134,#74,.T.);
#159=EDGE_CURVE('',#134,#134,#115,.T.);
#160=EDGE_CURVE('',#135,#135,#116,.T.);
#161=EDGE_CURVE('',#135,#136,#75,.T.);
#162=EDGE_CURVE('',#136,#136,#117,.T.);
#163=EDGE_CURVE('',#137,#137,#118,.T.);
#164=EDGE_CURVE('',#137,#138,#76,.T.);
#165=EDGE_CURVE('',#138,#138,#119,.T.);
#166=EDGE_CURVE('',#139,#139,#120,.T.);
#167=EDGE_CURVE('',#139,#140,#77,.T.);
#168=EDGE_CURVE('',#140,#140,#121,.T.);
#169=EDGE_CURVE('',#141,#131,#78,.T.);
#170=EDGE_CURVE('',#141,#142,#79,.T.);
#171=EDGE_CURVE('',#132,#142,#80,.T.);
#172=EDGE_CURVE('',#130,#143,#81,.T.);
#173=EDGE_CURVE('',#144,#129,#82,.T.);
#174=EDGE_CURVE('',#143,#144,#83,.T.);
#175=EDGE_CURVE('',#143,#141,#84,.T.);
#176=EDGE_CURVE('',#142,#144,#85,.T.);
#177=EDGE_CURVE('',#128,#145,#86,.T.);
#178=EDGE_CURVE('',#146,#127,#87,.T.);
#179=EDGE_CURVE('',#145,#146,#88,.T.);
#180=EDGE_CURVE('',#147,#146,#122,.T.);
#181=EDGE_CURVE('',#145,#147,#123,.T.);
#182=EDGE_CURVE('',#148,#148,#124,.T.);
#183=EDGE_CURVE('',#148,#149,#89,.T.);
#184=EDGE_CURVE('',#149,#149,#125,.T.);
#185=EDGE_CURVE('',#150,#150,#126,.T.);
#186=EDGE_CURVE('',#150,#147,#90,.T.);
#187=ORIENTED_EDGE('',*,*,#151,.F.);
#188=ORIENTED_EDGE('',*,*,#152,.F.);
#189=ORIENTED_EDGE('',*,*,#153,.F.);
#190=ORIENTED_EDGE('',*,*,#154,.F.);
#191=ORIENTED_EDGE('',*,*,#155,.T.);
#192=ORIENTED_EDGE('',*,*,#156,.F.);
#193=ORIENTED_EDGE('',*,*,#157,.F.);
#194=ORIENTED_EDGE('',*,*,#158,.T.);
#195=ORIENTED_EDGE('',*,*,#159,.T.);
#196=ORIENTED_EDGE('',*,*,#158,.F.);
#197=ORIENTED_EDGE('',*,*,#160,.F.);
#198=ORIENTED_EDGE('',*,*,#161,.T.);
#199=ORIENTED_EDGE('',*,*,#162,.T.);
#200=ORIENTED_EDGE('',*,*,#161,.F.);
#201=ORIENTED_EDGE('',*,*,#163,.F.);
#202=ORIENTED_EDGE('',*,*,#164,.T.);
#203=ORIENTED_EDGE('',*,*,#165,.T.);
#204=ORIENTED_EDGE('',*,*,#164,.F.);
#205=ORIENTED_EDGE('',*,*,#166,.F.);
#206=ORIENTED_EDGE('',*,*,#167,.T.);
#207=ORIENTED_EDGE('',*,*,#168,.T.);
#208=ORIENTED_EDGE('',*,*,#167,.F.);
#209=ORIENTED_EDGE('',*,*,#169,.F.);
#210=ORIENTED_EDGE('',*,*,#170,.T.);
#211=ORIENTED_EDGE('',*,*,#171,.F.);
#212=ORIENTED_EDGE('',*,*,#155,.F.);
#213=ORIENTED_EDGE('',*,*,#172,.F.);
#214=ORIENTED_EDGE('',*,*,#153,.T.);
#215=ORIENTED_EDGE('',*,*,#173,.F.);
#216=ORIENTED_EDGE('',*,*,#174,.F.);
#217=ORIENTED_EDGE('',*,*,#175,.F.);
#218=ORIENTED_EDGE('',*,*,#174,.T.);
#219=ORIENTED_EDGE('',*,*,#176,.F.);
#220=ORIENTED_EDGE('',*,*,#170,.F.);
#221=ORIENTED_EDGE('',*,*,#177,.F.);
#222=ORIENTED_EDGE('',*,*,#156,.T.);
#223=ORIENTED_EDGE('',*,*,#171,.T.);
#224=ORIENTED_EDGE('',*,*,#176,.T.);
#225=ORIENTED_EDGE('',*,*,#173,.T.);
#226=ORIENTED_EDGE('',*,*,#152,.T.);
#227=ORIENTED_EDGE('',*,*,#178,.F.);
#228=ORIENTED_EDGE('',*,*,#179,.F.);
#229=ORIENTED_EDGE('',*,*,#166,.T.);
#230=ORIENTED_EDGE('',*,*,#163,.T.);
#231=ORIENTED_EDGE('',*,*,#160,.T.);
#232=ORIENTED_EDGE('',*,*,#157,.T.);
#233=ORIENTED_EDGE('',*,*,#175,.T.);
#234=ORIENTED_EDGE('',*,*,#169,.T.);
#235=ORIENTED_EDGE('',*,*,#154,.T.);
#236=ORIENTED_EDGE('',*,*,#172,.T.);
#237=ORIENTED_EDGE('',*,*,#168,.F.);
#238=ORIENTED_EDGE('',*,*,#165,.F.);
#239=ORIENTED_EDGE('',*,*,#162,.F.);
#240=ORIENTED_EDGE('',*,*,#159,.F.);
#241=ORIENTED_EDGE('',*,*,#179,.T.);
#242=ORIENTED_EDGE('',*,*,#180,.F.);
#243=ORIENTED_EDGE('',*,*,#181,.F.);
#244=ORIENTED_EDGE('',*,*,#182,.T.);
#245=ORIENTED_EDGE('',*,*,#182,.F.);
#246=ORIENTED_EDGE('',*,*,#183,.T.);
#247=ORIENTED_EDGE('',*,*,#184,.F.);
#248=ORIENTED_EDGE('',*,*,#183,.F.);
#249=ORIENTED_EDGE('',*,*,#185,.F.);
#250=ORIENTED_EDGE('',*,*,#186,.T.);
#251=ORIENTED_EDGE('',*,*,#180,.T.);
#252=ORIENTED_EDGE('',*,*,#178,.T.);
#253=ORIENTED_EDGE('',*,*,#151,.T.);
#254=ORIENTED_EDGE('',*,*,#177,.T.);
#255=ORIENTED_EDGE('',*,*,#181,.T.);
#256=ORIENTED_EDGE('',*,*,#186,.F.);
#257=ORIENTED_EDGE('',*,*,#185,.T.);
#258=ORIENTED_EDGE('',*,*,#184,.T.);
#259=PLANE('',#295);
#260=PLANE('',#309);
#261=PLANE('',#310);
#262=PLANE('',#311);
#263=PLANE('',#312);
#264=PLANE('',#313);
#265=PLANE('',#314);
#266=PLANE('',#322);
#267=ADVANCED_FACE('',(#31),#259,.T.);
#268=ADVANCED_FACE('',(#32),#25,.F.);
#269=ADVANCED_FACE('',(#33),#26,.F.);
#270=ADVANCED_FACE('',(#34),#27,.F.);
#271=ADVANCED_FACE('',(#35),#28,.F.);
#272=ADVANCED_FACE('',(#36),#260,.T.);
#273=ADVANCED_FACE('',(#37),#261,.T.);
#274=ADVANCED_FACE('',(#38),#262,.T.);
#275=ADVANCED_FACE('',(#39,#15,#16,#17,#18),#263,.T.);
#276=ADVANCED_FACE('',(#40,#19,#20,#21,#22),#264,.F.);
#277=ADVANCED_FACE('',(#41,#23),#265,.F.);
#278=ADVANCED_FACE('',(#42),#29,.F.);
#279=ADVANCED_FACE('',(#43),#30,.T.);
#280=ADVANCED_FACE('',(#44,#24),#266,.T.);
#281=CLOSED_SHELL('',(#267,#268,#269,#270,#271,#272,#273,#274,#275,#276,
#277,#278,#279,#280));
#282=DERIVED_UNIT_ELEMENT(#284,1.);
#283=DERIVED_UNIT_ELEMENT(#485,-3.);
#284=(
MASS_UNIT()
NAMED_UNIT(*)
SI_UNIT(.KILO.,.GRAM.)
);
#285=DERIVED_UNIT((#282,#283));
#286=MEASURE_REPRESENTATION_ITEM('density measure',
POSITIVE_RATIO_MEASURE(7850.),#285);
#287=PROPERTY_DEFINITION_REPRESENTATION(#292,#289);
#288=PROPERTY_DEFINITION_REPRESENTATION(#293,#290);
#289=REPRESENTATION('material name',(#291),#480);
#290=REPRESENTATION('density',(#286),#480);
#291=DESCRIPTIVE_REPRESENTATION_ITEM('Steel','Steel');
#292=PROPERTY_DEFINITION('material property','material name',#493);
#293=PROPERTY_DEFINITION('material property','density of part',#493);
#294=AXIS2_PLACEMENT_3D('',#403,#323,#324);
#295=AXIS2_PLACEMENT_3D('',#404,#325,#326);
#296=AXIS2_PLACEMENT_3D('',#407,#327,#328);
#297=AXIS2_PLACEMENT_3D('',#417,#334,#335);
#298=AXIS2_PLACEMENT_3D('',#419,#336,#337);
#299=AXIS2_PLACEMENT_3D('',#422,#339,#340);
#300=AXIS2_PLACEMENT_3D('',#423,#341,#342);
#301=AXIS2_PLACEMENT_3D('',#425,#343,#344);
#302=AXIS2_PLACEMENT_3D('',#428,#346,#347);
#303=AXIS2_PLACEMENT_3D('',#429,#348,#349);
#304=AXIS2_PLACEMENT_3D('',#431,#350,#351);
#305=AXIS2_PLACEMENT_3D('',#434,#353,#354);
#306=AXIS2_PLACEMENT_3D('',#435,#355,#356);
#307=AXIS2_PLACEMENT_3D('',#437,#357,#358);
#308=AXIS2_PLACEMENT_3D('',#440,#360,#361);
#309=AXIS2_PLACEMENT_3D('',#441,#362,#363);
#310=AXIS2_PLACEMENT_3D('',#447,#367,#368);
#311=AXIS2_PLACEMENT_3D('',#453,#372,#373);
#312=AXIS2_PLACEMENT_3D('',#456,#376,#377);
#313=AXIS2_PLACEMENT_3D('',#462,#381,#382);
#314=AXIS2_PLACEMENT_3D('',#463,#383,#384);
#315=AXIS2_PLACEMENT_3D('',#465,#385,#386);
#316=AXIS2_PLACEMENT_3D('',#466,#387,#388);
#317=AXIS2_PLACEMENT_3D('',#468,#389,#390);
#318=AXIS2_PLACEMENT_3D('',#469,#391,#392);
#319=AXIS2_PLACEMENT_3D('',#472,#394,#395);
#320=AXIS2_PLACEMENT_3D('',#473,#396,#397);
#321=AXIS2_PLACEMENT_3D('',#475,#398,#399);
#322=AXIS2_PLACEMENT_3D('',#477,#401,#402);
#323=DIRECTION('axis',(0.,0.,1.));
#324=DIRECTION('refdir',(1.,0.,0.));
#325=DIRECTION('center_axis',(-1.58056919633432E-16,-1.,0.));
#326=DIRECTION('ref_axis',(1.,-1.58056919633432E-16,0.));
#327=DIRECTION('center_axis',(-1.58056919633432E-16,-1.,0.));
#328=DIRECTION('ref_axis',(-1.,0.,0.));
#329=DIRECTION('',(1.,-1.58056919633432E-16,0.));
#330=DIRECTION('',(0.,0.,1.));
#331=DIRECTION('',(-1.,1.58056919633432E-16,0.));
#332=DIRECTION('',(0.,0.,1.));
#333=DIRECTION('',(1.,-1.58056919633432E-16,0.));
#334=DIRECTION('center_axis',(0.,0.,1.));
#335=DIRECTION('ref_axis',(1.,0.,0.));
#336=DIRECTION('center_axis',(0.,0.,-1.));
#337=DIRECTION('ref_axis',(1.,0.,0.));
#338=DIRECTION('',(0.,0.,-1.));
#339=DIRECTION('center_axis',(0.,0.,-1.));
#340=DIRECTION('ref_axis',(1.,0.,0.));
#341=DIRECTION('center_axis',(0.,0.,1.));
#342=DIRECTION('ref_axis',(1.,0.,0.));
#343=DIRECTION('center_axis',(0.,0.,-1.));
#344=DIRECTION('ref_axis',(1.,0.,0.));
#345=DIRECTION('',(0.,0.,-1.));
#346=DIRECTION('center_axis',(0.,0.,-1.));
#347=DIRECTION('ref_axis',(1.,0.,0.));
#348=DIRECTION('center_axis',(0.,0.,1.));
#349=DIRECTION('ref_axis',(1.,0.,0.));
#350=DIRECTION('center_axis',(0.,0.,-1.));
#351=DIRECTION('ref_axis',(1.,0.,0.));
#352=DIRECTION('',(0.,0.,-1.));
#353=DIRECTION('center_axis',(0.,0.,-1.));
#354=DIRECTION('ref_axis',(1.,0.,0.));
#355=DIRECTION('center_axis',(0.,0.,1.));
#356=DIRECTION('ref_axis',(1.,0.,0.));
#357=DIRECTION('center_axis',(0.,0.,-1.));
#358=DIRECTION('ref_axis',(1.,0.,0.));
#359=DIRECTION('',(0.,0.,-1.));
#360=DIRECTION('center_axis',(0.,0.,-1.));
#361=DIRECTION('ref_axis',(1.,0.,0.));
#362=DIRECTION('center_axis',(1.,-5.82794238648376E-17,0.));
#363=DIRECTION('ref_axis',(5.82794238648376E-17,1.,0.));
#364=DIRECTION('',(-5.82794238648376E-17,-1.,0.));
#365=DIRECTION('',(0.,0.,1.));
#366=DIRECTION('',(5.82794238648376E-17,1.,0.));
#367=DIRECTION('center_axis',(-1.,-3.49676543189026E-16,0.));
#368=DIRECTION('ref_axis',(3.49676543189026E-16,-1.,0.));
#369=DIRECTION('',(-3.49676543189026E-16,1.,0.));
#370=DIRECTION('',(3.49676543189026E-16,-1.,0.));
#371=DIRECTION('',(0.,0.,1.));
#372=DIRECTION('center_axis',(0.,1.,0.));
#373=DIRECTION('ref_axis',(-1.,0.,0.));
#374=DIRECTION('',(1.,0.,0.));
#375=DIRECTION('',(-1.,0.,0.));
#376=DIRECTION('center_axis',(0.,0.,1.));
#377=DIRECTION('ref_axis',(1.,0.,0.));
#378=DIRECTION('',(0.,1.,2.22044604925031E-16));
#379=DIRECTION('',(0.,-1.,-2.22044604925031E-16));
#380=DIRECTION('',(-1.,0.,0.));
#381=DIRECTION('center_axis',(0.,0.,1.));
#382=DIRECTION('ref_axis',(1.,0.,0.));
#383=DIRECTION('center_axis',(0.,-1.,-2.22044604925031E-16));
#384=DIRECTION('ref_axis',(-1.,0.,0.));
#385=DIRECTION('center_axis',(0.,-1.,-2.22044604925031E-16));
#386=DIRECTION('ref_axis',(-1.,0.,0.));
#387=DIRECTION('center_axis',(0.,-1.,-2.22044604925031E-16));
#388=DIRECTION('ref_axis',(-1.,0.,0.));
#389=DIRECTION('center_axis',(0.,-1.,-2.22044604925031E-16));
#390=DIRECTION('ref_axis',(0.,2.22044604925031E-16,-1.));
#391=DIRECTION('center_axis',(0.,-1.,-2.22044604925031E-16));
#392=DIRECTION('ref_axis',(0.,2.22044604925031E-16,-1.));
#393=DIRECTION('',(0.,-1.,-2.22044604925031E-16));
#394=DIRECTION('center_axis',(0.,1.,2.22044604925031E-16));
#395=DIRECTION('ref_axis',(0.,2.22044604925031E-16,-1.));
#396=DIRECTION('center_axis',(0.,-1.,-2.22044604925031E-16));
#397=DIRECTION('ref_axis',(-1.,0.,0.));
#398=DIRECTION('center_axis',(0.,-1.,-2.22044604925031E-16));
#399=DIRECTION('ref_axis',(-1.,0.,0.));
#400=DIRECTION('',(0.,1.,2.22044604925031E-16));
#401=DIRECTION('center_axis',(0.,-1.,-2.22044604925031E-16));
#402=DIRECTION('ref_axis',(-1.,0.,0.));
#403=CARTESIAN_POINT('',(0.,0.,0.));
#404=CARTESIAN_POINT('Origin',(-1.21348736687017,-0.00164568829822012,0.));
#405=CARTESIAN_POINT('',(-0.700677656647022,-0.00164568829822016,0.1));
#406=CARTESIAN_POINT('',(-0.326297077093319,-0.00164568829822033,0.1));
#407=CARTESIAN_POINT('Origin',(-0.513487366870171,-0.00164568829822016,
0.342697435942901));
#408=CARTESIAN_POINT('',(-1.21348736687017,-0.00164568829822011,0.1));
#409=CARTESIAN_POINT('',(0.186512633129829,-0.00164568829822034,0.1));
#410=CARTESIAN_POINT('',(-1.21348736687017,-0.00164568829822012,0.));
#411=CARTESIAN_POINT('',(-1.21348736687017,-0.00164568829822012,0.));
#412=CARTESIAN_POINT('',(0.186512633129829,-0.00164568829822033,0.));
#413=CARTESIAN_POINT('',(0.186512633129829,-0.00164568829822034,0.));
#414=CARTESIAN_POINT('',(0.186512633129829,-0.00164568829822033,0.1));
#415=CARTESIAN_POINT('',(0.186512633129829,-0.00164568829822033,0.));
#416=CARTESIAN_POINT('',(0.186512633129829,-0.00164568829822034,0.1));
#417=CARTESIAN_POINT('Origin',(-1.01348736687017,1.24835431170178,0.));
#418=CARTESIAN_POINT('',(-1.08848736687017,1.24835431170178,0.1));
#419=CARTESIAN_POINT('Origin',(-1.01348736687017,1.24835431170178,0.1));
#420=CARTESIAN_POINT('',(-1.08848736687017,1.24835431170178,0.));
#421=CARTESIAN_POINT('',(-1.08848736687017,1.24835431170178,0.));
#422=CARTESIAN_POINT('Origin',(-1.01348736687017,1.24835431170178,0.));
#423=CARTESIAN_POINT('Origin',(-0.0134873668701701,1.24835431170178,0.));
#424=CARTESIAN_POINT('',(-0.0884873668701701,1.24835431170178,0.1));
#425=CARTESIAN_POINT('Origin',(-0.0134873668701701,1.24835431170178,0.1));
#426=CARTESIAN_POINT('',(-0.0884873668701701,1.24835431170178,0.));
#427=CARTESIAN_POINT('',(-0.0884873668701701,1.24835431170178,0.));
#428=CARTESIAN_POINT('Origin',(-0.0134873668701701,1.24835431170178,0.));
#429=CARTESIAN_POINT('Origin',(-1.01348736687017,0.24835431170178,0.));
#430=CARTESIAN_POINT('',(-1.08848736687017,0.24835431170178,0.1));
#431=CARTESIAN_POINT('Origin',(-1.01348736687017,0.24835431170178,0.1));
#432=CARTESIAN_POINT('',(-1.08848736687017,0.24835431170178,0.));
#433=CARTESIAN_POINT('',(-1.08848736687017,0.24835431170178,0.));
#434=CARTESIAN_POINT('Origin',(-1.01348736687017,0.24835431170178,0.));
#435=CARTESIAN_POINT('Origin',(-0.0134873668701701,0.24835431170178,0.));
#436=CARTESIAN_POINT('',(-0.0884873668701701,0.24835431170178,0.1));
#437=CARTESIAN_POINT('Origin',(-0.0134873668701701,0.24835431170178,0.1));
#438=CARTESIAN_POINT('',(-0.0884873668701701,0.24835431170178,0.));
#439=CARTESIAN_POINT('',(-0.0884873668701701,0.24835431170178,0.));
#440=CARTESIAN_POINT('Origin',(-0.0134873668701701,0.24835431170178,0.));
#441=CARTESIAN_POINT('Origin',(0.186512633129829,-0.00164568829822033,0.));
#442=CARTESIAN_POINT('',(0.186512633129829,1.49835431170178,0.));
#443=CARTESIAN_POINT('',(0.186512633129829,1.49835431170178,0.));
#444=CARTESIAN_POINT('',(0.186512633129829,1.49835431170178,0.1));
#445=CARTESIAN_POINT('',(0.186512633129829,1.49835431170178,0.));
#446=CARTESIAN_POINT('',(0.186512633129829,1.49835431170178,0.1));
#447=CARTESIAN_POINT('Origin',(-1.21348736687017,1.49835431170178,0.));
#448=CARTESIAN_POINT('',(-1.21348736687017,1.49835431170178,0.));
#449=CARTESIAN_POINT('',(-1.21348736687017,-0.00164568829822012,0.));
#450=CARTESIAN_POINT('',(-1.21348736687017,1.49835431170178,0.1));
#451=CARTESIAN_POINT('',(-1.21348736687017,-0.00164568829822012,0.1));
#452=CARTESIAN_POINT('',(-1.21348736687017,1.49835431170178,0.));
#453=CARTESIAN_POINT('Origin',(0.186512633129829,1.49835431170178,0.));
#454=CARTESIAN_POINT('',(-1.21348736687017,1.49835431170178,0.));
#455=CARTESIAN_POINT('',(-1.21348736687017,1.49835431170178,0.1));
#456=CARTESIAN_POINT('Origin',(-0.513487366870171,0.74835431170178,0.1));
#457=CARTESIAN_POINT('',(-0.32629707709332,1.49565687575888,0.1));
#458=CARTESIAN_POINT('',(-0.32629707709332,1.49565687575888,0.1));
#459=CARTESIAN_POINT('',(-0.700677656647021,1.49565687575888,0.1));
#460=CARTESIAN_POINT('',(-0.700677656647021,1.49565687575888,0.1));
#461=CARTESIAN_POINT('',(-0.513487366870171,1.49565687575888,0.1));
#462=CARTESIAN_POINT('Origin',(-0.513487366870171,0.74835431170178,0.));
#463=CARTESIAN_POINT('Origin',(-0.513487366870171,1.49565687575888,0.342697435942901));
#464=CARTESIAN_POINT('',(-0.206987366870171,1.49565687575888,0.342697435942901));
#465=CARTESIAN_POINT('Origin',(-0.513487366870171,1.49565687575888,0.342697435942901));
#466=CARTESIAN_POINT('Origin',(-0.513487366870171,1.49565687575888,0.342697435942901));
#467=CARTESIAN_POINT('',(-0.513487366870171,1.49565687575888,0.549197435942901));
#468=CARTESIAN_POINT('Origin',(-0.513487366870171,1.49565687575888,0.342697435942901));
#469=CARTESIAN_POINT('Origin',(-0.513487366870171,0.245656875758879,0.342697435942901));
#470=CARTESIAN_POINT('',(-0.513487366870171,-0.00434312424112151,0.549197435942901));
#471=CARTESIAN_POINT('',(-0.513487366870171,0.245656875758879,0.549197435942901));
#472=CARTESIAN_POINT('Origin',(-0.513487366870171,-0.00434312424112116,
0.342697435942901));
#473=CARTESIAN_POINT('Origin',(-0.513487366870171,1.49565687575888,0.342697435942901));
#474=CARTESIAN_POINT('',(-0.206987366870171,-0.00434312424112116,0.342697435942901));
#475=CARTESIAN_POINT('Origin',(-0.513487366870171,-0.00434312424112116,
0.342697435942901));
#476=CARTESIAN_POINT('',(-0.206987366870171,1.49565687575888,0.342697435942901));
#477=CARTESIAN_POINT('Origin',(-0.513487366870171,-0.00434312424112116,
0.342697435942901));
#478=UNCERTAINTY_MEASURE_WITH_UNIT(LENGTH_MEASURE(0.000393700787401575),
#483,'DISTANCE_ACCURACY_VALUE',
'Maximum model space distance between geometric entities at asserted c
onnectivities');
#479=UNCERTAINTY_MEASURE_WITH_UNIT(LENGTH_MEASURE(0.000393700787401575),
#483,'DISTANCE_ACCURACY_VALUE',
'Maximum model space distance between geometric entities at asserted c
onnectivities');
#480=(
GEOMETRIC_REPRESENTATION_CONTEXT(3)
GLOBAL_UNCERTAINTY_ASSIGNED_CONTEXT((#478))
GLOBAL_UNIT_ASSIGNED_CONTEXT((#483,#487,#488))
REPRESENTATION_CONTEXT('','3D')
);
#481=(
GEOMETRIC_REPRESENTATION_CONTEXT(3)
GLOBAL_UNCERTAINTY_ASSIGNED_CONTEXT((#479))
GLOBAL_UNIT_ASSIGNED_CONTEXT((#483,#487,#488))
REPRESENTATION_CONTEXT('','3D')
);
#482=DIMENSIONAL_EXPONENTS(1.,0.,0.,0.,0.,0.,0.);
#483=(
CONVERSION_BASED_UNIT('inch',#486)
LENGTH_UNIT()
NAMED_UNIT(#482)
);
#484=(
LENGTH_UNIT()
NAMED_UNIT(*)
SI_UNIT(.MILLI.,.METRE.)
);
#485=(
LENGTH_UNIT()
NAMED_UNIT(*)
SI_UNIT($,.METRE.)
);
#486=LENGTH_MEASURE_WITH_UNIT(LENGTH_MEASURE(25.4),#484);
#487=(
NAMED_UNIT(*)
PLANE_ANGLE_UNIT()
SI_UNIT($,.RADIAN.)
);
#488=(
NAMED_UNIT(*)
SI_UNIT($,.STERADIAN.)
SOLID_ANGLE_UNIT()
);
#489=SHAPE_DEFINITION_REPRESENTATION(#490,#491);
#490=PRODUCT_DEFINITION_SHAPE('',$,#493);
#491=SHAPE_REPRESENTATION('',(#294),#480);
#492=PRODUCT_DEFINITION_CONTEXT('part definition',#497,'design');
#493=PRODUCT_DEFINITION('hinge','hinge v7',#494,#492);
#494=PRODUCT_DEFINITION_FORMATION('',$,#499);
#495=PRODUCT_RELATED_PRODUCT_CATEGORY('hinge v7','hinge v7',(#499));
#496=APPLICATION_PROTOCOL_DEFINITION('international standard',
'automotive_design',2009,#497);
#497=APPLICATION_CONTEXT(
'Core Data for Automotive Mechanical Design Process');
#498=PRODUCT_CONTEXT('part definition',#497,'mechanical');
#499=PRODUCT('hinge','hinge v7',$,(#498));
#500=PRESENTATION_STYLE_ASSIGNMENT((#501));
#501=SURFACE_STYLE_USAGE(.BOTH.,#502);
#502=SURFACE_SIDE_STYLE('',(#503));
#503=SURFACE_STYLE_FILL_AREA(#504);
#504=FILL_AREA_STYLE('Steel - Satin',(#505));
#505=FILL_AREA_STYLE_COLOUR('Steel - Satin',#506);
#506=COLOUR_RGB('Steel - Satin',0.627450980392157,0.627450980392157,0.627450980392157);
ENDSEC;
END-ISO-10303-21;
