ISO-10303-21;
HEADER;
/* Generated by software containing ST-Developer
 * from STEP Tools, Inc. (www.steptools.com) 
 */

FILE_DESCRIPTION(
/* description */ (''),
/* implementation_level */ '2;1');

FILE_NAME(
/* name */ 'armHinge.step',
/* time_stamp */ '2025-06-10T22:02:11-04:00',
/* author */ (''),
/* organization */ (''),
/* preprocessor_version */ 'ST-DEVELOPER v20.1',
/* originating_system */ 'Autodesk Translation Framework v14.4.0.0',
/* authorisation */ '');

FILE_SCHEMA (('AUTOMOTIVE_DESIGN { 1 0 10303 214 3 1 1 }'));
ENDSEC;

DATA;
#10=MECHANICAL_DESIGN_GEOMETRIC_PRESENTATION_REPRESENTATION('',(#13),#290);
#11=SHAPE_REPRESENTATION_RELATIONSHIP('SRR','None',#300,#12);
#12=ADVANCED_BREP_SHAPE_REPRESENTATION('',(#14),#289);
#13=STYLED_ITEM('',(#309),#14);
#14=MANIFOLD_SOLID_BREP('Body2',#170);
#15=FACE_BOUND('',#36,.T.);
#16=FACE_BOUND('',#41,.T.);
#17=PLANE('',#190);
#18=PLANE('',#191);
#19=PLANE('',#192);
#20=PLANE('',#193);
#21=PLANE('',#194);
#22=PLANE('',#195);
#23=PLANE('',#196);
#24=FACE_OUTER_BOUND('',#33,.T.);
#25=FACE_OUTER_BOUND('',#34,.T.);
#26=FACE_OUTER_BOUND('',#35,.T.);
#27=FACE_OUTER_BOUND('',#37,.T.);
#28=FACE_OUTER_BOUND('',#38,.T.);
#29=FACE_OUTER_BOUND('',#39,.T.);
#30=FACE_OUTER_BOUND('',#40,.T.);
#31=FACE_OUTER_BOUND('',#42,.T.);
#32=FACE_OUTER_BOUND('',#43,.T.);
#33=EDGE_LOOP('',(#117,#118,#119,#120));
#34=EDGE_LOOP('',(#121,#122,#123,#124));
#35=EDGE_LOOP('',(#125,#126,#127,#128,#129,#130));
#36=EDGE_LOOP('',(#131));
#37=EDGE_LOOP('',(#132,#133,#134,#135));
#38=EDGE_LOOP('',(#136,#137,#138,#139));
#39=EDGE_LOOP('',(#140,#141,#142,#143));
#40=EDGE_LOOP('',(#144,#145,#146,#147,#148,#149));
#41=EDGE_LOOP('',(#150));
#42=EDGE_LOOP('',(#151,#152,#153,#154));
#43=EDGE_LOOP('',(#155,#156,#157,#158));
#44=CIRCLE('',#185,0.3065);
#45=CIRCLE('',#186,0.3065);
#46=CIRCLE('',#188,0.2065);
#47=CIRCLE('',#189,0.2065);
#48=LINE('',#246,#65);
#49=LINE('',#250,#66);
#50=LINE('',#256,#67);
#51=LINE('',#260,#68);
#52=LINE('',#262,#69);
#53=LINE('',#264,#70);
#54=LINE('',#266,#71);
#55=LINE('',#267,#72);
#56=LINE('',#270,#73);
#57=LINE('',#271,#74);
#58=LINE('',#274,#75);
#59=LINE('',#276,#76);
#60=LINE('',#277,#77);
#61=LINE('',#280,#78);
#62=LINE('',#281,#79);
#63=LINE('',#283,#80);
#64=LINE('',#284,#81);
#65=VECTOR('',#201,0.393700787401575);
#66=VECTOR('',#204,0.393700787401575);
#67=VECTOR('',#211,0.2065);
#68=VECTOR('',#216,0.393700787401575);
#69=VECTOR('',#217,0.393700787401575);
#70=VECTOR('',#218,0.393700787401575);
#71=VECTOR('',#219,0.393700787401575);
#72=VECTOR('',#220,0.393700787401575);
#73=VECTOR('',#223,0.393700787401575);
#74=VECTOR('',#224,0.393700787401575);
#75=VECTOR('',#227,0.393700787401575);
#76=VECTOR('',#228,0.393700787401575);
#77=VECTOR('',#229,0.393700787401575);
#78=VECTOR('',#232,0.393700787401575);
#79=VECTOR('',#233,0.393700787401575);
#80=VECTOR('',#236,0.393700787401575);
#81=VECTOR('',#237,0.393700787401575);
#82=VERTEX_POINT('',#244);
#83=VERTEX_POINT('',#245);
#84=VERTEX_POINT('',#247);
#85=VERTEX_POINT('',#249);
#86=VERTEX_POINT('',#253);
#87=VERTEX_POINT('',#255);
#88=VERTEX_POINT('',#259);
#89=VERTEX_POINT('',#261);
#90=VERTEX_POINT('',#263);
#91=VERTEX_POINT('',#265);
#92=VERTEX_POINT('',#269);
#93=VERTEX_POINT('',#273);
#94=VERTEX_POINT('',#275);
#95=VERTEX_POINT('',#279);
#96=EDGE_CURVE('',#82,#83,#48,.T.);
#97=EDGE_CURVE('',#82,#84,#44,.T.);
#98=EDGE_CURVE('',#85,#84,#49,.T.);
#99=EDGE_CURVE('',#83,#85,#45,.T.);
#100=EDGE_CURVE('',#86,#86,#46,.T.);
#101=EDGE_CURVE('',#86,#87,#50,.T.);
#102=EDGE_CURVE('',#87,#87,#47,.T.);
#103=EDGE_CURVE('',#88,#85,#51,.T.);
#104=EDGE_CURVE('',#89,#88,#52,.T.);
#105=EDGE_CURVE('',#90,#89,#53,.T.);
#106=EDGE_CURVE('',#90,#91,#54,.T.);
#107=EDGE_CURVE('',#83,#91,#55,.T.);
#108=EDGE_CURVE('',#84,#92,#56,.T.);
#109=EDGE_CURVE('',#92,#88,#57,.T.);
#110=EDGE_CURVE('',#93,#90,#58,.T.);
#111=EDGE_CURVE('',#93,#94,#59,.T.);
#112=EDGE_CURVE('',#91,#94,#60,.T.);
#113=EDGE_CURVE('',#89,#95,#61,.T.);
#114=EDGE_CURVE('',#95,#92,#62,.T.);
#115=EDGE_CURVE('',#94,#82,#63,.T.);
#116=EDGE_CURVE('',#95,#93,#64,.T.);
#117=ORIENTED_EDGE('',*,*,#96,.F.);
#118=ORIENTED_EDGE('',*,*,#97,.T.);
#119=ORIENTED_EDGE('',*,*,#98,.F.);
#120=ORIENTED_EDGE('',*,*,#99,.F.);
#121=ORIENTED_EDGE('',*,*,#100,.F.);
#122=ORIENTED_EDGE('',*,*,#101,.T.);
#123=ORIENTED_EDGE('',*,*,#102,.F.);
#124=ORIENTED_EDGE('',*,*,#101,.F.);
#125=ORIENTED_EDGE('',*,*,#103,.F.);
#126=ORIENTED_EDGE('',*,*,#104,.F.);
#127=ORIENTED_EDGE('',*,*,#105,.F.);
#128=ORIENTED_EDGE('',*,*,#106,.T.);
#129=ORIENTED_EDGE('',*,*,#107,.F.);
#130=ORIENTED_EDGE('',*,*,#99,.T.);
#131=ORIENTED_EDGE('',*,*,#102,.T.);
#132=ORIENTED_EDGE('',*,*,#98,.T.);
#133=ORIENTED_EDGE('',*,*,#108,.T.);
#134=ORIENTED_EDGE('',*,*,#109,.T.);
#135=ORIENTED_EDGE('',*,*,#103,.T.);
#136=ORIENTED_EDGE('',*,*,#110,.F.);
#137=ORIENTED_EDGE('',*,*,#111,.T.);
#138=ORIENTED_EDGE('',*,*,#112,.F.);
#139=ORIENTED_EDGE('',*,*,#106,.F.);
#140=ORIENTED_EDGE('',*,*,#113,.F.);
#141=ORIENTED_EDGE('',*,*,#104,.T.);
#142=ORIENTED_EDGE('',*,*,#109,.F.);
#143=ORIENTED_EDGE('',*,*,#114,.F.);
#144=ORIENTED_EDGE('',*,*,#115,.F.);
#145=ORIENTED_EDGE('',*,*,#111,.F.);
#146=ORIENTED_EDGE('',*,*,#116,.F.);
#147=ORIENTED_EDGE('',*,*,#114,.T.);
#148=ORIENTED_EDGE('',*,*,#108,.F.);
#149=ORIENTED_EDGE('',*,*,#97,.F.);
#150=ORIENTED_EDGE('',*,*,#100,.T.);
#151=ORIENTED_EDGE('',*,*,#96,.T.);
#152=ORIENTED_EDGE('',*,*,#107,.T.);
#153=ORIENTED_EDGE('',*,*,#112,.T.);
#154=ORIENTED_EDGE('',*,*,#115,.T.);
#155=ORIENTED_EDGE('',*,*,#116,.T.);
#156=ORIENTED_EDGE('',*,*,#110,.T.);
#157=ORIENTED_EDGE('',*,*,#105,.T.);
#158=ORIENTED_EDGE('',*,*,#113,.T.);
#159=CYLINDRICAL_SURFACE('',#184,0.3065);
#160=CYLINDRICAL_SURFACE('',#187,0.2065);
#161=ADVANCED_FACE('',(#24),#159,.T.);
#162=ADVANCED_FACE('',(#25),#160,.F.);
#163=ADVANCED_FACE('',(#26,#15),#17,.T.);
#164=ADVANCED_FACE('',(#27),#18,.T.);
#165=ADVANCED_FACE('',(#28),#19,.T.);
#166=ADVANCED_FACE('',(#29),#20,.T.);
#167=ADVANCED_FACE('',(#30,#16),#21,.T.);
#168=ADVANCED_FACE('',(#31),#22,.T.);
#169=ADVANCED_FACE('',(#32),#23,.F.);
#170=CLOSED_SHELL('',(#161,#162,#163,#164,#165,#166,#167,#168,#169));
#171=DERIVED_UNIT_ELEMENT(#173,1.);
#172=DERIVED_UNIT_ELEMENT(#294,-3.);
#173=(
MASS_UNIT()
NAMED_UNIT(*)
SI_UNIT(.KILO.,.GRAM.)
);
#174=DERIVED_UNIT((#171,#172));
#175=MEASURE_REPRESENTATION_ITEM('density measure',
POSITIVE_RATIO_MEASURE(7850.),#174);
#176=PROPERTY_DEFINITION_REPRESENTATION(#181,#178);
#177=PROPERTY_DEFINITION_REPRESENTATION(#182,#179);
#178=REPRESENTATION('material name',(#180),#289);
#179=REPRESENTATION('density',(#175),#289);
#180=DESCRIPTIVE_REPRESENTATION_ITEM('Steel','Steel');
#181=PROPERTY_DEFINITION('material property','material name',#302);
#182=PROPERTY_DEFINITION('material property','density of part',#302);
#183=AXIS2_PLACEMENT_3D('',#242,#197,#198);
#184=AXIS2_PLACEMENT_3D('',#243,#199,#200);
#185=AXIS2_PLACEMENT_3D('',#248,#202,#203);
#186=AXIS2_PLACEMENT_3D('',#251,#205,#206);
#187=AXIS2_PLACEMENT_3D('',#252,#207,#208);
#188=AXIS2_PLACEMENT_3D('',#254,#209,#210);
#189=AXIS2_PLACEMENT_3D('',#257,#212,#213);
#190=AXIS2_PLACEMENT_3D('',#258,#214,#215);
#191=AXIS2_PLACEMENT_3D('',#268,#221,#222);
#192=AXIS2_PLACEMENT_3D('',#272,#225,#226);
#193=AXIS2_PLACEMENT_3D('',#278,#230,#231);
#194=AXIS2_PLACEMENT_3D('',#282,#234,#235);
#195=AXIS2_PLACEMENT_3D('',#285,#238,#239);
#196=AXIS2_PLACEMENT_3D('',#286,#240,#241);
#197=DIRECTION('axis',(0.,0.,1.));
#198=DIRECTION('refdir',(1.,0.,0.));
#199=DIRECTION('center_axis',(0.,-1.,-2.22044604925031E-16));
#200=DIRECTION('ref_axis',(1.83697019872103E-16,-2.22044604925031E-16,1.));
#201=DIRECTION('',(0.,-1.,-2.22044604925031E-16));
#202=DIRECTION('center_axis',(0.,-1.,-2.22044604925031E-16));
#203=DIRECTION('ref_axis',(-1.,0.,0.));
#204=DIRECTION('',(0.,1.,2.22044604925031E-16));
#205=DIRECTION('center_axis',(0.,-1.,-2.22044604925031E-16));
#206=DIRECTION('ref_axis',(-1.,0.,0.));
#207=DIRECTION('center_axis',(0.,-1.,-2.22044604925031E-16));
#208=DIRECTION('ref_axis',(0.,2.22044604925031E-16,-1.));
#209=DIRECTION('center_axis',(0.,-1.,-2.22044604925031E-16));
#210=DIRECTION('ref_axis',(0.,2.22044604925031E-16,-1.));
#211=DIRECTION('',(0.,-1.,-2.22044604925031E-16));
#212=DIRECTION('center_axis',(0.,1.,2.22044604925031E-16));
#213=DIRECTION('ref_axis',(0.,2.22044604925031E-16,-1.));
#214=DIRECTION('center_axis',(0.,-1.,0.));
#215=DIRECTION('ref_axis',(1.,0.,0.));
#216=DIRECTION('',(1.,0.,0.));
#217=DIRECTION('',(0.,0.,1.));
#218=DIRECTION('',(-1.,0.,0.));
#219=DIRECTION('',(0.,0.,1.));
#220=DIRECTION('',(1.,0.,0.));
#221=DIRECTION('center_axis',(0.,0.,1.));
#222=DIRECTION('ref_axis',(1.,0.,0.));
#223=DIRECTION('',(-1.,0.,0.));
#224=DIRECTION('',(3.49676543189026E-16,-1.,0.));
#225=DIRECTION('center_axis',(1.,-5.82794238648376E-17,0.));
#226=DIRECTION('ref_axis',(5.82794238648376E-17,1.,0.));
#227=DIRECTION('',(-5.82794238648376E-17,-1.,0.));
#228=DIRECTION('',(0.,0.,1.));
#229=DIRECTION('',(5.82794238648376E-17,1.,0.));
#230=DIRECTION('center_axis',(-1.,-3.49676543189026E-16,0.));
#231=DIRECTION('ref_axis',(3.49676543189026E-16,-1.,0.));
#232=DIRECTION('',(-3.49676543189026E-16,1.,0.));
#233=DIRECTION('',(0.,0.,1.));
#234=DIRECTION('center_axis',(0.,1.,0.));
#235=DIRECTION('ref_axis',(-1.,0.,0.));
#236=DIRECTION('',(-1.,0.,0.));
#237=DIRECTION('',(1.,0.,0.));
#238=DIRECTION('center_axis',(0.,0.,1.));
#239=DIRECTION('ref_axis',(1.,0.,0.));
#240=DIRECTION('center_axis',(0.,0.,1.));
#241=DIRECTION('ref_axis',(1.,0.,0.));
#242=CARTESIAN_POINT('',(0.,0.,0.));
#243=CARTESIAN_POINT('Origin',(-0.806717943125554,1.49565687575888,0.35));
#244=CARTESIAN_POINT('',(-0.629398316462288,1.49565687575888,0.1));
#245=CARTESIAN_POINT('',(-0.629398316462288,-0.00434312424112151,0.1));
#246=CARTESIAN_POINT('',(-0.629398316462288,1.49565687575888,0.1));
#247=CARTESIAN_POINT('',(-0.98403756978882,1.49565687575888,0.1));
#248=CARTESIAN_POINT('Origin',(-0.806717943125554,1.49565687575888,0.35));
#249=CARTESIAN_POINT('',(-0.984037569788821,-0.00434312424112151,0.1));
#250=CARTESIAN_POINT('',(-0.98403756978882,1.49565687575888,0.1));
#251=CARTESIAN_POINT('Origin',(-0.806717943125554,-0.00434312424112116,
0.349999999999999));
#252=CARTESIAN_POINT('Origin',(-0.806717943125554,0.245656875758879,0.35));
#253=CARTESIAN_POINT('',(-0.806717943125554,1.49565687575888,0.5565));
#254=CARTESIAN_POINT('Origin',(-0.806717943125554,1.49565687575888,0.35));
#255=CARTESIAN_POINT('',(-0.806717943125554,-0.00434312424112151,0.5565));
#256=CARTESIAN_POINT('',(-0.806717943125554,0.245656875758879,0.5565));
#257=CARTESIAN_POINT('Origin',(-0.806717943125554,-0.00434312424112116,
0.349999999999999));
#258=CARTESIAN_POINT('Origin',(-1.18171794312555,-0.00434312424112151,0.));
#259=CARTESIAN_POINT('',(-1.18171794312555,-0.00434312424112151,0.1));
#260=CARTESIAN_POINT('',(-0.431717943125554,-0.00434312424112151,0.1));
#261=CARTESIAN_POINT('',(-1.18171794312555,-0.00434312424112151,0.));
#262=CARTESIAN_POINT('',(-1.18171794312555,-0.00434312424112151,0.));
#263=CARTESIAN_POINT('',(-0.431717943125554,-0.00434312424112151,0.));
#264=CARTESIAN_POINT('',(-0.431717943125554,-0.00434312424112151,0.));
#265=CARTESIAN_POINT('',(-0.431717943125554,-0.00434312424112151,0.1));
#266=CARTESIAN_POINT('',(-0.431717943125554,-0.00434312424112151,0.));
#267=CARTESIAN_POINT('',(-0.431717943125554,-0.00434312424112151,0.1));
#268=CARTESIAN_POINT('Origin',(-0.806717943125554,0.745656875758878,0.1));
#269=CARTESIAN_POINT('',(-1.18171794312555,1.49565687575888,0.1));
#270=CARTESIAN_POINT('',(-1.18171794312555,1.49565687575888,0.1));
#271=CARTESIAN_POINT('',(-1.18171794312555,-0.00434312424112151,0.1));
#272=CARTESIAN_POINT('Origin',(-0.431717943125554,-0.00434312424112151,
0.));
#273=CARTESIAN_POINT('',(-0.431717943125554,1.49565687575888,0.));
#274=CARTESIAN_POINT('',(-0.431717943125554,1.49565687575888,0.));
#275=CARTESIAN_POINT('',(-0.431717943125554,1.49565687575888,0.1));
#276=CARTESIAN_POINT('',(-0.431717943125554,1.49565687575888,0.));
#277=CARTESIAN_POINT('',(-0.431717943125554,1.49565687575888,0.1));
#278=CARTESIAN_POINT('Origin',(-1.18171794312555,1.49565687575888,0.));
#279=CARTESIAN_POINT('',(-1.18171794312555,1.49565687575888,0.));
#280=CARTESIAN_POINT('',(-1.18171794312555,-0.00434312424112151,0.));
#281=CARTESIAN_POINT('',(-1.18171794312555,1.49565687575888,0.));
#282=CARTESIAN_POINT('Origin',(-0.431717943125554,1.49565687575888,0.));
#283=CARTESIAN_POINT('',(-1.18171794312555,1.49565687575888,0.1));
#284=CARTESIAN_POINT('',(-1.18171794312555,1.49565687575888,0.));
#285=CARTESIAN_POINT('Origin',(-0.806717943125554,0.745656875758878,0.1));
#286=CARTESIAN_POINT('Origin',(-0.806717943125554,0.745656875758878,0.));
#287=UNCERTAINTY_MEASURE_WITH_UNIT(LENGTH_MEASURE(0.000393700787401575),
#292,'DISTANCE_ACCURACY_VALUE',
'Maximum model space distance between geometric entities at asserted c
onnectivities');
#288=UNCERTAINTY_MEASURE_WITH_UNIT(LENGTH_MEASURE(0.000393700787401575),
#292,'DISTANCE_ACCURACY_VALUE',
'Maximum model space distance between geometric entities at asserted c
onnectivities');
#289=(
GEOMETRIC_REPRESENTATION_CONTEXT(3)
GLOBAL_UNCERTAINTY_ASSIGNED_CONTEXT((#287))
GLOBAL_UNIT_ASSIGNED_CONTEXT((#292,#296,#297))
REPRESENTATION_CONTEXT('','3D')
);
#290=(
GEOMETRIC_REPRESENTATION_CONTEXT(3)
GLOBAL_UNCERTAINTY_ASSIGNED_CONTEXT((#288))
GLOBAL_UNIT_ASSIGNED_CONTEXT((#292,#296,#297))
REPRESENTATION_CONTEXT('','3D')
);
#291=DIMENSIONAL_EXPONENTS(1.,0.,0.,0.,0.,0.,0.);
#292=(
CONVERSION_BASED_UNIT('inch',#295)
LENGTH_UNIT()
NAMED_UNIT(#291)
);
#293=(
LENGTH_UNIT()
NAMED_UNIT(*)
SI_UNIT(.MILLI.,.METRE.)
);
#294=(
LENGTH_UNIT()
NAMED_UNIT(*)
SI_UNIT($,.METRE.)
);
#295=LENGTH_MEASURE_WITH_UNIT(LENGTH_MEASURE(25.4),#293);
#296=(
NAMED_UNIT(*)
PLANE_ANGLE_UNIT()
SI_UNIT($,.RADIAN.)
);
#297=(
NAMED_UNIT(*)
SI_UNIT($,.STERADIAN.)
SOLID_ANGLE_UNIT()
);
#298=SHAPE_DEFINITION_REPRESENTATION(#299,#300);
#299=PRODUCT_DEFINITION_SHAPE('',$,#302);
#300=SHAPE_REPRESENTATION('',(#183),#289);
#301=PRODUCT_DEFINITION_CONTEXT('part definition',#306,'design');
#302=PRODUCT_DEFINITION('hinge','hinge v5',#303,#301);
#303=PRODUCT_DEFINITION_FORMATION('',$,#308);
#304=PRODUCT_RELATED_PRODUCT_CATEGORY('hinge v5','hinge v5',(#308));
#305=APPLICATION_PROTOCOL_DEFINITION('international standard',
'automotive_design',2009,#306);
#306=APPLICATION_CONTEXT(
'Core Data for Automotive Mechanical Design Process');
#307=PRODUCT_CONTEXT('part definition',#306,'mechanical');
#308=PRODUCT('hinge','hinge v5',$,(#307));
#309=PRESENTATION_STYLE_ASSIGNMENT((#310));
#310=SURFACE_STYLE_USAGE(.BOTH.,#311);
#311=SURFACE_SIDE_STYLE('',(#312));
#312=SURFACE_STYLE_FILL_AREA(#313);
#313=FILL_AREA_STYLE('Steel - Satin',(#314));
#314=FILL_AREA_STYLE_COLOUR('Steel - Satin',#315);
#315=COLOUR_RGB('Steel - Satin',0.627450980392157,0.627450980392157,0.627450980392157);
ENDSEC;
END-ISO-10303-21;
