ISO-10303-21;
HEADER;
/* Generated by software containing ST-Developer
 * from STEP Tools, Inc. (www.steptools.com) 
 */

FILE_DESCRIPTION(
/* description */ ('',
'CAx-IF Rec.Pracs.---Representation and Presentation of Product Manufa
cturing Information (PMI)---4.0---2014-10-13'),
/* implementation_level */ '2;1');

FILE_NAME(
/* name */ 'bearing_block v1.step',
/* time_stamp */ '2025-02-04T21:37:19+01:00',
/* author */ (''),
/* organization */ (''),
/* preprocessor_version */ 'ST-DEVELOPER v20',
/* originating_system */ 'Autodesk Translation Framework v13.20.0.188',

/* authorisation */ '');

FILE_SCHEMA (('AP242_MANAGED_MODEL_BASED_3D_ENGINEERING_MIM_LF { 1 0 10303 442 1 1 4 }'));
ENDSEC;

DATA;
#10=MECHANICAL_DESIGN_GEOMETRIC_PRESENTATION_REPRESENTATION('',(#13),#357);
#11=SHAPE_REPRESENTATION_RELATIONSHIP('SRR','None',#364,#12);
#12=ADVANCED_BREP_SHAPE_REPRESENTATION('',(#14),#356);
#13=STYLED_ITEM('',(#373),#14);
#14=MANIFOLD_SOLID_BREP('Body1',#205);
#15=FACE_BOUND('',#45,.T.);
#16=FACE_BOUND('',#53,.T.);
#17=FACE_BOUND('',#54,.T.);
#18=FACE_BOUND('',#57,.T.);
#19=FACE_BOUND('',#59,.T.);
#20=PLANE('',#225);
#21=PLANE('',#229);
#22=PLANE('',#233);
#23=PLANE('',#234);
#24=PLANE('',#235);
#25=PLANE('',#236);
#26=PLANE('',#237);
#27=PLANE('',#238);
#28=PLANE('',#239);
#29=FACE_OUTER_BOUND('',#42,.T.);
#30=FACE_OUTER_BOUND('',#43,.T.);
#31=FACE_OUTER_BOUND('',#44,.T.);
#32=FACE_OUTER_BOUND('',#46,.T.);
#33=FACE_OUTER_BOUND('',#47,.T.);
#34=FACE_OUTER_BOUND('',#48,.T.);
#35=FACE_OUTER_BOUND('',#49,.T.);
#36=FACE_OUTER_BOUND('',#50,.T.);
#37=FACE_OUTER_BOUND('',#51,.T.);
#38=FACE_OUTER_BOUND('',#52,.T.);
#39=FACE_OUTER_BOUND('',#55,.T.);
#40=FACE_OUTER_BOUND('',#56,.T.);
#41=FACE_OUTER_BOUND('',#58,.T.);
#42=EDGE_LOOP('',(#140,#141,#142,#143));
#43=EDGE_LOOP('',(#144,#145,#146,#147));
#44=EDGE_LOOP('',(#148));
#45=EDGE_LOOP('',(#149));
#46=EDGE_LOOP('',(#150,#151,#152,#153));
#47=EDGE_LOOP('',(#154));
#48=EDGE_LOOP('',(#155,#156,#157,#158));
#49=EDGE_LOOP('',(#159));
#50=EDGE_LOOP('',(#160,#161,#162,#163));
#51=EDGE_LOOP('',(#164,#165,#166,#167));
#52=EDGE_LOOP('',(#168,#169,#170,#171));
#53=EDGE_LOOP('',(#172));
#54=EDGE_LOOP('',(#173));
#55=EDGE_LOOP('',(#174,#175,#176,#177));
#56=EDGE_LOOP('',(#178,#179,#180,#181));
#57=EDGE_LOOP('',(#182));
#58=EDGE_LOOP('',(#183,#184,#185,#186));
#59=EDGE_LOOP('',(#187));
#60=LINE('',#305,#76);
#61=LINE('',#311,#77);
#62=LINE('',#318,#78);
#63=LINE('',#325,#79);
#64=LINE('',#331,#80);
#65=LINE('',#333,#81);
#66=LINE('',#335,#82);
#67=LINE('',#336,#83);
#68=LINE('',#339,#84);
#69=LINE('',#341,#85);
#70=LINE('',#342,#86);
#71=LINE('',#345,#87);
#72=LINE('',#347,#88);
#73=LINE('',#348,#89);
#74=LINE('',#350,#90);
#75=LINE('',#351,#91);
#76=VECTOR('',#246,5.5);
#77=VECTOR('',#253,6.5);
#78=VECTOR('',#262,2.4);
#79=VECTOR('',#271,2.4);
#80=VECTOR('',#278,10.);
#81=VECTOR('',#279,10.);
#82=VECTOR('',#280,10.);
#83=VECTOR('',#281,10.);
#84=VECTOR('',#284,10.);
#85=VECTOR('',#285,10.);
#86=VECTOR('',#286,10.);
#87=VECTOR('',#289,10.);
#88=VECTOR('',#290,10.);
#89=VECTOR('',#291,10.);
#90=VECTOR('',#294,10.);
#91=VECTOR('',#295,10.);
#92=CIRCLE('',#220,5.5);
#93=CIRCLE('',#221,5.5);
#94=CIRCLE('',#223,6.5);
#95=CIRCLE('',#224,6.5);
#96=CIRCLE('',#227,2.4);
#97=CIRCLE('',#228,2.4);
#98=CIRCLE('',#231,2.4);
#99=CIRCLE('',#232,2.4);
#100=VERTEX_POINT('',#302);
#101=VERTEX_POINT('',#304);
#102=VERTEX_POINT('',#308);
#103=VERTEX_POINT('',#310);
#104=VERTEX_POINT('',#315);
#105=VERTEX_POINT('',#317);
#106=VERTEX_POINT('',#322);
#107=VERTEX_POINT('',#324);
#108=VERTEX_POINT('',#329);
#109=VERTEX_POINT('',#330);
#110=VERTEX_POINT('',#332);
#111=VERTEX_POINT('',#334);
#112=VERTEX_POINT('',#338);
#113=VERTEX_POINT('',#340);
#114=VERTEX_POINT('',#344);
#115=VERTEX_POINT('',#346);
#116=EDGE_CURVE('',#100,#100,#92,.T.);
#117=EDGE_CURVE('',#100,#101,#60,.T.);
#118=EDGE_CURVE('',#101,#101,#93,.T.);
#119=EDGE_CURVE('',#102,#102,#94,.T.);
#120=EDGE_CURVE('',#102,#103,#61,.T.);
#121=EDGE_CURVE('',#103,#103,#95,.T.);
#122=EDGE_CURVE('',#104,#104,#96,.T.);
#123=EDGE_CURVE('',#104,#105,#62,.T.);
#124=EDGE_CURVE('',#105,#105,#97,.T.);
#125=EDGE_CURVE('',#106,#106,#98,.T.);
#126=EDGE_CURVE('',#106,#107,#63,.T.);
#127=EDGE_CURVE('',#107,#107,#99,.T.);
#128=EDGE_CURVE('',#108,#109,#64,.T.);
#129=EDGE_CURVE('',#109,#110,#65,.T.);
#130=EDGE_CURVE('',#111,#110,#66,.T.);
#131=EDGE_CURVE('',#108,#111,#67,.T.);
#132=EDGE_CURVE('',#112,#108,#68,.T.);
#133=EDGE_CURVE('',#113,#111,#69,.T.);
#134=EDGE_CURVE('',#112,#113,#70,.T.);
#135=EDGE_CURVE('',#114,#112,#71,.T.);
#136=EDGE_CURVE('',#115,#113,#72,.T.);
#137=EDGE_CURVE('',#114,#115,#73,.T.);
#138=EDGE_CURVE('',#109,#114,#74,.T.);
#139=EDGE_CURVE('',#110,#115,#75,.T.);
#140=ORIENTED_EDGE('',*,*,#116,.F.);
#141=ORIENTED_EDGE('',*,*,#117,.T.);
#142=ORIENTED_EDGE('',*,*,#118,.F.);
#143=ORIENTED_EDGE('',*,*,#117,.F.);
#144=ORIENTED_EDGE('',*,*,#119,.F.);
#145=ORIENTED_EDGE('',*,*,#120,.T.);
#146=ORIENTED_EDGE('',*,*,#121,.T.);
#147=ORIENTED_EDGE('',*,*,#120,.F.);
#148=ORIENTED_EDGE('',*,*,#121,.F.);
#149=ORIENTED_EDGE('',*,*,#116,.T.);
#150=ORIENTED_EDGE('',*,*,#122,.F.);
#151=ORIENTED_EDGE('',*,*,#123,.T.);
#152=ORIENTED_EDGE('',*,*,#124,.T.);
#153=ORIENTED_EDGE('',*,*,#123,.F.);
#154=ORIENTED_EDGE('',*,*,#124,.F.);
#155=ORIENTED_EDGE('',*,*,#125,.F.);
#156=ORIENTED_EDGE('',*,*,#126,.T.);
#157=ORIENTED_EDGE('',*,*,#127,.T.);
#158=ORIENTED_EDGE('',*,*,#126,.F.);
#159=ORIENTED_EDGE('',*,*,#127,.F.);
#160=ORIENTED_EDGE('',*,*,#128,.T.);
#161=ORIENTED_EDGE('',*,*,#129,.T.);
#162=ORIENTED_EDGE('',*,*,#130,.F.);
#163=ORIENTED_EDGE('',*,*,#131,.F.);
#164=ORIENTED_EDGE('',*,*,#132,.T.);
#165=ORIENTED_EDGE('',*,*,#131,.T.);
#166=ORIENTED_EDGE('',*,*,#133,.F.);
#167=ORIENTED_EDGE('',*,*,#134,.F.);
#168=ORIENTED_EDGE('',*,*,#135,.T.);
#169=ORIENTED_EDGE('',*,*,#134,.T.);
#170=ORIENTED_EDGE('',*,*,#136,.F.);
#171=ORIENTED_EDGE('',*,*,#137,.F.);
#172=ORIENTED_EDGE('',*,*,#122,.T.);
#173=ORIENTED_EDGE('',*,*,#125,.T.);
#174=ORIENTED_EDGE('',*,*,#138,.T.);
#175=ORIENTED_EDGE('',*,*,#137,.T.);
#176=ORIENTED_EDGE('',*,*,#139,.F.);
#177=ORIENTED_EDGE('',*,*,#129,.F.);
#178=ORIENTED_EDGE('',*,*,#139,.T.);
#179=ORIENTED_EDGE('',*,*,#136,.T.);
#180=ORIENTED_EDGE('',*,*,#133,.T.);
#181=ORIENTED_EDGE('',*,*,#130,.T.);
#182=ORIENTED_EDGE('',*,*,#119,.T.);
#183=ORIENTED_EDGE('',*,*,#138,.F.);
#184=ORIENTED_EDGE('',*,*,#128,.F.);
#185=ORIENTED_EDGE('',*,*,#132,.F.);
#186=ORIENTED_EDGE('',*,*,#135,.F.);
#187=ORIENTED_EDGE('',*,*,#118,.T.);
#188=CYLINDRICAL_SURFACE('',#219,5.5);
#189=CYLINDRICAL_SURFACE('',#222,6.5);
#190=CYLINDRICAL_SURFACE('',#226,2.4);
#191=CYLINDRICAL_SURFACE('',#230,2.4);
#192=ADVANCED_FACE('',(#29),#188,.F.);
#193=ADVANCED_FACE('',(#30),#189,.F.);
#194=ADVANCED_FACE('',(#31,#15),#20,.T.);
#195=ADVANCED_FACE('',(#32),#190,.F.);
#196=ADVANCED_FACE('',(#33),#21,.T.);
#197=ADVANCED_FACE('',(#34),#191,.F.);
#198=ADVANCED_FACE('',(#35),#22,.T.);
#199=ADVANCED_FACE('',(#36),#23,.T.);
#200=ADVANCED_FACE('',(#37),#24,.T.);
#201=ADVANCED_FACE('',(#38,#16,#17),#25,.T.);
#202=ADVANCED_FACE('',(#39),#26,.T.);
#203=ADVANCED_FACE('',(#40,#18),#27,.T.);
#204=ADVANCED_FACE('',(#41,#19),#28,.F.);
#205=CLOSED_SHELL('',(#192,#193,#194,#195,#196,#197,#198,#199,#200,#201,
#202,#203,#204));
#206=DERIVED_UNIT_ELEMENT(#208,1.);
#207=DERIVED_UNIT_ELEMENT(#359,-3.);
#208=(
MASS_UNIT()
NAMED_UNIT(*)
SI_UNIT(.KILO.,.GRAM.)
);
#209=DERIVED_UNIT((#206,#207));
#210=MEASURE_REPRESENTATION_ITEM('density measure',
POSITIVE_RATIO_MEASURE(7850.),#209);
#211=PROPERTY_DEFINITION_REPRESENTATION(#216,#213);
#212=PROPERTY_DEFINITION_REPRESENTATION(#217,#214);
#213=REPRESENTATION('material name',(#215),#356);
#214=REPRESENTATION('density',(#210),#356);
#215=DESCRIPTIVE_REPRESENTATION_ITEM('Steel','Steel');
#216=PROPERTY_DEFINITION('material property','material name',#366);
#217=PROPERTY_DEFINITION('material property','density of part',#366);
#218=AXIS2_PLACEMENT_3D('',#300,#240,#241);
#219=AXIS2_PLACEMENT_3D('',#301,#242,#243);
#220=AXIS2_PLACEMENT_3D('',#303,#244,#245);
#221=AXIS2_PLACEMENT_3D('',#306,#247,#248);
#222=AXIS2_PLACEMENT_3D('',#307,#249,#250);
#223=AXIS2_PLACEMENT_3D('',#309,#251,#252);
#224=AXIS2_PLACEMENT_3D('',#312,#254,#255);
#225=AXIS2_PLACEMENT_3D('',#313,#256,#257);
#226=AXIS2_PLACEMENT_3D('',#314,#258,#259);
#227=AXIS2_PLACEMENT_3D('',#316,#260,#261);
#228=AXIS2_PLACEMENT_3D('',#319,#263,#264);
#229=AXIS2_PLACEMENT_3D('',#320,#265,#266);
#230=AXIS2_PLACEMENT_3D('',#321,#267,#268);
#231=AXIS2_PLACEMENT_3D('',#323,#269,#270);
#232=AXIS2_PLACEMENT_3D('',#326,#272,#273);
#233=AXIS2_PLACEMENT_3D('',#327,#274,#275);
#234=AXIS2_PLACEMENT_3D('',#328,#276,#277);
#235=AXIS2_PLACEMENT_3D('',#337,#282,#283);
#236=AXIS2_PLACEMENT_3D('',#343,#287,#288);
#237=AXIS2_PLACEMENT_3D('',#349,#292,#293);
#238=AXIS2_PLACEMENT_3D('',#352,#296,#297);
#239=AXIS2_PLACEMENT_3D('',#353,#298,#299);
#240=DIRECTION('axis',(0.,0.,1.));
#241=DIRECTION('refdir',(1.,0.,0.));
#242=DIRECTION('center_axis',(0.,-1.,0.));
#243=DIRECTION('ref_axis',(-1.,0.,0.));
#244=DIRECTION('center_axis',(0.,-1.,0.));
#245=DIRECTION('ref_axis',(-1.,0.,0.));
#246=DIRECTION('',(0.,-1.,0.));
#247=DIRECTION('center_axis',(0.,1.,0.));
#248=DIRECTION('ref_axis',(-1.,0.,0.));
#249=DIRECTION('center_axis',(0.,-1.,0.));
#250=DIRECTION('ref_axis',(-1.,0.,0.));
#251=DIRECTION('center_axis',(0.,-1.,0.));
#252=DIRECTION('ref_axis',(-1.,0.,0.));
#253=DIRECTION('',(0.,-1.,0.));
#254=DIRECTION('center_axis',(0.,-1.,0.));
#255=DIRECTION('ref_axis',(-1.,0.,0.));
#256=DIRECTION('center_axis',(0.,1.,0.));
#257=DIRECTION('ref_axis',(-1.,0.,0.));
#258=DIRECTION('center_axis',(0.,0.,-1.));
#259=DIRECTION('ref_axis',(1.,0.,0.));
#260=DIRECTION('center_axis',(0.,0.,-1.));
#261=DIRECTION('ref_axis',(1.,0.,0.));
#262=DIRECTION('',(0.,0.,-1.));
#263=DIRECTION('center_axis',(0.,0.,-1.));
#264=DIRECTION('ref_axis',(1.,0.,0.));
#265=DIRECTION('center_axis',(0.,0.,1.));
#266=DIRECTION('ref_axis',(1.,0.,0.));
#267=DIRECTION('center_axis',(0.,0.,-1.));
#268=DIRECTION('ref_axis',(1.,0.,0.));
#269=DIRECTION('center_axis',(0.,0.,-1.));
#270=DIRECTION('ref_axis',(1.,0.,0.));
#271=DIRECTION('',(0.,0.,-1.));
#272=DIRECTION('center_axis',(0.,0.,-1.));
#273=DIRECTION('ref_axis',(1.,0.,0.));
#274=DIRECTION('center_axis',(0.,0.,1.));
#275=DIRECTION('ref_axis',(1.,0.,0.));
#276=DIRECTION('center_axis',(0.,0.,-1.));
#277=DIRECTION('ref_axis',(-1.,0.,0.));
#278=DIRECTION('',(-1.,0.,0.));
#279=DIRECTION('',(0.,1.,0.));
#280=DIRECTION('',(-1.,0.,0.));
#281=DIRECTION('',(0.,1.,0.));
#282=DIRECTION('center_axis',(1.,0.,0.));
#283=DIRECTION('ref_axis',(0.,0.,-1.));
#284=DIRECTION('',(0.,0.,-1.));
#285=DIRECTION('',(0.,0.,-1.));
#286=DIRECTION('',(0.,1.,0.));
#287=DIRECTION('center_axis',(0.,0.,1.));
#288=DIRECTION('ref_axis',(1.,0.,0.));
#289=DIRECTION('',(1.,0.,0.));
#290=DIRECTION('',(1.,0.,0.));
#291=DIRECTION('',(0.,1.,0.));
#292=DIRECTION('center_axis',(-1.,0.,0.));
#293=DIRECTION('ref_axis',(0.,0.,1.));
#294=DIRECTION('',(0.,0.,1.));
#295=DIRECTION('',(0.,0.,1.));
#296=DIRECTION('center_axis',(0.,1.,0.));
#297=DIRECTION('ref_axis',(0.,0.,1.));
#298=DIRECTION('center_axis',(0.,1.,0.));
#299=DIRECTION('ref_axis',(1.,0.,0.));
#300=CARTESIAN_POINT('',(0.,0.,0.));
#301=CARTESIAN_POINT('Origin',(35.0000005215406,5.,-30.0000004470348));
#302=CARTESIAN_POINT('',(40.5000005215406,5.,-30.0000004470348));
#303=CARTESIAN_POINT('Origin',(35.0000005215406,5.,-30.0000004470348));
#304=CARTESIAN_POINT('',(40.5000005215406,0.,-30.0000004470348));
#305=CARTESIAN_POINT('',(40.5000005215406,5.,-30.0000004470348));
#306=CARTESIAN_POINT('Origin',(35.0000005215406,0.,-30.0000004470348));
#307=CARTESIAN_POINT('Origin',(35.0000005215406,10.,-30.0000004470348));
#308=CARTESIAN_POINT('',(41.5000005215406,10.,-30.0000004470348));
#309=CARTESIAN_POINT('Origin',(35.0000005215406,10.,-30.0000004470348));
#310=CARTESIAN_POINT('',(41.5000005215406,5.,-30.0000004470348));
#311=CARTESIAN_POINT('',(41.5000005215406,10.,-30.0000004470348));
#312=CARTESIAN_POINT('Origin',(35.0000005215406,5.,-30.0000004470348));
#313=CARTESIAN_POINT('Origin',(35.0000005215406,5.,-30.0000004470348));
#314=CARTESIAN_POINT('Origin',(10.0000001490116,5.00000007450581,0.));
#315=CARTESIAN_POINT('',(7.60000014901161,5.00000007450581,0.));
#316=CARTESIAN_POINT('Origin',(10.0000001490116,5.00000007450581,0.));
#317=CARTESIAN_POINT('',(7.60000014901161,5.00000007450581,-15.));
#318=CARTESIAN_POINT('',(7.60000014901161,5.00000007450581,0.));
#319=CARTESIAN_POINT('Origin',(10.0000001490116,5.00000007450581,-15.));
#320=CARTESIAN_POINT('Origin',(10.0000001490116,5.00000007450581,-15.));
#321=CARTESIAN_POINT('Origin',(59.9999998509884,5.00000007450581,0.));
#322=CARTESIAN_POINT('',(57.5999998509884,5.00000007450581,0.));
#323=CARTESIAN_POINT('Origin',(59.9999998509884,5.00000007450581,0.));
#324=CARTESIAN_POINT('',(57.5999998509884,5.00000007450581,-15.));
#325=CARTESIAN_POINT('',(57.5999998509884,5.00000007450581,0.));
#326=CARTESIAN_POINT('Origin',(59.9999998509884,5.00000007450581,-15.));
#327=CARTESIAN_POINT('Origin',(59.9999998509884,5.00000007450581,-15.));
#328=CARTESIAN_POINT('Origin',(70.,0.,-60.));
#329=CARTESIAN_POINT('',(70.,0.,-60.));
#330=CARTESIAN_POINT('',(0.,0.,-60.));
#331=CARTESIAN_POINT('',(70.,0.,-60.));
#332=CARTESIAN_POINT('',(0.,10.,-60.));
#333=CARTESIAN_POINT('',(0.,0.,-60.));
#334=CARTESIAN_POINT('',(70.,10.,-60.));
#335=CARTESIAN_POINT('',(70.,10.,-60.));
#336=CARTESIAN_POINT('',(70.,0.,-60.));
#337=CARTESIAN_POINT('Origin',(70.,0.,0.));
#338=CARTESIAN_POINT('',(70.,0.,0.));
#339=CARTESIAN_POINT('',(70.,0.,0.));
#340=CARTESIAN_POINT('',(70.,10.,0.));
#341=CARTESIAN_POINT('',(70.,10.,0.));
#342=CARTESIAN_POINT('',(70.,0.,0.));
#343=CARTESIAN_POINT('Origin',(0.,0.,0.));
#344=CARTESIAN_POINT('',(0.,0.,0.));
#345=CARTESIAN_POINT('',(0.,0.,0.));
#346=CARTESIAN_POINT('',(0.,10.,0.));
#347=CARTESIAN_POINT('',(0.,10.,0.));
#348=CARTESIAN_POINT('',(0.,0.,0.));
#349=CARTESIAN_POINT('Origin',(0.,0.,-60.));
#350=CARTESIAN_POINT('',(0.,0.,-60.));
#351=CARTESIAN_POINT('',(0.,10.,-60.));
#352=CARTESIAN_POINT('Origin',(35.,10.,-30.));
#353=CARTESIAN_POINT('Origin',(35.,0.,-30.));
#354=UNCERTAINTY_MEASURE_WITH_UNIT(LENGTH_MEASURE(0.01),#358,
'DISTANCE_ACCURACY_VALUE',
'Maximum model space distance between geometric entities at asserted c
onnectivities');
#355=UNCERTAINTY_MEASURE_WITH_UNIT(LENGTH_MEASURE(0.01),#358,
'DISTANCE_ACCURACY_VALUE',
'Maximum model space distance between geometric entities at asserted c
onnectivities');
#356=(
GEOMETRIC_REPRESENTATION_CONTEXT(3)
GLOBAL_UNCERTAINTY_ASSIGNED_CONTEXT((#354))
GLOBAL_UNIT_ASSIGNED_CONTEXT((#358,#360,#361))
REPRESENTATION_CONTEXT('','3D')
);
#357=(
GEOMETRIC_REPRESENTATION_CONTEXT(3)
GLOBAL_UNCERTAINTY_ASSIGNED_CONTEXT((#355))
GLOBAL_UNIT_ASSIGNED_CONTEXT((#358,#360,#361))
REPRESENTATION_CONTEXT('','3D')
);
#358=(
LENGTH_UNIT()
NAMED_UNIT(*)
SI_UNIT(.MILLI.,.METRE.)
);
#359=(
LENGTH_UNIT()
NAMED_UNIT(*)
SI_UNIT($,.METRE.)
);
#360=(
NAMED_UNIT(*)
PLANE_ANGLE_UNIT()
SI_UNIT($,.RADIAN.)
);
#361=(
NAMED_UNIT(*)
SI_UNIT($,.STERADIAN.)
SOLID_ANGLE_UNIT()
);
#362=SHAPE_DEFINITION_REPRESENTATION(#363,#364);
#363=PRODUCT_DEFINITION_SHAPE('',$,#366);
#364=SHAPE_REPRESENTATION('',(#218),#356);
#365=PRODUCT_DEFINITION_CONTEXT('part definition',#370,'design');
#366=PRODUCT_DEFINITION('bearing block','bearing block v1',#367,#365);
#367=PRODUCT_DEFINITION_FORMATION('',$,#372);
#368=PRODUCT_RELATED_PRODUCT_CATEGORY('bearing block v1',
'bearing block v1',(#372));
#369=APPLICATION_PROTOCOL_DEFINITION('international standard',
'ap242_managed_model_based_3d_engineering',2011,#370);
#370=APPLICATION_CONTEXT('Managed model based 3d engineering');
#371=PRODUCT_CONTEXT('part definition',#370,'mechanical');
#372=PRODUCT('bearing block','bearing block v1',$,(#371));
#373=PRESENTATION_STYLE_ASSIGNMENT((#374));
#374=SURFACE_STYLE_USAGE(.BOTH.,#375);
#375=SURFACE_SIDE_STYLE('',(#376));
#376=SURFACE_STYLE_FILL_AREA(#377);
#377=FILL_AREA_STYLE('Steel - Satin',(#378));
#378=FILL_AREA_STYLE_COLOUR('Steel - Satin',#379);
#379=COLOUR_RGB('Steel - Satin',0.627450980392157,0.627450980392157,0.627450980392157);
ENDSEC;
END-ISO-10303-21;
