  0
SECTION
  2
BLOCKS
  0
ENDSEC
  0
SECTION
  2
ENTITIES
  0
LINE
  8
0
 10
65
 20
90
 11
55
 21
90
  0
LINE
  8
0
 10
55
 20
90
 11
55
 21
80
  0
LINE
  8
0
 10
55
 20
80
 11
40
 21
80
  0
LINE
  8
0
 10
40
 20
80
 11
38.8267
 21
79.9077
  0
LINE
  8
0
 10
38.8267
 20
79.9077
 11
37.6824
 21
79.6329
  0
LINE
  8
0
 10
37.6824
 20
79.6329
 11
36.5951
 21
79.1825
  0
LINE
  8
0
 10
36.5951
 20
79.1825
 11
35.5916
 21
78.5676
  0
LINE
  8
0
 10
35.5916
 20
78.5676
 11
34.6967
 21
77.8033
  0
LINE
  8
0
 10
34.6967
 20
77.8033
 11
33.9324
 21
76.9084
  0
LINE
  8
0
 10
33.9324
 20
76.9084
 11
33.3174
 21
75.9049
  0
LINE
  8
0
 10
33.3174
 20
75.9049
 11
32.8671
 21
74.8176
  0
LINE
  8
0
 10
32.8671
 20
74.8176
 11
32.5923
 21
73.6732
  0
LINE
  8
0
 10
32.5923
 20
73.6732
 11
32.5
 21
72.5
  0
LINE
  8
0
 10
32.5
 20
72.5
 11
32.5
 21
7.5
  0
LINE
  8
0
 10
32.5
 20
7.5
 11
32.5923
 21
6.32674
  0
LINE
  8
0
 10
32.5923
 20
6.32674
 11
32.8671
 21
5.18236
  0
LINE
  8
0
 10
32.8671
 20
5.18236
 11
33.3174
 21
4.09506
  0
LINE
  8
0
 10
33.3174
 20
4.09506
 11
33.9324
 21
3.0916
  0
LINE
  8
0
 10
33.9324
 20
3.0916
 11
34.6967
 21
2.19669
  0
LINE
  8
0
 10
34.6967
 20
2.19669
 11
35.5916
 21
1.43236
  0
LINE
  8
0
 10
35.5916
 20
1.43236
 11
36.5951
 21
0.817444
  0
LINE
  8
0
 10
36.5951
 20
0.817444
 11
37.6824
 21
0.367065
  0
LINE
  8
0
 10
37.6824
 20
0.367065
 11
38.8267
 21
0.0923309
  0
LINE
  8
0
 10
38.8267
 20
0.0923309
 11
40
 21
0
  0
LINE
  8
0
 10
40
 20
0
 11
55
 21
0
  0
LINE
  8
0
 10
55
 20
0
 11
55
 21
-10
  0
LINE
  8
0
 10
55
 20
-10
 11
65
 21
-10
  0
LINE
  8
0
 10
65
 20
-10
 11
65
 21
90
  0
LINE
  8
0
 10
37.1089
 20
62.5308
 11
36.7274
 21
62.6224
  0
LINE
  8
0
 10
36.7274
 20
62.6224
 11
36.365
 21
62.7725
  0
LINE
  8
0
 10
36.365
 20
62.7725
 11
36.0305
 21
62.9774
  0
LINE
  8
0
 10
36.0305
 20
62.9774
 11
35.7322
 21
63.2322
  0
LINE
  8
0
 10
35.7322
 20
63.2322
 11
35.4774
 21
63.5305
  0
LINE
  8
0
 10
35.4774
 20
63.5305
 11
35.2725
 21
63.865
  0
LINE
  8
0
 10
35.2725
 20
63.865
 11
35.1224
 21
64.2274
  0
LINE
  8
0
 10
35.1224
 20
64.2274
 11
35.0308
 21
64.6089
  0
LINE
  8
0
 10
35.0308
 20
64.6089
 11
35
 21
65
  0
LINE
  8
0
 10
35
 20
65
 11
35.0308
 21
65.3911
  0
LINE
  8
0
 10
35.0308
 20
65.3911
 11
35.1224
 21
65.7725
  0
LINE
  8
0
 10
35.1224
 20
65.7725
 11
35.2725
 21
66.135
  0
LINE
  8
0
 10
35.2725
 20
66.135
 11
35.4774
 21
66.4695
  0
LINE
  8
0
 10
35.4774
 20
66.4695
 11
35.7322
 21
66.7678
  0
LINE
  8
0
 10
35.7322
 20
66.7678
 11
36.0305
 21
67.0225
  0
LINE
  8
0
 10
36.0305
 20
67.0225
 11
36.365
 21
67.2275
  0
LINE
  8
0
 10
36.365
 20
67.2275
 11
36.7274
 21
67.3776
  0
LINE
  8
0
 10
36.7274
 20
67.3776
 11
37.1089
 21
67.4692
  0
LINE
  8
0
 10
37.1089
 20
67.4692
 11
37.5
 21
67.5
  0
LINE
  8
0
 10
37.5
 20
67.5
 11
37.8911
 21
67.4692
  0
LINE
  8
0
 10
37.8911
 20
67.4692
 11
38.2725
 21
67.3776
  0
LINE
  8
0
 10
38.2725
 20
67.3776
 11
38.635
 21
67.2275
  0
LINE
  8
0
 10
38.635
 20
67.2275
 11
38.9695
 21
67.0225
  0
LINE
  8
0
 10
38.9695
 20
67.0225
 11
39.2678
 21
66.7678
  0
LINE
  8
0
 10
39.2678
 20
66.7678
 11
39.5225
 21
66.4695
  0
LINE
  8
0
 10
39.5225
 20
66.4695
 11
39.7275
 21
66.135
  0
LINE
  8
0
 10
39.7275
 20
66.135
 11
39.8776
 21
65.7725
  0
LINE
  8
0
 10
39.8776
 20
65.7725
 11
39.9692
 21
65.3911
  0
LINE
  8
0
 10
39.9692
 20
65.3911
 11
40
 21
65
  0
LINE
  8
0
 10
40
 20
65
 11
39.9692
 21
64.6089
  0
LINE
  8
0
 10
39.9692
 20
64.6089
 11
39.8776
 21
64.2274
  0
LINE
  8
0
 10
39.8776
 20
64.2274
 11
39.7275
 21
63.865
  0
LINE
  8
0
 10
39.7275
 20
63.865
 11
39.5225
 21
63.5305
  0
LINE
  8
0
 10
39.5225
 20
63.5305
 11
39.2678
 21
63.2322
  0
LINE
  8
0
 10
39.2678
 20
63.2322
 11
38.9695
 21
62.9774
  0
LINE
  8
0
 10
38.9695
 20
62.9774
 11
38.635
 21
62.7725
  0
LINE
  8
0
 10
38.635
 20
62.7725
 11
38.2725
 21
62.6224
  0
LINE
  8
0
 10
38.2725
 20
62.6224
 11
37.8911
 21
62.5308
  0
LINE
  8
0
 10
37.8911
 20
62.5308
 11
37.5
 21
62.5
  0
LINE
  8
0
 10
37.5
 20
62.5
 11
37.1089
 21
62.5308
  0
LINE
  8
0
 10
37.1089
 20
12.5308
 11
36.7274
 21
12.6223
  0
LINE
  8
0
 10
36.7274
 20
12.6223
 11
36.365
 21
12.7725
  0
LINE
  8
0
 10
36.365
 20
12.7725
 11
36.0305
 21
12.9774
  0
LINE
  8
0
 10
36.0305
 20
12.9774
 11
35.7322
 21
13.2322
  0
LINE
  8
0
 10
35.7322
 20
13.2322
 11
35.4774
 21
13.5305
  0
LINE
  8
0
 10
35.4774
 20
13.5305
 11
35.2725
 21
13.865
  0
LINE
  8
0
 10
35.2725
 20
13.865
 11
35.1224
 21
14.2274
  0
LINE
  8
0
 10
35.1224
 20
14.2274
 11
35.0308
 21
14.6089
  0
LINE
  8
0
 10
35.0308
 20
14.6089
 11
35
 21
15
  0
LINE
  8
0
 10
35
 20
15
 11
35.0308
 21
15.3911
  0
LINE
  8
0
 10
35.0308
 20
15.3911
 11
35.1224
 21
15.7725
  0
LINE
  8
0
 10
35.1224
 20
15.7725
 11
35.2725
 21
16.135
  0
LINE
  8
0
 10
35.2725
 20
16.135
 11
35.4774
 21
16.4695
  0
LINE
  8
0
 10
35.4774
 20
16.4695
 11
35.7322
 21
16.7678
  0
LINE
  8
0
 10
35.7322
 20
16.7678
 11
36.0305
 21
17.0225
  0
LINE
  8
0
 10
36.0305
 20
17.0225
 11
36.365
 21
17.2275
  0
LINE
  8
0
 10
36.365
 20
17.2275
 11
36.7274
 21
17.3776
  0
LINE
  8
0
 10
36.7274
 20
17.3776
 11
37.1089
 21
17.4692
  0
LINE
  8
0
 10
37.1089
 20
17.4692
 11
37.5
 21
17.5
  0
LINE
  8
0
 10
37.5
 20
17.5
 11
37.8911
 21
17.4692
  0
LINE
  8
0
 10
37.8911
 20
17.4692
 11
38.2725
 21
17.3776
  0
LINE
  8
0
 10
38.2725
 20
17.3776
 11
38.635
 21
17.2275
  0
LINE
  8
0
 10
38.635
 20
17.2275
 11
38.9695
 21
17.0225
  0
LINE
  8
0
 10
38.9695
 20
17.0225
 11
39.2678
 21
16.7678
  0
LINE
  8
0
 10
39.2678
 20
16.7678
 11
39.5225
 21
16.4695
  0
LINE
  8
0
 10
39.5225
 20
16.4695
 11
39.7275
 21
16.135
  0
LINE
  8
0
 10
39.7275
 20
16.135
 11
39.8776
 21
15.7725
  0
LINE
  8
0
 10
39.8776
 20
15.7725
 11
39.9692
 21
15.3911
  0
LINE
  8
0
 10
39.9692
 20
15.3911
 11
40
 21
15
  0
LINE
  8
0
 10
40
 20
15
 11
39.9692
 21
14.6089
  0
LINE
  8
0
 10
39.9692
 20
14.6089
 11
39.8776
 21
14.2274
  0
LINE
  8
0
 10
39.8776
 20
14.2274
 11
39.7275
 21
13.865
  0
LINE
  8
0
 10
39.7275
 20
13.865
 11
39.5225
 21
13.5305
  0
LINE
  8
0
 10
39.5225
 20
13.5305
 11
39.2678
 21
13.2322
  0
LINE
  8
0
 10
39.2678
 20
13.2322
 11
38.9695
 21
12.9774
  0
LINE
  8
0
 10
38.9695
 20
12.9774
 11
38.635
 21
12.7725
  0
LINE
  8
0
 10
38.635
 20
12.7725
 11
38.2725
 21
12.6223
  0
LINE
  8
0
 10
38.2725
 20
12.6223
 11
37.8911
 21
12.5308
  0
LINE
  8
0
 10
37.8911
 20
12.5308
 11
37.5
 21
12.5
  0
LINE
  8
0
 10
37.5
 20
12.5
 11
37.1089
 21
12.5308
  0
LINE
  8
0
 10
15.3911
 20
0.030777
 11
15.7725
 21
0.122345
  0
LINE
  8
0
 10
15.7725
 20
0.122345
 11
16.135
 21
0.272476
  0
LINE
  8
0
 10
16.135
 20
0.272476
 11
16.4695
 21
0.477448
  0
LINE
  8
0
 10
16.4695
 20
0.477448
 11
16.7678
 21
0.732224
  0
LINE
  8
0
 10
16.7678
 20
0.732224
 11
17.0225
 21
1.03053
  0
LINE
  8
0
 10
17.0225
 20
1.03053
 11
17.2275
 21
1.36502
  0
LINE
  8
0
 10
17.2275
 20
1.36502
 11
17.3776
 21
1.72745
  0
LINE
  8
0
 10
17.3776
 20
1.72745
 11
17.4692
 21
2.1089
  0
LINE
  8
0
 10
17.4692
 20
2.1089
 11
17.5
 21
2.5
  0
LINE
  8
0
 10
17.5
 20
2.5
 11
17.4692
 21
2.89108
  0
LINE
  8
0
 10
17.4692
 20
2.89108
 11
17.3776
 21
3.27254
  0
LINE
  8
0
 10
17.3776
 20
3.27254
 11
17.2275
 21
3.63496
  0
LINE
  8
0
 10
17.2275
 20
3.63496
 11
17.0225
 21
3.96945
  0
LINE
  8
0
 10
17.0225
 20
3.96945
 11
16.7678
 21
4.26776
  0
LINE
  8
0
 10
16.7678
 20
4.26776
 11
16.4695
 21
4.52254
  0
LINE
  8
0
 10
16.4695
 20
4.52254
 11
16.135
 21
4.72751
  0
LINE
  8
0
 10
16.135
 20
4.72751
 11
15.7725
 21
4.87764
  0
LINE
  8
0
 10
15.7725
 20
4.87764
 11
15.3911
 21
4.96921
  0
LINE
  8
0
 10
15.3911
 20
4.96921
 11
15
 21
5
  0
LINE
  8
0
 10
15
 20
5
 11
15
 21
75
  0
LINE
  8
0
 10
15
 20
75
 11
15.3911
 21
75.0308
  0
LINE
  8
0
 10
15.3911
 20
75.0308
 11
15.7725
 21
75.1224
  0
LINE
  8
0
 10
15.7725
 20
75.1224
 11
16.135
 21
75.2725
  0
LINE
  8
0
 10
16.135
 20
75.2725
 11
16.4695
 21
75.4774
  0
LINE
  8
0
 10
16.4695
 20
75.4774
 11
16.7678
 21
75.7322
  0
LINE
  8
0
 10
16.7678
 20
75.7322
 11
17.0225
 21
76.0305
  0
LINE
  8
0
 10
17.0225
 20
76.0305
 11
17.2275
 21
76.365
  0
LINE
  8
0
 10
17.2275
 20
76.365
 11
17.3776
 21
76.7274
  0
LINE
  8
0
 10
17.3776
 20
76.7274
 11
17.4692
 21
77.1089
  0
LINE
  8
0
 10
17.4692
 20
77.1089
 11
17.5
 21
77.5
  0
LINE
  8
0
 10
17.5
 20
77.5
 11
17.4692
 21
77.8911
  0
LINE
  8
0
 10
17.4692
 20
77.8911
 11
17.3776
 21
78.2725
  0
LINE
  8
0
 10
17.3776
 20
78.2725
 11
17.2275
 21
78.635
  0
LINE
  8
0
 10
17.2275
 20
78.635
 11
17.0225
 21
78.9695
  0
LINE
  8
0
 10
17.0225
 20
78.9695
 11
16.7678
 21
79.2678
  0
LINE
  8
0
 10
16.7678
 20
79.2678
 11
16.4695
 21
79.5225
  0
LINE
  8
0
 10
16.4695
 20
79.5225
 11
16.135
 21
79.7275
  0
LINE
  8
0
 10
16.135
 20
79.7275
 11
15.7725
 21
79.8776
  0
LINE
  8
0
 10
15.7725
 20
79.8776
 11
15.3911
 21
79.9692
  0
LINE
  8
0
 10
15.3911
 20
79.9692
 11
15
 21
80
  0
LINE
  8
0
 10
15
 20
80
 11
0
 21
80
  0
LINE
  8
0
 10
0
 20
80
 11
-0.391083
 21
79.9692
  0
LINE
  8
0
 10
-0.391083
 20
79.9692
 11
-0.772537
 21
79.8776
  0
LINE
  8
0
 10
-0.772537
 20
79.8776
 11
-1.13496
 21
79.7275
  0
LINE
  8
0
 10
-1.13496
 20
79.7275
 11
-1.46945
 21
79.5225
  0
LINE
  8
0
 10
-1.46945
 20
79.5225
 11
-1.76776
 21
79.2678
  0
LINE
  8
0
 10
-1.76776
 20
79.2678
 11
-2.02254
 21
78.9695
  0
LINE
  8
0
 10
-2.02254
 20
78.9695
 11
-2.22751
 21
78.635
  0
LINE
  8
0
 10
-2.22751
 20
78.635
 11
-2.37764
 21
78.2725
  0
LINE
  8
0
 10
-2.37764
 20
78.2725
 11
-2.46921
 21
77.8911
  0
LINE
  8
0
 10
-2.46921
 20
77.8911
 11
-2.5
 21
77.5
  0
LINE
  8
0
 10
-2.5
 20
77.5
 11
-2.46921
 21
77.1089
  0
LINE
  8
0
 10
-2.46921
 20
77.1089
 11
-2.37764
 21
76.7274
  0
LINE
  8
0
 10
-2.37764
 20
76.7274
 11
-2.22751
 21
76.365
  0
LINE
  8
0
 10
-2.22751
 20
76.365
 11
-2.02254
 21
76.0305
  0
LINE
  8
0
 10
-2.02254
 20
76.0305
 11
-1.76776
 21
75.7322
  0
LINE
  8
0
 10
-1.76776
 20
75.7322
 11
-1.46945
 21
75.4774
  0
LINE
  8
0
 10
-1.46945
 20
75.4774
 11
-1.13496
 21
75.2725
  0
LINE
  8
0
 10
-1.13496
 20
75.2725
 11
-0.772537
 21
75.1224
  0
LINE
  8
0
 10
-0.772537
 20
75.1224
 11
-0.391083
 21
75.0308
  0
LINE
  8
0
 10
-0.391083
 20
75.0308
 11
0
 21
75
  0
LINE
  8
0
 10
0
 20
75
 11
0
 21
5
  0
LINE
  8
0
 10
0
 20
5
 11
-0.391083
 21
4.96921
  0
LINE
  8
0
 10
-0.391083
 20
4.96921
 11
-0.772537
 21
4.87764
  0
LINE
  8
0
 10
-0.772537
 20
4.87764
 11
-1.13496
 21
4.72751
  0
LINE
  8
0
 10
-1.13496
 20
4.72751
 11
-1.46945
 21
4.52254
  0
LINE
  8
0
 10
-1.46945
 20
4.52254
 11
-1.76776
 21
4.26776
  0
LINE
  8
0
 10
-1.76776
 20
4.26776
 11
-2.02254
 21
3.96945
  0
LINE
  8
0
 10
-2.02254
 20
3.96945
 11
-2.22751
 21
3.63496
  0
LINE
  8
0
 10
-2.22751
 20
3.63496
 11
-2.37764
 21
3.27254
  0
LINE
  8
0
 10
-2.37764
 20
3.27254
 11
-2.46921
 21
2.89108
  0
LINE
  8
0
 10
-2.46921
 20
2.89108
 11
-2.5
 21
2.5
  0
LINE
  8
0
 10
-2.5
 20
2.5
 11
-2.46921
 21
2.1089
  0
LINE
  8
0
 10
-2.46921
 20
2.1089
 11
-2.37764
 21
1.72745
  0
LINE
  8
0
 10
-2.37764
 20
1.72745
 11
-2.22751
 21
1.36502
  0
LINE
  8
0
 10
-2.22751
 20
1.36502
 11
-2.02254
 21
1.03053
  0
LINE
  8
0
 10
-2.02254
 20
1.03053
 11
-1.76776
 21
0.732224
  0
LINE
  8
0
 10
-1.76776
 20
0.732224
 11
-1.46945
 21
0.477448
  0
LINE
  8
0
 10
-1.46945
 20
0.477448
 11
-1.13496
 21
0.272476
  0
LINE
  8
0
 10
-1.13496
 20
0.272476
 11
-0.772537
 21
0.122345
  0
LINE
  8
0
 10
-0.772537
 20
0.122345
 11
-0.391083
 21
0.030777
  0
LINE
  8
0
 10
-0.391083
 20
0.030777
 11
0
 21
0
  0
LINE
  8
0
 10
0
 20
0
 11
15
 21
0
  0
LINE
  8
0
 10
15
 20
0
 11
15.3911
 21
0.030777
  0
ENDSEC
  0
SECTION
  2
OBJECTS
  0
DICTIONARY
  0
ENDSEC
  0
EOF
