999
"DXF R12 Output" (www.mydxf.blogspot.com)
 0 
SECTION
 2 
HEADER
 9 
$ACADVER
 1 
AC1009
 9 
$EXTMIN
 10 
 0 
 20 
 0 
 9 
$EXTMAX
 10 
 8.5 
 20 
 11 
 0 
ENDSEC
 0 
SECTION
 2 
ENTITIES
0
LINE
8
Image
10
0.000624
20
28.603600
11
0.000624
21
57.207200
0
LINE
8
Image
10
0.000624
20
57.207200
11
31.189100
21
57.207200
0
LINE
8
Image
10
31.189100
20
57.207200
11
62.377600
21
57.207200
0
LINE
8
Image
10
62.377600
20
57.207200
11
62.377600
21
28.603600
0
LINE
8
Image
10
62.377600
20
28.603600
11
62.377600
21
0.000079
0
LINE
8
Image
10
62.377600
20
0.000079
11
31.189100
21
0.000079
0
LINE
8
Image
10
31.189100
20
0.000079
11
0.000624
21
0.000079
0
LINE
8
Image
10
0.000624
20
0.000079
11
0.000624
21
28.603600
0
LINE
8
Image
10
62.208124
20
28.603600
11
62.208100
21
57.037700
0
LINE
8
Image
10
62.208100
20
57.037700
11
31.189100
21
57.037700
0
LINE
8
Image
10
31.189100
20
57.037700
11
0.170129
21
57.037700
0
LINE
8
Image
10
0.170129
20
57.037700
11
0.170129
21
28.603600
0
LINE
8
Image
10
0.170129
20
28.603600
11
0.170129
21
0.169582
0
LINE
8
Image
10
0.170129
20
0.169582
11
31.189100
21
0.169582
0
LINE
8
Image
10
31.189100
20
0.169582
11
62.208100
21
0.169582
0
LINE
8
Image
10
62.208100
20
0.169582
11
62.208124
21
28.603600
0
LINE
8
Image
10
11.601924
20
2.616500
11
12.808484
21
3.951330
0
LINE
8
Image
10
12.808484
20
3.951330
11
14.109754
21
5.254630
0
LINE
8
Image
10
14.109754
20
5.254630
11
15.899300
21
5.254660
0
LINE
8
Image
10
15.899300
20
5.254660
11
17.689000
21
5.254660
0
LINE
8
Image
10
17.689000
20
5.254660
11
18.425858
21
3.973420
0
LINE
8
Image
10
18.425858
20
3.973420
11
19.124653
21
2.654110
0
LINE
8
Image
10
19.124653
20
2.654110
11
11.601833
21
2.616523
0
LINE
8
Image
10
11.601833
20
2.616523
11
11.601924
21
2.616500
0
LINE
8
Image
10
18.885274
20
2.819631
11
18.233064
21
4.006151
0
LINE
8
Image
10
18.233064
20
4.006151
11
17.608254
21
5.085141
0
LINE
8
Image
10
17.608254
20
5.085141
11
15.858800
21
5.085160
0
LINE
8
Image
10
15.858800
20
5.085160
11
14.109400
21
5.085160
0
LINE
8
Image
10
14.109400
20
5.085160
11
12.987620
21
3.961070
0
LINE
8
Image
10
12.987620
20
3.961070
11
11.865840
21
2.774550
0
LINE
8
Image
10
11.865840
20
2.774550
11
15.389230
21
2.712122
0
LINE
8
Image
10
15.389230
20
2.712122
11
18.885220
21
2.819656
0
LINE
8
Image
10
18.885220
20
2.819656
11
18.885274
21
2.819631
0
LINE
8
Image
10
25.048934
20
2.627345
11
21.324094
21
2.669721
0
LINE
8
Image
10
21.324094
20
2.669721
11
20.619811
21
3.884121
0
LINE
8
Image
10
20.619811
20
3.884121
11
19.963770
21
5.176581
0
LINE
8
Image
10
19.963770
20
5.176581
11
22.446890
21
5.254635
0
LINE
8
Image
10
22.446890
20
5.254635
11
24.881700
21
5.254660
0
LINE
8
Image
10
24.881700
20
5.254660
11
27.032220
21
4.004580
0
LINE
8
Image
10
27.032220
20
4.004580
11
29.190100
21
2.679190
0
LINE
8
Image
10
29.190100
20
2.679190
11
28.711969
21
2.597298
0
LINE
8
Image
10
28.711969
20
2.597298
11
25.048860
21
2.627371
0
LINE
8
Image
10
25.048860
20
2.627371
11
25.048934
21
2.627345
0
LINE
8
Image
10
28.769534
20
2.789810
11
26.787674
21
3.976330
0
LINE
8
Image
10
26.787674
20
3.976330
11
24.886324
21
5.085140
0
LINE
8
Image
10
24.886324
20
5.085140
11
22.528800
21
5.085160
0
LINE
8
Image
10
22.528800
20
5.085160
11
20.171400
21
5.029574
0
LINE
8
Image
10
20.171400
20
5.029574
11
20.822401
21
3.843054
0
LINE
8
Image
10
20.822401
20
3.843054
11
21.473405
21
2.712124
0
LINE
8
Image
10
21.473405
20
2.712124
11
25.161700
21
2.712120
0
LINE
8
Image
10
25.161700
20
2.712120
11
28.769450
21
2.789833
0
LINE
8
Image
10
28.769450
20
2.789833
11
28.769534
21
2.789810
0
LINE
8
Image
10
33.169994
20
2.644811
11
35.508694
21
4.104851
0
LINE
8
Image
10
35.508694
20
4.104851
11
37.497534
21
5.254641
0
LINE
8
Image
10
37.497534
20
5.254641
11
39.931900
21
5.254660
0
LINE
8
Image
10
39.931900
20
5.254660
11
42.414540
21
5.176627
0
LINE
8
Image
10
42.414540
20
5.176627
11
41.071370
21
2.736837
0
LINE
8
Image
10
41.071370
20
2.736837
11
37.092400
21
2.609710
0
LINE
8
Image
10
37.092400
20
2.609710
11
33.169950
21
2.644830
0
LINE
8
Image
10
33.169950
20
2.644830
11
33.169994
21
2.644811
0
LINE
8
Image
10
41.552564
20
3.842821
11
42.206854
21
5.029341
0
LINE
8
Image
10
42.206854
20
5.029341
11
39.849454
21
5.085134
0
LINE
8
Image
10
39.849454
20
5.085134
11
37.492000
21
5.085160
0
LINE
8
Image
10
37.492000
20
5.085160
11
35.590650
21
3.976350
0
LINE
8
Image
10
35.590650
20
3.976350
11
33.608790
21
2.789830
0
LINE
8
Image
10
33.608790
20
2.789830
11
37.213250
21
2.712117
0
LINE
8
Image
10
37.213250
20
2.712117
11
40.898200
21
2.712120
0
LINE
8
Image
10
40.898200
20
2.712120
11
41.552564
21
3.842821
0
LINE
8
Image
10
46.762234
20
2.607081
11
43.223864
21
2.674505
0
LINE
8
Image
10
43.223864
20
2.674505
11
43.954827
21
3.987225
0
LINE
8
Image
10
43.954827
20
3.987225
11
44.685790
21
5.254635
0
LINE
8
Image
10
44.685790
20
5.254635
11
46.477100
21
5.254660
0
LINE
8
Image
10
46.477100
20
5.254660
11
48.268500
21
5.254660
0
LINE
8
Image
10
48.268500
20
5.254660
11
49.580090
21
3.941020
0
LINE
8
Image
10
49.580090
20
3.941020
11
50.807960
21
2.616440
0
LINE
8
Image
10
50.807960
20
2.616440
11
46.762110
21
2.607100
0
LINE
8
Image
10
46.762110
20
2.607100
11
46.762234
21
2.607081
0
LINE
8
Image
10
50.512484
20
2.776832
11
49.388394
21
3.963352
0
LINE
8
Image
10
49.388394
20
3.963352
11
48.264304
21
5.085132
0
LINE
8
Image
10
48.264304
20
5.085132
11
46.514900
21
5.085160
0
LINE
8
Image
10
46.514900
20
5.085160
11
44.765500
21
5.085160
0
LINE
8
Image
10
44.765500
20
5.085160
11
44.510696
21
4.640216
0
LINE
8
Image
10
44.510696
20
4.640216
11
43.866971
21
3.519316
0
LINE
8
Image
10
43.866971
20
3.519316
11
43.478050
21
2.777743
0
LINE
8
Image
10
43.478050
20
2.777743
11
46.995230
21
2.712126
0
LINE
8
Image
10
46.995230
20
2.712126
11
50.512410
21
2.776867
0
LINE
8
Image
10
50.512410
20
2.776867
11
50.512484
21
2.776832
0
LINE
8
Image
10
2.816484
20
3.919802
11
2.839873
21
5.212262
0
LINE
8
Image
10
2.839873
20
5.212262
11
3.517883
21
5.236842
0
LINE
8
Image
10
3.517883
20
5.236842
11
4.195895
21
5.261422
0
LINE
8
Image
10
4.195895
20
5.261422
11
4.725590
21
5.785288
0
LINE
8
Image
10
4.725590
20
5.785288
11
5.255285
21
6.309154
0
LINE
8
Image
10
5.255285
20
6.309154
11
5.787261
21
5.781906
0
LINE
8
Image
10
5.787261
20
5.781906
11
6.319237
21
5.254658
0
LINE
8
Image
10
6.319237
20
5.254658
11
7.058450
21
5.254680
0
LINE
8
Image
10
7.058450
20
5.254680
11
7.797740
21
5.254680
0
LINE
8
Image
10
7.797740
20
5.254680
11
7.797740
21
4.510450
0
LINE
8
Image
10
7.797740
20
4.510450
11
7.797740
21
3.766230
0
LINE
8
Image
10
7.797740
20
3.766230
11
8.306247
21
3.263028
0
LINE
8
Image
10
8.306247
20
3.263028
11
8.814754
21
2.693611
0
LINE
8
Image
10
8.814754
20
2.693611
11
5.803874
21
2.627394
0
LINE
8
Image
10
5.803874
20
2.627394
11
2.793000
21
2.627390
0
LINE
8
Image
10
2.793000
20
2.627390
11
2.816484
21
3.919802
0
LINE
8
Image
10
8.475844
20
2.778842
11
8.052085
21
3.262976
0
LINE
8
Image
10
8.052085
20
3.262976
11
7.628329
21
3.680361
0
LINE
8
Image
10
7.628329
20
3.680361
11
7.628240
21
4.382770
0
LINE
8
Image
10
7.628240
20
4.382770
11
7.628240
21
5.085160
0
LINE
8
Image
10
7.628240
20
5.085160
11
6.931500
21
5.085160
0
LINE
8
Image
10
6.931500
20
5.085160
11
6.234760
21
5.085160
0
LINE
8
Image
10
6.234760
20
5.085160
11
5.744982
21
5.569828
0
LINE
8
Image
10
5.744982
20
5.569828
11
5.255204
21
6.054494
0
LINE
8
Image
10
5.255204
20
6.054494
11
4.765426
21
5.569828
0
LINE
8
Image
10
4.765426
20
5.569828
11
4.275648
21
5.085160
0
LINE
8
Image
10
4.275648
20
5.085160
11
3.621290
21
5.085160
0
LINE
8
Image
10
3.621290
20
5.085160
11
2.966920
21
5.085160
0
LINE
8
Image
10
2.966920
20
5.085160
11
2.966920
21
3.898640
0
LINE
8
Image
10
2.966920
20
3.898640
11
2.966920
21
2.712120
0
LINE
8
Image
10
2.966920
20
2.712120
11
5.721340
21
2.712120
0
LINE
8
Image
10
5.721340
20
2.712120
11
8.475760
21
2.778869
0
LINE
8
Image
10
8.475760
20
2.778869
11
8.475844
21
2.778842
0
LINE
8
Image
10
53.563544
20
2.693559
11
54.072051
21
3.262976
0
LINE
8
Image
10
54.072051
20
3.262976
11
54.580558
21
3.766178
0
LINE
8
Image
10
54.580558
20
3.766178
11
54.580500
21
4.510430
0
LINE
8
Image
10
54.580500
20
4.510430
11
54.580500
21
5.254660
0
LINE
8
Image
10
54.580500
20
5.254660
11
55.319800
21
5.254660
0
LINE
8
Image
10
55.319800
20
5.254660
11
56.059100
21
5.254660
0
LINE
8
Image
10
56.059100
20
5.254660
11
56.591076
21
5.781908
0
LINE
8
Image
10
56.591076
20
5.781908
11
57.123052
21
6.309156
0
LINE
8
Image
10
57.123052
20
6.309156
11
57.652747
21
5.785290
0
LINE
8
Image
10
57.652747
20
5.785290
11
58.182442
21
5.261424
0
LINE
8
Image
10
58.182442
20
5.261424
11
58.860454
21
5.236844
0
LINE
8
Image
10
58.860454
20
5.236844
11
59.538464
21
5.212264
0
LINE
8
Image
10
59.538464
20
5.212264
11
59.561853
21
3.919804
0
LINE
8
Image
10
59.561853
20
3.919804
11
59.585242
21
2.627344
0
LINE
8
Image
10
59.585242
20
2.627344
11
56.574300
21
2.627350
0
LINE
8
Image
10
56.574300
20
2.627350
11
53.563420
21
2.693567
0
LINE
8
Image
10
53.563420
20
2.693567
11
53.563544
21
2.693559
0
LINE
8
Image
10
59.411384
20
3.898609
11
59.411300
21
5.085160
0
LINE
8
Image
10
59.411300
20
5.085160
11
58.756900
21
5.085160
0
LINE
8
Image
10
58.756900
20
5.085160
11
58.102600
21
5.085160
0
LINE
8
Image
10
58.102600
20
5.085160
11
57.612822
21
5.569828
0
LINE
8
Image
10
57.612822
20
5.569828
11
57.123044
21
6.054494
0
LINE
8
Image
10
57.123044
20
6.054494
11
56.633266
21
5.569828
0
LINE
8
Image
10
56.633266
20
5.569828
11
56.143488
21
5.085160
0
LINE
8
Image
10
56.143488
20
5.085160
11
55.446700
21
5.085160
0
LINE
8
Image
10
55.446700
20
5.085160
11
54.750000
21
5.085160
0
LINE
8
Image
10
54.750000
20
5.085160
11
54.750000
21
4.382770
0
LINE
8
Image
10
54.750000
20
4.382770
11
54.750000
21
3.680390
0
LINE
8
Image
10
54.750000
20
3.680390
11
54.326244
21
3.263005
0
LINE
8
Image
10
54.326244
20
3.263005
11
53.902488
21
2.778871
0
LINE
8
Image
10
53.902488
20
2.778871
11
56.656908
21
2.712122
0
LINE
8
Image
10
56.656908
20
2.712122
11
59.411300
21
2.712120
0
LINE
8
Image
10
59.411300
20
2.712120
11
59.411384
21
3.898609
0
LINE
8
Image
10
29.049184
20
4.385077
11
27.036344
21
5.602437
0
LINE
8
Image
10
27.036344
20
5.602437
11
27.407464
21
5.726378
0
LINE
8
Image
10
27.407464
20
5.726378
11
28.731374
21
5.765050
0
LINE
8
Image
10
28.731374
20
5.765050
11
30.045014
21
5.769283
0
LINE
8
Image
10
30.045014
20
5.769283
11
30.558919
21
6.672024
0
LINE
8
Image
10
30.558919
20
6.672024
11
31.162973
21
7.604814
0
LINE
8
Image
10
31.162973
20
7.604814
11
32.254143
21
5.906254
0
LINE
8
Image
10
32.254143
20
5.906254
11
32.538205
21
5.787117
0
LINE
8
Image
10
32.538205
20
5.787117
11
33.719583
21
5.761847
0
LINE
8
Image
10
33.719583
20
5.761847
11
35.042861
21
5.712394
0
LINE
8
Image
10
35.042861
20
5.712394
11
35.339523
21
5.567169
0
LINE
8
Image
10
35.339523
20
5.567169
11
31.184973
21
3.222249
0
LINE
8
Image
10
31.184973
20
3.222249
11
29.049193
21
4.385079
0
LINE
8
Image
10
29.049193
20
4.385079
11
29.049184
21
4.385077
0
LINE
8
Image
10
33.097084
20
4.428307
11
34.916094
21
5.527917
0
LINE
8
Image
10
34.916094
20
5.527917
11
33.585234
21
5.612668
0
LINE
8
Image
10
33.585234
20
5.612668
11
32.252254
21
5.636005
0
LINE
8
Image
10
32.252254
20
5.636005
11
31.741897
21
6.504655
0
LINE
8
Image
10
31.741897
20
6.504655
11
31.186162
21
7.373358
0
LINE
8
Image
10
31.186162
20
7.373358
11
30.632538
21
6.504708
0
LINE
8
Image
10
30.632538
20
6.504708
11
30.124295
21
5.636005
0
LINE
8
Image
10
30.124295
20
5.636005
11
28.731625
21
5.593629
0
LINE
8
Image
10
28.731625
20
5.593629
11
27.338955
21
5.551253
0
LINE
8
Image
10
27.338955
20
5.551253
11
29.200505
21
4.473583
0
LINE
8
Image
10
29.200505
20
4.473583
11
31.171135
21
3.393003
0
LINE
8
Image
10
31.171135
20
3.393003
11
33.097105
21
4.428293
0
LINE
8
Image
10
33.097105
20
4.428293
11
33.097084
21
4.428307
0
LINE
8
Image
10
9.890084
20
4.305816
11
9.691195
21
4.676531
0
LINE
8
Image
10
9.691195
20
4.676531
11
9.662349
21
5.831336
0
LINE
8
Image
10
9.662349
20
5.831336
11
9.662270
21
7.119190
0
LINE
8
Image
10
9.662270
20
7.119190
11
8.364480
21
7.119190
0
LINE
8
Image
10
8.364480
20
7.119190
11
7.066700
21
7.119190
0
LINE
8
Image
10
7.066700
20
7.119190
11
6.820918
21
7.375730
0
LINE
8
Image
10
6.820918
20
7.375730
11
6.575139
21
7.632267
0
LINE
8
Image
10
6.575139
20
7.632267
11
8.118709
21
9.177537
0
LINE
8
Image
10
8.118709
20
9.177537
11
9.662279
21
10.722797
0
LINE
8
Image
10
9.662279
20
10.722797
11
9.662270
21
12.306000
0
LINE
8
Image
10
9.662270
20
12.306000
11
9.731739
21
13.932180
0
LINE
8
Image
10
9.731739
20
13.932180
11
13.332249
21
11.921160
0
LINE
8
Image
10
13.332249
20
11.921160
11
14.078304
21
11.483831
0
LINE
8
Image
10
14.078304
20
11.483831
11
14.939127
21
10.000681
0
LINE
8
Image
10
14.939127
20
10.000681
11
16.527127
21
7.184751
0
LINE
8
Image
10
16.527127
20
7.184751
11
14.937157
21
7.119137
0
LINE
8
Image
10
14.937157
20
7.119137
11
13.347200
21
7.119190
0
LINE
8
Image
10
13.347200
20
7.119190
11
11.823440
21
5.593670
0
LINE
8
Image
10
11.823440
20
5.593670
11
10.208720
21
4.068150
0
LINE
8
Image
10
10.208720
20
4.068150
11
9.890019
21
4.305851
0
LINE
8
Image
10
9.890019
20
4.305851
11
9.890084
21
4.305816
0
LINE
8
Image
10
11.696384
20
5.720766
11
13.177714
21
7.203916
0
LINE
8
Image
10
13.177714
20
7.203916
11
14.725300
21
7.203940
0
LINE
8
Image
10
14.725300
20
7.203940
11
16.272920
21
7.299293
0
LINE
8
Image
10
16.272920
20
7.299293
11
13.914660
21
11.365953
0
LINE
8
Image
10
13.914660
20
11.365953
11
9.868750
21
13.729783
0
LINE
8
Image
10
9.868750
20
13.729783
11
9.831817
21
12.183913
0
LINE
8
Image
10
9.831817
20
12.183913
11
9.831780
21
10.638000
0
LINE
8
Image
10
9.831780
20
10.638000
11
8.302470
21
9.107010
0
LINE
8
Image
10
8.302470
20
9.107010
11
6.997202
21
7.758132
0
LINE
8
Image
10
6.997202
20
7.758132
11
6.873118
21
7.538794
0
LINE
8
Image
10
6.873118
20
7.538794
11
6.940760
21
7.424350
0
LINE
8
Image
10
6.940760
20
7.424350
11
7.319439
21
7.294981
0
LINE
8
Image
10
7.319439
20
7.294981
11
8.448880
21
7.244963
0
LINE
8
Image
10
8.448880
20
7.244963
11
9.789400
21
7.217256
0
LINE
8
Image
10
9.789400
20
7.217256
11
9.812816
21
5.879946
0
LINE
8
Image
10
9.812816
20
5.879946
11
9.974267
21
4.390116
0
LINE
8
Image
10
9.974267
20
4.390116
11
10.163626
21
4.237602
0
LINE
8
Image
10
10.163626
20
4.237602
11
11.696296
21
5.720752
0
LINE
8
Image
10
11.696296
20
5.720752
11
11.696384
21
5.720766
0
LINE
8
Image
10
50.554884
20
5.593639
11
49.031124
21
7.119159
0
LINE
8
Image
10
49.031124
20
7.119159
11
47.441100
21
7.119190
0
LINE
8
Image
10
47.441100
20
7.119190
11
45.851130
21
7.185947
0
LINE
8
Image
10
45.851130
20
7.185947
11
46.296074
21
8.023183
0
LINE
8
Image
10
46.296074
20
8.023183
11
47.503784
21
10.124243
0
LINE
8
Image
10
47.503784
20
10.124243
11
48.266545
21
11.454823
0
LINE
8
Image
10
48.266545
20
11.454823
11
49.029306
21
11.906374
0
LINE
8
Image
10
49.029306
20
11.906374
11
52.647286
21
13.931744
0
LINE
8
Image
10
52.647286
20
13.931744
11
52.715990
21
12.306034
0
LINE
8
Image
10
52.715990
20
12.306034
11
52.715900
21
10.722800
0
LINE
8
Image
10
52.715900
20
10.722800
11
54.259470
21
9.177540
0
LINE
8
Image
10
54.259470
20
9.177540
11
55.803040
21
7.632270
0
LINE
8
Image
10
55.803040
20
7.632270
11
55.557261
21
7.375733
0
LINE
8
Image
10
55.557261
20
7.375733
11
55.311482
21
7.119193
0
LINE
8
Image
10
55.311482
20
7.119193
11
54.013700
21
7.119190
0
LINE
8
Image
10
54.013700
20
7.119190
11
52.715900
21
7.119190
0
LINE
8
Image
10
52.715900
20
7.119190
11
52.715900
21
5.821400
0
LINE
8
Image
10
52.715900
20
5.821400
11
52.715900
21
4.523610
0
LINE
8
Image
10
52.715900
20
4.523610
11
52.478199
21
4.295878
0
LINE
8
Image
10
52.478199
20
4.295878
11
52.159498
21
4.068143
0
LINE
8
Image
10
52.159498
20
4.068143
11
50.554748
21
5.593663
0
LINE
8
Image
10
50.554748
20
5.593663
11
50.554884
21
5.593639
0
LINE
8
Image
10
52.404034
20
4.390129
11
52.565483
21
5.879959
0
LINE
8
Image
10
52.565483
20
5.879959
11
52.588899
21
7.217269
0
LINE
8
Image
10
52.588899
20
7.217269
11
53.929419
21
7.244976
0
LINE
8
Image
10
53.929419
20
7.244976
11
55.058861
21
7.294996
0
LINE
8
Image
10
55.058861
20
7.294996
11
55.437539
21
7.424363
0
LINE
8
Image
10
55.437539
20
7.424363
11
55.505182
21
7.538809
0
LINE
8
Image
10
55.505182
20
7.538809
11
55.381098
21
7.758148
0
LINE
8
Image
10
55.381098
20
7.758148
11
54.075829
21
9.107023
0
LINE
8
Image
10
54.075829
20
9.107023
11
52.546519
21
10.638013
0
LINE
8
Image
10
52.546519
20
10.638013
11
52.546400
21
12.183900
0
LINE
8
Image
10
52.546400
20
12.183900
11
52.508906
21
13.729770
0
LINE
8
Image
10
52.508906
20
13.729770
11
50.465506
21
12.569660
0
LINE
8
Image
10
50.465506
20
12.569660
11
48.827872
21
11.583867
0
LINE
8
Image
10
48.827872
20
11.583867
11
48.266856
21
11.107700
0
LINE
8
Image
10
48.266856
20
11.107700
11
46.087466
21
7.250010
0
LINE
8
Image
10
46.087466
20
7.250010
11
47.667046
21
7.203925
0
LINE
8
Image
10
47.667046
20
7.203925
11
49.200600
21
7.203940
0
LINE
8
Image
10
49.200600
20
7.203940
11
50.681930
21
5.720790
0
LINE
8
Image
10
50.681930
20
5.720790
11
52.214600
21
4.237640
0
LINE
8
Image
10
52.214600
20
4.237640
11
52.403959
21
4.390154
0
LINE
8
Image
10
52.403959
20
4.390154
11
52.404034
21
4.390129
0
LINE
8
Image
10
17.923334
20
7.521729
11
16.724234
21
9.583409
0
LINE
8
Image
10
16.724234
20
9.583409
11
16.175535
21
10.584448
0
LINE
8
Image
10
16.175535
20
10.584448
11
16.152174
21
10.848219
0
LINE
8
Image
10
16.152174
20
10.848219
11
17.454644
21
10.127834
0
LINE
8
Image
10
17.454644
20
10.127834
11
18.753604
21
9.407449
0
LINE
8
Image
10
18.753604
20
9.407449
11
19.716406
21
9.951363
0
LINE
8
Image
10
19.716406
20
9.951363
11
20.699395
21
10.454870
0
LINE
8
Image
10
20.699395
20
10.454870
11
20.764779
21
9.323740
0
LINE
8
Image
10
20.764779
20
9.323740
11
20.764700
21
8.233040
0
LINE
8
Image
10
20.764700
20
8.233040
11
22.078050
21
7.455670
0
LINE
8
Image
10
22.078050
20
7.455670
11
23.344320
21
6.602115
0
LINE
8
Image
10
23.344320
20
6.602115
11
20.899400
21
6.525931
0
LINE
8
Image
10
20.899400
20
6.525931
11
18.501600
21
6.525930
0
LINE
8
Image
10
18.501600
20
6.525930
11
17.923334
21
7.521729
0
LINE
8
Image
10
22.968324
20
6.727668
11
21.784294
21
7.453718
0
LINE
8
Image
10
21.784294
20
7.453718
11
20.600264
21
8.147506
0
LINE
8
Image
10
20.600264
20
8.147506
11
20.576584
21
9.201636
0
LINE
8
Image
10
20.576584
20
9.201636
11
20.552904
21
10.255766
0
LINE
8
Image
10
20.552904
20
10.255766
11
19.677409
21
9.746856
0
LINE
8
Image
10
19.677409
20
9.746856
11
18.757343
21
9.237949
0
LINE
8
Image
10
18.757343
20
9.237949
11
17.594763
21
9.873583
0
LINE
8
Image
10
17.594763
20
9.873583
11
16.422453
21
10.509217
0
LINE
8
Image
10
16.422453
20
10.509217
11
17.835803
21
7.966677
0
LINE
8
Image
10
17.835803
20
7.966677
11
18.339278
21
7.097977
0
LINE
8
Image
10
18.339278
20
7.097977
11
18.568396
21
6.695409
0
LINE
8
Image
10
18.568396
20
6.695409
11
20.768300
21
6.695430
0
LINE
8
Image
10
20.768300
20
6.695430
11
22.968260
21
6.727693
0
LINE
8
Image
10
22.968260
20
6.727693
11
22.968324
21
6.727668
0
LINE
8
Image
10
39.034624
20
6.601017
11
40.300894
21
7.458732
0
LINE
8
Image
10
40.300894
20
7.458732
11
41.613584
21
8.241333
0
LINE
8
Image
10
41.613584
20
8.241333
11
41.613500
21
9.327930
0
LINE
8
Image
10
41.613500
20
9.327930
11
41.678886
21
10.454900
0
LINE
8
Image
10
41.678886
20
10.454900
11
42.661873
21
9.951393
0
LINE
8
Image
10
42.661873
20
9.951393
11
43.613308
21
9.407479
0
LINE
8
Image
10
43.613308
20
9.407479
11
44.913928
21
10.127864
0
LINE
8
Image
10
44.913928
20
10.127864
11
46.227768
21
10.848249
0
LINE
8
Image
10
46.227768
20
10.848249
11
46.202088
21
10.583065
0
LINE
8
Image
10
46.202088
20
10.583065
11
45.654049
21
9.583439
0
LINE
8
Image
10
45.654049
20
9.583439
11
44.454949
21
7.521759
0
LINE
8
Image
10
44.454949
20
7.521759
11
43.876618
21
6.525932
0
LINE
8
Image
10
43.876618
20
6.525932
11
41.478800
21
6.525930
0
LINE
8
Image
10
41.478800
20
6.525930
11
39.034550
21
6.601045
0
LINE
8
Image
10
39.034550
20
6.601045
11
39.034624
21
6.601017
0
LINE
8
Image
10
44.151824
20
7.288663
11
45.238714
21
9.174383
0
LINE
8
Image
10
45.238714
20
9.174383
11
45.956559
21
10.509213
0
LINE
8
Image
10
45.956559
20
10.509213
11
44.783609
21
9.873579
0
LINE
8
Image
10
44.783609
20
9.873579
11
43.621029
21
9.237945
0
LINE
8
Image
10
43.621029
20
9.237945
11
42.700963
21
9.746852
0
LINE
8
Image
10
42.700963
20
9.746852
11
41.825466
21
10.255762
0
LINE
8
Image
10
41.825466
20
10.255762
11
41.801786
21
9.201632
0
LINE
8
Image
10
41.801786
20
9.201632
11
41.778106
21
8.147502
0
LINE
8
Image
10
41.778106
20
8.147502
11
40.594076
21
7.453714
0
LINE
8
Image
10
40.594076
20
7.453714
11
39.410046
21
6.726256
0
LINE
8
Image
10
39.410046
20
6.726256
11
41.623886
21
6.715170
0
LINE
8
Image
10
41.623886
20
6.715170
11
43.837726
21
6.737766
0
LINE
8
Image
10
43.837726
20
6.737766
11
44.151824
21
7.288663
0
LINE
8
Image
10
23.669024
20
8.079896
11
22.039074
21
9.026065
0
LINE
8
Image
10
22.039074
20
9.026065
11
22.037487
21
9.853638
0
LINE
8
Image
10
22.037487
20
9.853638
11
22.035899
21
10.681209
0
LINE
8
Image
10
22.035899
20
10.681209
11
22.311343
21
10.849468
0
LINE
8
Image
10
22.311343
20
10.849468
11
23.010541
21
11.239313
0
LINE
8
Image
10
23.010541
20
11.239313
11
23.434297
21
11.460896
0
LINE
8
Image
10
23.434297
20
11.460896
11
24.534697
21
10.819118
0
LINE
8
Image
10
24.534697
20
10.819118
11
25.635097
21
10.177338
0
LINE
8
Image
10
25.635097
20
10.177338
11
25.890713
21
10.597374
0
LINE
8
Image
10
25.890713
20
10.597374
11
26.379374
21
11.441322
0
LINE
8
Image
10
26.379374
20
11.441322
11
26.697188
21
11.865237
0
LINE
8
Image
10
26.697188
20
11.865237
11
26.781963
21
10.890595
0
LINE
8
Image
10
26.781963
20
10.890595
11
26.781900
21
9.915980
0
LINE
8
Image
10
26.781900
20
9.915980
11
27.962400
21
9.915980
0
LINE
8
Image
10
27.962400
20
9.915980
11
29.260720
21
9.798124
0
LINE
8
Image
10
29.260720
20
9.798124
11
29.740999
21
9.080435
0
LINE
8
Image
10
29.740999
20
9.080435
11
30.103425
21
8.480599
0
LINE
8
Image
10
30.103425
20
8.480599
11
29.692763
21
7.802090
0
LINE
8
Image
10
29.692763
20
7.802090
11
29.282098
21
7.123580
0
LINE
8
Image
10
29.282098
20
7.123580
11
27.290448
21
7.128660
0
LINE
8
Image
10
27.290448
20
7.128660
11
25.298798
21
7.133740
0
LINE
8
Image
10
25.298798
20
7.133740
11
23.668848
21
8.079907
0
LINE
8
Image
10
23.668848
20
8.079907
11
23.669024
21
8.079896
0
LINE
8
Image
10
29.526534
20
7.845536
11
29.922498
21
8.487162
0
LINE
8
Image
10
29.922498
20
8.487162
11
29.530058
21
9.116806
0
LINE
8
Image
10
29.530058
20
9.116806
11
29.137618
21
9.746453
0
LINE
8
Image
10
29.137618
20
9.746453
11
27.878000
21
9.746480
0
LINE
8
Image
10
27.878000
20
9.746480
11
26.618500
21
9.746480
0
LINE
8
Image
10
26.618500
20
9.746480
11
26.594344
21
10.615180
0
LINE
8
Image
10
26.594344
20
10.615180
11
26.570187
21
11.483880
0
LINE
8
Image
10
26.570187
20
11.483880
11
26.211455
21
10.848246
0
LINE
8
Image
10
26.211455
20
10.848246
11
25.775570
21
10.095140
0
LINE
8
Image
10
25.775570
20
10.095140
11
25.495075
21
10.127383
0
LINE
8
Image
10
25.495075
20
10.127383
11
24.611510
21
10.603647
0
LINE
8
Image
10
24.611510
20
10.603647
11
23.455550
21
11.258797
0
LINE
8
Image
10
23.455550
20
11.258797
11
22.748568
21
10.922980
0
LINE
8
Image
10
22.748568
20
10.922980
11
22.110648
21
10.557990
0
LINE
8
Image
10
22.110648
20
10.557990
11
22.136895
21
9.849363
0
LINE
8
Image
10
22.136895
20
9.849363
11
22.163115
21
9.140738
0
LINE
8
Image
10
22.163115
20
9.140738
11
23.815765
21
8.179540
0
LINE
8
Image
10
23.815765
20
8.179540
11
25.468415
21
7.218340
0
LINE
8
Image
10
25.468415
20
7.218340
11
27.299455
21
7.211143
0
LINE
8
Image
10
27.299455
20
7.211143
11
29.130495
21
7.203947
0
LINE
8
Image
10
29.130495
20
7.203947
11
29.526459
21
7.845571
0
LINE
8
Image
10
29.526459
20
7.845571
11
29.526534
21
7.845536
0
LINE
8
Image
10
32.686894
20
7.805285
11
32.277690
21
8.485402
0
LINE
8
Image
10
32.277690
20
8.485402
11
32.638658
21
9.082825
0
LINE
8
Image
10
32.638658
20
9.082825
11
33.117479
21
9.798099
0
LINE
8
Image
10
33.117479
20
9.798099
11
34.415799
21
9.915955
0
LINE
8
Image
10
34.415799
20
9.915955
11
35.596200
21
9.915980
0
LINE
8
Image
10
35.596200
20
9.915980
11
35.596200
21
10.890600
0
LINE
8
Image
10
35.596200
20
10.890600
11
35.673077
21
11.865242
0
LINE
8
Image
10
35.673077
20
11.865242
11
36.238052
21
11.021434
0
LINE
8
Image
10
36.238052
20
11.021434
11
36.775621
21
10.205516
0
LINE
8
Image
10
36.775621
20
10.205516
11
37.884481
21
10.847773
0
LINE
8
Image
10
37.884481
20
10.847773
11
38.943871
21
11.462143
0
LINE
8
Image
10
38.943871
20
11.462143
11
39.367630
21
11.239938
0
LINE
8
Image
10
39.367630
20
11.239938
11
40.066828
21
10.849474
0
LINE
8
Image
10
40.066828
20
10.849474
11
40.342269
21
10.681215
0
LINE
8
Image
10
40.342269
20
10.681215
11
40.342100
21
9.853644
0
LINE
8
Image
10
40.342100
20
9.853644
11
40.341931
21
9.026071
0
LINE
8
Image
10
40.341931
20
9.026071
11
39.430998
21
8.509004
0
LINE
8
Image
10
39.430998
20
8.509004
11
37.771808
21
7.555551
0
LINE
8
Image
10
37.771808
20
7.555551
11
37.023599
21
7.119166
0
LINE
8
Image
10
37.023599
20
7.119166
11
35.059819
21
7.122182
0
LINE
8
Image
10
35.059819
20
7.122182
11
33.096029
21
7.125198
0
LINE
8
Image
10
33.096029
20
7.125198
11
32.686825
21
7.805314
0
LINE
8
Image
10
32.686825
20
7.805314
11
32.686894
21
7.805285
0
LINE
8
Image
10
38.533904
20
8.172617
11
40.215214
21
9.141322
0
LINE
8
Image
10
40.215214
20
9.141322
11
40.240429
21
9.850232
0
LINE
8
Image
10
40.240429
20
9.850232
11
40.265644
21
10.559140
0
LINE
8
Image
10
40.265644
20
10.559140
11
39.628756
21
10.923542
0
LINE
8
Image
10
39.628756
20
10.923542
11
38.922806
21
11.258769
0
LINE
8
Image
10
38.922806
20
11.258769
11
37.766846
21
10.603619
0
LINE
8
Image
10
37.766846
20
10.603619
11
36.883283
21
10.127352
0
LINE
8
Image
10
36.883283
20
10.127352
11
36.602796
21
10.095112
0
LINE
8
Image
10
36.602796
20
10.095112
11
36.166909
21
10.848218
0
LINE
8
Image
10
36.166909
20
10.848218
11
35.808177
21
11.483852
0
LINE
8
Image
10
35.808177
20
11.483852
11
35.784021
21
10.615152
0
LINE
8
Image
10
35.784021
20
10.615152
11
35.759864
21
9.746452
0
LINE
8
Image
10
35.759864
20
9.746452
11
34.500200
21
9.746480
0
LINE
8
Image
10
34.500200
20
9.746480
11
33.240700
21
9.746480
0
LINE
8
Image
10
33.240700
20
9.746480
11
32.848260
21
9.116833
0
LINE
8
Image
10
32.848260
20
9.116833
11
32.455820
21
8.487189
0
LINE
8
Image
10
32.455820
20
8.487189
11
32.851784
21
7.845563
0
LINE
8
Image
10
32.851784
20
7.845563
11
33.247748
21
7.203939
0
LINE
8
Image
10
33.247748
20
7.203939
11
35.050100
21
7.203940
0
LINE
8
Image
10
35.050100
20
7.203940
11
36.852500
21
7.203940
0
LINE
8
Image
10
36.852500
20
7.203940
11
38.533904
21
8.172617
0
LINE
8
Image
10
4.002404
20
10.194127
11
2.794124
21
11.404567
0
LINE
8
Image
10
2.794124
20
11.404567
11
2.816984
21
13.296557
0
LINE
8
Image
10
2.816984
20
13.296557
11
2.839844
21
15.188547
0
LINE
8
Image
10
2.839844
20
15.188547
11
3.983984
21
15.856392
0
LINE
8
Image
10
3.983984
20
15.856392
11
5.247504
21
16.525393
0
LINE
8
Image
10
5.247504
20
16.525393
11
6.581964
21
15.827352
0
LINE
8
Image
10
6.581964
20
15.827352
11
7.797044
21
15.128154
0
LINE
8
Image
10
7.797044
20
15.128154
11
7.797309
21
13.289524
0
LINE
8
Image
10
7.797309
20
13.289524
11
7.797574
21
11.450894
0
LINE
8
Image
10
7.797574
20
11.450894
11
6.551784
21
10.217294
0
LINE
8
Image
10
6.551784
20
10.217294
11
5.258234
21
8.983684
0
LINE
8
Image
10
5.258234
20
8.983684
11
4.002194
21
10.194124
0
LINE
8
Image
10
4.002194
20
10.194124
11
4.002404
21
10.194127
0
LINE
8
Image
10
6.461864
20
10.317386
11
7.628294
21
11.481576
0
LINE
8
Image
10
7.628294
20
11.481576
11
7.628240
21
13.264200
0
LINE
8
Image
10
7.628240
20
13.264200
11
7.628240
21
15.046700
0
LINE
8
Image
10
7.628240
20
15.046700
11
6.493730
21
15.701892
0
LINE
8
Image
10
6.493730
20
15.701892
11
5.243650
21
16.354830
0
LINE
8
Image
10
5.243650
20
16.354830
11
4.068680
21
15.734573
0
LINE
8
Image
10
4.068680
20
15.734573
11
3.009290
21
15.116565
0
LINE
8
Image
10
3.009290
20
15.116565
11
2.986404
21
13.260695
0
LINE
8
Image
10
2.986404
20
13.260695
11
2.963517
21
11.404815
0
LINE
8
Image
10
2.963517
20
11.404815
11
4.086997
21
10.279015
0
LINE
8
Image
10
4.086997
20
10.279015
11
5.252937
21
9.153215
0
LINE
8
Image
10
5.252937
20
9.153215
11
6.461817
21
10.317405
0
LINE
8
Image
10
6.461817
20
10.317405
11
6.461864
21
10.317386
0
LINE
8
Image
10
55.826264
20
10.217292
11
54.580474
21
11.450892
0
LINE
8
Image
10
54.580474
20
11.450892
11
54.580739
21
13.289522
0
LINE
8
Image
10
54.580739
20
13.289522
11
54.581004
21
15.128152
0
LINE
8
Image
10
54.581004
20
15.128152
11
55.796084
21
15.827350
0
LINE
8
Image
10
55.796084
20
15.827350
11
57.130544
21
16.525391
0
LINE
8
Image
10
57.130544
20
16.525391
11
58.394064
21
15.856390
0
LINE
8
Image
10
58.394064
20
15.856390
11
59.538204
21
15.188545
0
LINE
8
Image
10
59.538204
20
15.188545
11
59.561064
21
13.296555
0
LINE
8
Image
10
59.561064
20
13.296555
11
59.583924
21
11.404565
0
LINE
8
Image
10
59.583924
20
11.404565
11
58.375644
21
10.194125
0
LINE
8
Image
10
58.375644
20
10.194125
11
57.119664
21
8.983685
0
LINE
8
Image
10
57.119664
20
8.983685
11
55.826114
21
10.217295
0
LINE
8
Image
10
55.826114
20
10.217295
11
55.826264
21
10.217292
0
LINE
8
Image
10
58.291224
20
10.278990
11
59.414704
21
11.404790
0
LINE
8
Image
10
59.414704
20
11.404790
11
59.391818
21
13.260670
0
LINE
8
Image
10
59.391818
20
13.260670
11
59.368932
21
15.116540
0
LINE
8
Image
10
59.368932
20
15.116540
11
58.309542
21
15.734548
0
LINE
8
Image
10
58.309542
20
15.734548
11
57.130792
21
16.354805
0
LINE
8
Image
10
57.130792
20
16.354805
11
55.880712
21
15.702769
0
LINE
8
Image
10
55.880712
20
15.702769
11
54.749982
21
15.048482
0
LINE
8
Image
10
54.749982
20
15.048482
11
54.750000
21
13.267300
0
LINE
8
Image
10
54.750000
20
13.267300
11
54.750000
21
11.486100
0
LINE
8
Image
10
54.750000
20
11.486100
11
55.914190
21
10.319670
0
LINE
8
Image
10
55.914190
20
10.319670
11
57.123080
21
9.153250
0
LINE
8
Image
10
57.123080
20
9.153250
11
58.291250
21
10.279050
0
LINE
8
Image
10
58.291250
20
10.279050
11
58.291224
21
10.278990
0
LINE
8
Image
10
30.724724
20
11.014877
11
30.303899
21
11.690045
0
LINE
8
Image
10
30.303899
20
11.690045
11
29.496410
21
11.714069
0
LINE
8
Image
10
29.496410
20
11.714069
11
28.688921
21
11.738093
0
LINE
8
Image
10
28.688921
20
11.738093
11
28.666035
21
13.546463
0
LINE
8
Image
10
28.666035
20
13.546463
11
28.643149
21
15.354833
0
LINE
8
Image
10
28.643149
20
15.354833
11
29.677879
21
17.148393
0
LINE
8
Image
10
29.677879
20
17.148393
11
30.917919
21
19.306063
0
LINE
8
Image
10
30.917919
20
19.306063
11
31.203584
21
19.643385
0
LINE
8
Image
10
31.203584
20
19.643385
11
32.505864
21
17.499495
0
LINE
8
Image
10
32.505864
20
17.499495
11
33.727784
21
15.382395
0
LINE
8
Image
10
33.727784
20
15.382395
11
33.708522
21
13.560245
0
LINE
8
Image
10
33.708522
20
13.560245
11
33.689260
21
11.738095
0
LINE
8
Image
10
33.689260
20
11.738095
11
32.881771
21
11.714071
0
LINE
8
Image
10
32.881771
20
11.714071
11
32.074282
21
11.690047
0
LINE
8
Image
10
32.074282
20
11.690047
11
31.653457
21
11.014879
0
LINE
8
Image
10
31.653457
20
11.014879
11
31.189095
21
10.339711
0
LINE
8
Image
10
31.189095
20
10.339711
11
30.724736
21
11.014879
0
LINE
8
Image
10
30.724736
20
11.014879
11
30.724724
21
11.014877
0
LINE
8
Image
10
31.612355
20
11.231412
11
31.993251
21
11.865234
0
LINE
8
Image
10
31.993251
20
11.865234
11
32.777700
21
11.865300
0
LINE
8
Image
10
32.777700
20
11.865300
11
33.562100
21
11.865300
0
LINE
8
Image
10
33.562100
20
11.865300
11
33.562100
21
13.604100
0
LINE
8
Image
10
33.562100
20
13.604100
11
33.562100
21
15.343000
0
LINE
8
Image
10
33.562100
20
15.343000
11
32.396770
21
17.374690
0
LINE
8
Image
10
32.396770
20
17.374690
11
31.189060
21
19.406200
0
LINE
8
Image
10
31.189060
20
19.406200
11
30.772225
21
18.750238
0
LINE
8
Image
10
30.772225
20
18.750238
11
29.606895
21
16.734308
0
LINE
8
Image
10
29.606895
20
16.734308
11
28.816025
21
15.374158
0
LINE
8
Image
10
28.816025
20
15.374158
11
28.816100
21
13.619700
0
LINE
8
Image
10
28.816100
20
13.619700
11
28.816100
21
11.865300
0
LINE
8
Image
10
28.816100
20
11.865300
11
29.600500
21
11.865300
0
LINE
8
Image
10
29.600500
20
11.865300
11
30.384900
21
11.865300
0
LINE
8
Image
10
30.384900
20
11.865300
11
30.765796
21
11.231478
0
LINE
8
Image
10
30.765796
20
11.231478
11
31.189065
21
10.597659
0
LINE
8
Image
10
31.189065
20
10.597659
11
31.612337
21
11.231478
0
LINE
8
Image
10
31.612337
20
11.231478
11
31.612355
21
11.231412
0
LINE
8
Image
10
17.110655
20
11.886422
11
15.448635
21
12.839873
0
LINE
8
Image
10
15.448635
20
12.839873
11
14.454396
21
14.556223
0
LINE
8
Image
10
14.454396
20
14.556223
11
13.460159
21
16.272573
0
LINE
8
Image
10
13.460159
20
16.272573
11
13.857565
21
16.950445
0
LINE
8
Image
10
13.857565
20
16.950445
11
14.395235
21
17.643274
0
LINE
8
Image
10
14.395235
20
17.643274
11
15.198054
21
17.673916
0
LINE
8
Image
10
15.198054
20
17.673916
11
15.769514
21
17.657525
0
LINE
8
Image
10
15.769514
20
17.657525
11
15.970390
21
17.510642
0
LINE
8
Image
10
15.970390
20
17.510642
11
16.572711
21
16.484172
0
LINE
8
Image
10
16.572711
20
16.484172
11
17.140048
21
15.537391
0
LINE
8
Image
10
17.140048
20
15.537391
11
18.010648
21
15.897584
0
LINE
8
Image
10
18.010648
20
15.897584
11
18.769425
21
16.304558
0
LINE
8
Image
10
18.769425
20
16.304558
11
18.984938
21
16.319446
0
LINE
8
Image
10
18.984938
20
16.319446
11
18.507477
21
15.466314
0
LINE
8
Image
10
18.507477
20
15.466314
11
18.104909
21
14.579048
0
LINE
8
Image
10
18.104909
20
14.579048
11
19.196819
21
13.914810
0
LINE
8
Image
10
19.196819
20
13.914810
11
20.213829
21
13.322300
0
LINE
8
Image
10
20.213829
20
13.322300
11
20.213800
21
12.490500
0
LINE
8
Image
10
20.213800
20
12.490500
11
20.213800
21
11.658600
0
LINE
8
Image
10
20.213800
20
11.658600
11
19.578166
21
11.296629
0
LINE
8
Image
10
19.578166
20
11.296629
11
18.857582
21
10.933814
0
LINE
8
Image
10
18.857582
20
10.933814
11
17.110622
21
11.886424
0
LINE
8
Image
10
17.110622
20
11.886424
11
17.110655
21
11.886422
0
LINE
8
Image
10
19.504325
20
11.420288
11
20.090292
21
11.738108
0
LINE
8
Image
10
20.090292
20
11.738108
11
20.067300
21
12.491146
0
LINE
8
Image
10
20.067300
20
12.491146
11
20.044334
21
13.244186
0
LINE
8
Image
10
20.044334
20
13.244186
11
18.988194
21
13.858598
0
LINE
8
Image
10
18.988194
20
13.858598
11
17.901304
21
14.565267
0
LINE
8
Image
10
17.901304
20
14.565267
11
18.258245
21
15.346925
0
LINE
8
Image
10
18.258245
20
15.346925
11
18.645938
21
16.065702
0
LINE
8
Image
10
18.645938
20
16.065702
11
17.930193
21
15.667311
0
LINE
8
Image
10
17.930193
20
15.667311
11
17.130456
21
15.291455
0
LINE
8
Image
10
17.130456
20
15.291455
11
16.441463
21
16.401065
0
LINE
8
Image
10
16.441463
20
16.401065
11
15.649497
21
17.505695
0
LINE
8
Image
10
15.649497
20
17.505695
11
14.914782
21
17.526915
0
LINE
8
Image
10
14.914782
20
17.526915
11
14.367032
21
17.501197
0
LINE
8
Image
10
14.367032
20
17.501197
11
14.003289
21
16.892659
0
LINE
8
Image
10
14.003289
20
16.892659
11
13.639546
21
16.284121
0
LINE
8
Image
10
13.639546
20
16.284121
11
14.596029
21
14.621171
0
LINE
8
Image
10
14.596029
20
14.621171
11
15.552515
21
12.958221
0
LINE
8
Image
10
15.552515
20
12.958221
11
17.162595
21
12.030350
0
LINE
8
Image
10
17.162595
20
12.030350
11
18.845515
21
11.102479
0
LINE
8
Image
10
18.845515
20
11.102479
11
19.504319
21
11.420296
0
LINE
8
Image
10
19.504319
20
11.420296
11
19.504325
21
11.420288
0
LINE
8
Image
10
42.800025
20
11.294257
11
42.164391
21
11.658598
0
LINE
8
Image
10
42.164391
20
11.658598
11
42.164400
21
12.490500
0
LINE
8
Image
10
42.164400
20
12.490500
11
42.164400
21
13.322300
0
LINE
8
Image
10
42.164400
20
13.322300
11
43.181410
21
13.914810
0
LINE
8
Image
10
43.181410
20
13.914810
11
44.273320
21
14.579048
0
LINE
8
Image
10
44.273320
20
14.579048
11
43.870752
21
15.466314
0
LINE
8
Image
10
43.870752
20
15.466314
11
43.393288
21
16.319446
0
LINE
8
Image
10
43.393288
20
16.319446
11
43.624009
21
16.302700
0
LINE
8
Image
10
43.624009
20
16.302700
11
44.367927
21
15.896621
0
LINE
8
Image
10
44.367927
20
15.896621
11
45.180022
21
15.471891
0
LINE
8
Image
10
45.180022
20
15.471891
11
45.762626
21
16.416817
0
LINE
8
Image
10
45.762626
20
16.416817
11
46.407798
21
17.512237
0
LINE
8
Image
10
46.407798
20
17.512237
11
46.626032
21
17.662502
0
LINE
8
Image
10
46.626032
20
17.662502
11
47.304311
21
17.681739
0
LINE
8
Image
10
47.304311
20
17.681739
11
48.088919
21
17.670679
0
LINE
8
Image
10
48.088919
20
17.670679
11
48.502999
21
16.976291
0
LINE
8
Image
10
48.502999
20
16.976291
11
48.917082
21
16.281906
0
LINE
8
Image
10
48.917082
20
16.281906
11
48.005437
21
14.688006
0
LINE
8
Image
10
48.005437
20
14.688006
11
46.966877
21
12.944766
0
LINE
8
Image
10
46.966877
20
12.944766
11
43.584907
21
10.966106
0
LINE
8
Image
10
43.584907
20
10.966106
11
42.800029
21
11.294237
0
LINE
8
Image
10
42.800029
20
11.294237
11
42.800025
21
11.294257
0
LINE
8
Image
10
45.277955
20
12.065411
11
46.828945
21
12.960860
0
LINE
8
Image
10
46.828945
20
12.960860
11
47.785386
21
14.619860
0
LINE
8
Image
10
47.785386
20
14.619860
11
48.741824
21
16.278860
0
LINE
8
Image
10
48.741824
20
16.278860
11
48.376102
21
16.890026
0
LINE
8
Image
10
48.376102
20
16.890026
11
48.010382
21
17.501194
0
LINE
8
Image
10
48.010382
20
17.501194
11
47.292900
21
17.501200
0
LINE
8
Image
10
47.292900
20
17.501200
11
46.575400
21
17.501200
0
LINE
8
Image
10
46.575400
20
17.501200
11
45.962771
21
16.449820
0
LINE
8
Image
10
45.962771
20
16.449820
11
45.269180
21
15.317480
0
LINE
8
Image
10
45.269180
20
15.317480
11
44.460265
21
15.664967
0
LINE
8
Image
10
44.460265
20
15.664967
11
43.732310
21
16.051779
0
LINE
8
Image
10
43.732310
20
16.051779
11
44.120885
21
15.336474
0
LINE
8
Image
10
44.120885
20
15.336474
11
44.477826
21
14.567905
0
LINE
8
Image
10
44.477826
20
14.567905
11
43.390056
21
13.858592
0
LINE
8
Image
10
43.390056
20
13.858592
11
42.333916
21
13.244180
0
LINE
8
Image
10
42.333916
20
13.244180
11
42.311109
21
12.491140
0
LINE
8
Image
10
42.311109
20
12.491140
11
42.288302
21
11.738102
0
LINE
8
Image
10
42.288302
20
11.738102
11
42.861979
21
11.420438
0
LINE
8
Image
10
42.861979
20
11.420438
11
43.581314
21
11.136366
0
LINE
8
Image
10
43.581314
20
11.136366
11
45.277954
21
12.065404
0
LINE
8
Image
10
45.277954
20
12.065404
11
45.277955
21
12.065411
0
LINE
8
Image
10
22.017855
20
13.621431
11
21.993593
21
14.445361
0
LINE
8
Image
10
21.993593
20
14.445361
11
21.372291
21
14.797854
0
LINE
8
Image
10
21.372291
20
14.797854
11
20.662089
21
15.239245
0
LINE
8
Image
10
20.662089
20
15.239245
11
21.452893
21
16.860785
0
LINE
8
Image
10
21.452893
20
16.860785
11
22.332600
21
18.393425
0
LINE
8
Image
10
22.332600
20
18.393425
11
24.464570
21
19.621145
0
LINE
8
Image
10
24.464570
20
19.621145
11
26.689290
21
20.848865
0
LINE
8
Image
10
26.689290
20
20.848865
11
26.782042
21
18.345995
0
LINE
8
Image
10
26.782042
20
18.345995
11
26.782000
21
15.843200
0
LINE
8
Image
10
26.782000
20
15.843200
11
26.016567
21
14.530380
0
LINE
8
Image
10
26.016567
20
14.530380
11
25.155450
21
13.007560
0
LINE
8
Image
10
25.155450
20
13.007560
11
24.944297
21
12.797560
0
LINE
8
Image
10
24.944297
20
12.797560
11
24.166053
21
13.182658
0
LINE
8
Image
10
24.166053
20
13.182658
11
23.503281
21
13.567756
0
LINE
8
Image
10
23.503281
20
13.567756
11
22.851915
21
13.182658
0
LINE
8
Image
10
22.851915
20
13.182658
11
22.121309
21
12.797560
0
LINE
8
Image
10
22.121309
20
12.797560
11
22.017809
21
13.621493
0
LINE
8
Image
10
22.017809
20
13.621493
11
22.017855
21
13.621431
0
LINE
8
Image
10
25.787505
20
14.421141
11
26.615110
21
15.869201
0
LINE
8
Image
10
26.615110
20
15.869201
11
26.592647
21
18.265621
0
LINE
8
Image
10
26.592647
20
18.265621
11
26.570184
21
20.662041
0
LINE
8
Image
10
26.570184
20
20.662041
11
24.504774
21
19.463001
0
LINE
8
Image
10
24.504774
20
19.463001
11
22.439364
21
18.263961
0
LINE
8
Image
10
22.439364
20
18.263961
11
21.603665
21
16.823191
0
LINE
8
Image
10
21.603665
20
16.823191
11
20.766424
21
15.340041
0
LINE
8
Image
10
20.766424
20
15.340041
11
21.442807
21
14.931702
0
LINE
8
Image
10
21.442807
20
14.931702
11
22.120735
21
14.565739
0
LINE
8
Image
10
22.120735
20
14.565739
11
22.120700
21
13.808800
0
LINE
8
Image
10
22.120700
20
13.808800
11
22.218159
21
13.051807
0
LINE
8
Image
10
22.218159
20
13.051807
11
22.904014
21
13.391042
0
LINE
8
Image
10
22.904014
20
13.391042
11
23.492410
21
13.730280
0
LINE
8
Image
10
23.492410
20
13.730280
11
24.141387
21
13.356395
0
LINE
8
Image
10
24.141387
20
13.356395
11
24.875118
21
12.977824
0
LINE
8
Image
10
24.875118
20
12.977824
11
25.787477
21
14.421194
0
LINE
8
Image
10
25.787477
20
14.421194
11
25.787505
21
14.421141
0
LINE
8
Image
10
37.222705
20
13.007501
11
36.361588
21
14.530321
0
LINE
8
Image
10
36.361588
20
14.530321
11
35.596155
21
15.843141
0
LINE
8
Image
10
35.596155
20
15.843141
11
35.596200
21
18.346000
0
LINE
8
Image
10
35.596200
20
18.346000
11
35.690492
21
20.848870
0
LINE
8
Image
10
35.690492
20
20.848870
11
39.902742
21
18.466020
0
LINE
8
Image
10
39.902742
20
18.466020
11
40.942776
21
16.832947
0
LINE
8
Image
10
40.942776
20
16.832947
11
41.716152
21
15.239250
0
LINE
8
Image
10
41.716152
20
15.239250
11
41.005950
21
14.797859
0
LINE
8
Image
10
41.005950
20
14.797859
11
40.384646
21
14.445366
0
LINE
8
Image
10
40.384646
20
14.445366
11
40.360384
21
13.621436
0
LINE
8
Image
10
40.360384
20
13.621436
11
40.256884
21
12.797503
0
LINE
8
Image
10
40.256884
20
12.797503
11
39.526278
21
13.182601
0
LINE
8
Image
10
39.526278
20
13.182601
11
38.874912
21
13.567699
0
LINE
8
Image
10
38.874912
20
13.567699
11
38.212140
21
13.182601
0
LINE
8
Image
10
38.212140
20
13.182601
11
37.433896
21
12.797503
0
LINE
8
Image
10
37.433896
20
12.797503
11
37.222743
21
13.007503
0
LINE
8
Image
10
37.222743
20
13.007503
11
37.222705
21
13.007501
0
LINE
8
Image
10
38.200696
20
13.350816
11
38.878134
21
13.734628
0
LINE
8
Image
10
38.878134
20
13.734628
11
39.470347
21
13.393192
0
LINE
8
Image
10
39.470347
20
13.393192
11
40.167939
21
13.051756
0
LINE
8
Image
10
40.167939
20
13.051756
11
40.244208
21
13.789186
0
LINE
8
Image
10
40.244208
20
13.789186
11
40.215101
21
14.526616
0
LINE
8
Image
10
40.215101
20
14.526616
11
40.826309
21
14.870764
0
LINE
8
Image
10
40.826309
20
14.870764
11
41.517614
21
15.298664
0
LINE
8
Image
10
41.517614
20
15.298664
11
40.767603
21
16.823184
0
LINE
8
Image
10
40.767603
20
16.823184
11
39.937495
21
18.263954
0
LINE
8
Image
10
39.937495
20
18.263954
11
37.872765
21
19.461254
0
LINE
8
Image
10
37.872765
20
19.461254
11
35.808035
21
20.658554
0
LINE
8
Image
10
35.808035
20
20.658554
11
35.785572
21
18.263884
0
LINE
8
Image
10
35.785572
20
18.263884
11
35.763109
21
15.869204
0
LINE
8
Image
10
35.763109
20
15.869204
11
36.590717
21
14.421144
0
LINE
8
Image
10
36.590717
20
14.421144
11
37.470799
21
12.970044
0
LINE
8
Image
10
37.470799
20
12.970044
11
38.200712
21
13.350816
0
LINE
8
Image
10
38.200712
20
13.350816
11
38.200696
21
13.350816
0
LINE
8
Image
10
11.208996
20
14.686516
11
9.153776
21
15.884886
0
LINE
8
Image
10
9.153776
20
15.884886
11
9.153770
21
18.324500
0
LINE
8
Image
10
9.153770
20
18.324500
11
9.235539
21
20.764120
0
LINE
8
Image
10
9.235539
20
20.764120
11
9.416707
21
20.573430
0
LINE
8
Image
10
9.416707
20
20.573430
11
10.156698
21
19.302160
0
LINE
8
Image
10
10.156698
20
19.302160
11
10.797296
21
18.221580
0
LINE
8
Image
10
10.797296
20
18.221580
11
11.877400
21
18.221600
0
LINE
8
Image
10
11.877400
20
18.221600
11
13.013080
21
18.131740
0
LINE
8
Image
10
13.013080
20
18.131740
11
12.551949
21
17.149108
0
LINE
8
Image
10
12.551949
20
17.149108
11
12.035634
21
16.158390
0
LINE
8
Image
10
12.035634
20
16.158390
11
12.747172
21
14.815640
0
LINE
8
Image
10
12.747172
20
14.815640
11
13.332929
21
13.723986
0
LINE
8
Image
10
13.332929
20
13.723986
11
13.313615
21
13.481850
0
LINE
8
Image
10
13.313615
20
13.481850
11
11.208955
21
14.686530
0
LINE
8
Image
10
11.208955
20
14.686530
11
11.208996
21
14.686516
0
LINE
8
Image
10
12.964946
20
14.132336
11
11.865816
21
16.174256
0
LINE
8
Image
10
11.865816
20
16.174256
11
12.366785
21
17.141595
0
LINE
8
Image
10
12.366785
20
17.141595
11
12.867754
21
18.009708
0
LINE
8
Image
10
12.867754
20
18.009708
11
11.792174
21
18.033230
0
LINE
8
Image
10
11.792174
20
18.033230
11
10.716604
21
18.056751
0
LINE
8
Image
10
10.716604
20
18.056751
11
10.131897
21
19.050250
0
LINE
8
Image
10
10.131897
20
19.050250
11
9.435234
21
20.210920
0
LINE
8
Image
10
9.435234
20
20.210920
11
9.343936
21
19.940221
0
LINE
8
Image
10
9.343936
20
19.940221
11
9.323278
21
18.172170
0
LINE
8
Image
10
9.323278
20
18.172170
11
9.323270
21
15.966300
0
LINE
8
Image
10
9.323270
20
15.966300
11
11.166610
21
14.894330
0
LINE
8
Image
10
11.166610
20
14.894330
11
13.081880
21
13.818470
0
LINE
8
Image
10
13.081880
20
13.818470
11
12.964934
21
14.132395
0
LINE
8
Image
10
12.964934
20
14.132395
11
12.964946
21
14.132336
0
LINE
8
Image
10
48.970046
20
13.520565
11
49.632165
21
14.824225
0
LINE
8
Image
10
49.632165
20
14.824225
11
50.342867
21
16.169015
0
LINE
8
Image
10
50.342867
20
16.169015
11
49.834357
21
17.133806
0
LINE
8
Image
10
49.834357
20
17.133806
11
49.325850
21
18.115240
0
LINE
8
Image
10
49.325850
20
18.115240
11
50.457460
21
18.221597
0
LINE
8
Image
10
50.457460
20
18.221597
11
51.589100
21
18.221600
0
LINE
8
Image
10
51.589100
20
18.221600
11
52.334549
21
19.492870
0
LINE
8
Image
10
52.334549
20
19.492870
11
53.152219
21
20.764140
0
LINE
8
Image
10
53.152219
20
20.764140
11
53.224440
21
18.323800
0
LINE
8
Image
10
53.224440
20
18.323800
11
53.224400
21
15.883500
0
LINE
8
Image
10
53.224400
20
15.883500
11
51.181390
21
14.700720
0
LINE
8
Image
10
51.181390
20
14.700720
11
49.250365
21
13.593193
0
LINE
8
Image
10
49.250365
20
13.593193
11
48.970030
21
13.520620
0
LINE
8
Image
10
48.970030
20
13.520620
11
48.970046
21
13.520565
0
LINE
8
Image
10
51.196896
20
14.893005
11
53.054906
21
15.971485
0
LINE
8
Image
10
53.054906
20
15.971485
11
53.052261
21
18.177115
0
LINE
8
Image
10
53.052261
20
18.177115
11
53.049615
21
20.382745
0
LINE
8
Image
10
53.049615
20
20.382745
11
52.838674
21
20.043740
0
LINE
8
Image
10
52.838674
20
20.043740
11
52.148438
21
18.880770
0
LINE
8
Image
10
52.148438
20
18.880770
11
51.669141
21
18.056800
0
LINE
8
Image
10
51.669141
20
18.056800
11
50.591261
21
18.033252
0
LINE
8
Image
10
50.591261
20
18.033252
11
49.513371
21
18.009704
0
LINE
8
Image
10
49.513371
20
18.009704
11
50.008946
21
17.162192
0
LINE
8
Image
10
50.008946
20
17.162192
11
50.508447
21
16.194853
0
LINE
8
Image
10
50.508447
20
16.194853
11
49.413237
21
14.132333
0
LINE
8
Image
10
49.413237
20
14.132333
11
49.281623
21
13.814516
0
LINE
8
Image
10
49.281623
20
13.814516
11
51.196903
21
14.893006
0
LINE
8
Image
10
51.196903
20
14.893006
11
51.196896
21
14.893005
0
LINE
8
Image
10
2.797396
20
19.948945
11
2.797420
21
22.523800
0
LINE
8
Image
10
2.797420
20
22.523800
11
3.976310
21
24.546690
0
LINE
8
Image
10
3.976310
20
24.546690
11
5.259740
21
26.569580
0
LINE
8
Image
10
5.259740
20
26.569580
11
6.578020
21
24.493170
0
LINE
8
Image
10
6.578020
20
24.493170
11
7.791760
21
22.416760
0
LINE
8
Image
10
7.791760
20
22.416760
11
7.794750
21
19.895410
0
LINE
8
Image
10
7.794750
20
19.895410
11
7.709567
21
17.374060
0
LINE
8
Image
10
7.709567
20
17.374060
11
6.437057
21
18.054753
0
LINE
8
Image
10
6.437057
20
18.054753
11
5.252717
21
18.735446
0
LINE
8
Image
10
5.252717
20
18.735446
11
4.078447
21
18.054753
0
LINE
8
Image
10
4.078447
20
18.054753
11
2.850797
21
17.374060
0
LINE
8
Image
10
2.850797
20
17.374060
11
2.797418
21
19.948930
0
LINE
8
Image
10
2.797418
20
19.948930
11
2.797396
21
19.948945
0
LINE
8
Image
10
7.218776
20
23.080845
11
6.061286
21
25.065255
0
LINE
8
Image
10
6.061286
20
25.065255
11
5.258967
21
26.357715
0
LINE
8
Image
10
5.258967
20
26.357715
11
4.084487
21
24.423135
0
LINE
8
Image
10
4.084487
20
24.423135
11
2.966907
21
22.488555
0
LINE
8
Image
10
2.966907
20
22.488555
11
2.966920
21
20.058500
0
LINE
8
Image
10
2.966920
20
20.058500
11
3.002266
21
17.628390
0
LINE
8
Image
10
3.002266
20
17.628390
11
4.146476
21
18.272742
0
LINE
8
Image
10
4.146476
20
18.272742
11
5.255336
21
18.917092
0
LINE
8
Image
10
5.255336
20
18.917092
11
6.420596
21
18.242757
0
LINE
8
Image
10
6.420596
20
18.242757
11
7.585856
21
17.568422
0
LINE
8
Image
10
7.585856
20
17.568422
11
7.608345
21
19.978692
0
LINE
8
Image
10
7.608345
20
19.978692
11
7.630835
21
22.388962
0
LINE
8
Image
10
7.630835
20
22.388962
11
7.218776
21
23.080845
0
LINE
8
Image
10
28.138076
20
19.863705
11
28.138100
21
22.353400
0
LINE
8
Image
10
28.138100
20
22.353400
11
28.890595
21
22.787689
0
LINE
8
Image
10
28.890595
20
22.787689
11
29.717806
21
23.221981
0
LINE
8
Image
10
29.717806
20
23.221981
11
30.251387
21
22.436958
0
LINE
8
Image
10
30.251387
20
22.436958
11
30.639812
21
21.540621
0
LINE
8
Image
10
30.639812
20
21.540621
11
28.201662
21
17.374651
0
LINE
8
Image
10
28.201662
20
17.374651
11
28.138099
21
19.863771
0
LINE
8
Image
10
28.138099
20
19.863771
11
28.138076
21
19.863705
0
LINE
8
Image
10
28.912222
20
18.796055
11
30.001732
21
20.696785
0
LINE
8
Image
10
30.001732
20
20.696785
11
30.528969
21
21.604077
0
LINE
8
Image
10
30.528969
20
21.604077
11
30.134224
21
22.328246
0
LINE
8
Image
10
30.134224
20
22.328246
11
29.680353
21
23.048653
0
LINE
8
Image
10
29.680353
20
23.048653
11
28.943219
21
22.638843
0
LINE
8
Image
10
28.943219
20
22.638843
11
28.265207
21
22.232793
0
LINE
8
Image
10
28.265207
20
22.232793
11
28.250232
21
20.015313
0
LINE
8
Image
10
28.250232
20
20.015313
11
28.292608
21
17.800223
0
LINE
8
Image
10
28.292608
20
17.800223
11
28.912214
21
18.796053
0
LINE
8
Image
10
28.912214
20
18.796053
11
28.912222
21
18.796055
0
LINE
8
Image
10
32.903252
20
19.474287
11
31.697632
21
21.638487
0
LINE
8
Image
10
31.697632
20
21.638487
11
32.665826
21
23.221917
0
LINE
8
Image
10
32.665826
20
23.221917
11
33.493037
21
22.779603
0
LINE
8
Image
10
33.493037
20
22.779603
11
34.240172
21
22.337289
0
LINE
8
Image
10
34.240172
20
22.337289
11
34.240200
21
19.855700
0
LINE
8
Image
10
34.240200
20
19.855700
11
34.174554
21
17.374090
0
LINE
8
Image
10
34.174554
20
17.374090
11
32.903284
21
19.474300
0
LINE
8
Image
10
32.903284
20
19.474300
11
32.903252
21
19.474287
0
LINE
8
Image
10
34.135632
20
20.015449
11
34.113037
21
22.233059
0
LINE
8
Image
10
34.113037
20
22.233059
11
33.435025
21
22.638974
0
LINE
8
Image
10
33.435025
20
22.638974
11
32.702490
21
23.048652
0
LINE
8
Image
10
32.702490
20
23.048652
11
31.909223
21
21.539442
0
LINE
8
Image
10
31.909223
20
21.539442
11
34.093253
21
17.801202
0
LINE
8
Image
10
34.093253
20
17.801202
11
34.135629
21
20.015452
0
LINE
8
Image
10
34.135629
20
20.015452
11
34.135632
21
20.015449
0
LINE
8
Image
10
54.583432
20
19.895432
11
54.586422
21
22.416782
0
LINE
8
Image
10
54.586422
20
22.416782
11
55.800162
21
24.493192
0
LINE
8
Image
10
55.800162
20
24.493192
11
57.118442
21
26.569602
0
LINE
8
Image
10
57.118442
20
26.569602
11
58.401872
21
24.546712
0
LINE
8
Image
10
58.401872
20
24.546712
11
59.580762
21
22.523822
0
LINE
8
Image
10
59.580762
20
22.523822
11
59.580800
21
19.949000
0
LINE
8
Image
10
59.580800
20
19.949000
11
59.527420
21
17.374130
0
LINE
8
Image
10
59.527420
20
17.374130
11
58.299770
21
18.054823
0
LINE
8
Image
10
58.299770
20
18.054823
11
57.125500
21
18.735516
0
LINE
8
Image
10
57.125500
20
18.735516
11
55.941170
21
18.054823
0
LINE
8
Image
10
55.941170
20
18.054823
11
54.668660
21
17.374130
0
LINE
8
Image
10
54.668660
20
17.374130
11
54.583475
21
19.895480
0
LINE
8
Image
10
54.583475
20
19.895480
11
54.583432
21
19.895432
0
LINE
8
Image
10
56.128542
20
18.343672
11
57.125755
21
18.915343
0
LINE
8
Image
10
57.125755
20
18.915343
11
58.233165
21
18.271835
0
LINE
8
Image
10
58.233165
20
18.271835
11
59.375925
21
17.628329
0
LINE
8
Image
10
59.375925
20
17.628329
11
59.411271
21
20.058129
0
LINE
8
Image
10
59.411271
20
20.058129
11
59.411300
21
22.488000
0
LINE
8
Image
10
59.411300
20
22.488000
11
58.674995
21
23.766070
0
LINE
8
Image
10
58.674995
20
23.766070
11
57.521425
21
25.753740
0
LINE
8
Image
10
57.521425
20
25.753740
11
57.104159
21
26.463346
0
LINE
8
Image
10
57.104159
20
26.463346
11
56.876017
21
26.050369
0
LINE
8
Image
10
56.876017
20
26.050369
11
54.865467
21
22.588679
0
LINE
8
Image
10
54.865467
20
22.588679
11
54.749971
21
19.972829
0
LINE
8
Image
10
54.749971
20
19.972829
11
54.750000
21
17.524100
0
LINE
8
Image
10
54.750000
20
17.524100
11
54.940690
21
17.648057
0
LINE
8
Image
10
54.940690
20
17.648057
11
56.128600
21
18.343688
0
LINE
8
Image
10
56.128600
20
18.343688
11
56.128542
21
18.343672
0
LINE
8
Image
10
17.649242
20
18.327533
11
17.257376
21
19.005543
0
LINE
8
Image
10
17.257376
20
19.005543
11
17.028498
21
19.408111
0
LINE
8
Image
10
17.028498
20
19.408111
11
16.231900
21
19.408100
0
LINE
8
Image
10
16.231900
20
19.408100
11
15.393593
21
19.475648
0
LINE
8
Image
10
15.393593
20
19.475648
11
15.723790
21
20.174846
0
LINE
8
Image
10
15.723790
20
20.174846
11
16.099538
21
20.901349
0
LINE
8
Image
10
16.099538
20
20.901349
11
15.711088
21
21.688547
0
LINE
8
Image
10
15.711088
20
21.688547
11
15.350895
21
22.409737
0
LINE
8
Image
10
15.350895
20
22.409737
11
16.874505
21
23.296378
0
LINE
8
Image
10
16.874505
20
23.296378
11
18.366055
21
24.154175
0
LINE
8
Image
10
18.366055
20
24.154175
11
20.921400
21
24.154200
0
LINE
8
Image
10
20.921400
20
24.154200
11
23.476720
21
24.106337
0
LINE
8
Image
10
23.476720
20
24.106337
11
22.897013
21
23.068137
0
LINE
8
Image
10
22.897013
20
23.068137
11
21.646933
21
20.909107
0
LINE
8
Image
10
21.646933
20
20.909107
11
20.976559
21
19.740417
0
LINE
8
Image
10
20.976559
20
19.740417
11
19.504689
21
18.896268
0
LINE
8
Image
10
19.504689
20
18.896268
11
17.922519
21
18.052119
0
LINE
8
Image
10
17.922519
20
18.052119
11
17.649223
21
18.327560
0
LINE
8
Image
10
17.649223
20
18.327560
11
17.649242
21
18.327533
0
LINE
8
Image
10
19.469132
20
19.052226
11
20.345794
21
19.554244
0
LINE
8
Image
10
20.345794
20
19.554244
11
20.868871
21
19.988267
0
LINE
8
Image
10
20.868871
20
19.988267
11
22.271902
21
22.289966
0
LINE
8
Image
10
22.271902
20
22.289966
11
23.183832
21
23.921426
0
LINE
8
Image
10
23.183832
20
23.921426
11
22.881041
21
24.047422
0
LINE
8
Image
10
22.881041
20
24.047422
11
20.879042
21
24.069428
0
LINE
8
Image
10
20.879042
20
24.069428
11
18.517400
21
24.069500
0
LINE
8
Image
10
18.517400
20
24.069500
11
17.034920
21
23.211627
0
LINE
8
Image
10
17.034920
20
23.211627
11
15.529980
21
22.334590
0
LINE
8
Image
10
15.529980
20
22.334590
11
15.890173
21
21.678784
0
LINE
8
Image
10
15.890173
20
21.678784
11
16.272826
21
20.929287
0
LINE
8
Image
10
16.272826
20
20.929287
11
15.933821
21
20.245806
0
LINE
8
Image
10
15.933821
20
20.245806
11
15.594816
21
19.626428
0
LINE
8
Image
10
15.594816
20
19.626428
11
16.350161
21
19.577684
0
LINE
8
Image
10
16.350161
20
19.577684
11
17.105600
21
19.577600
0
LINE
8
Image
10
17.105600
20
19.577600
11
17.499673
21
18.894388
0
LINE
8
Image
10
17.499673
20
18.894388
11
17.994816
21
18.237566
0
LINE
8
Image
10
17.994816
20
18.237566
11
19.469166
21
19.052209
0
LINE
8
Image
10
19.469166
20
19.052209
11
19.469132
21
19.052226
0
LINE
8
Image
10
42.847932
20
18.901006
11
41.412712
21
19.734524
0
LINE
8
Image
10
41.412712
20
19.734524
11
40.977952
21
20.482394
0
LINE
8
Image
10
40.977952
20
20.482394
11
38.901442
21
24.110384
0
LINE
8
Image
10
38.901442
20
24.110384
11
41.456772
21
24.154180
0
LINE
8
Image
10
41.456772
20
24.154180
11
44.012100
21
24.154200
0
LINE
8
Image
10
44.012100
20
24.154200
11
45.503650
21
23.296403
0
LINE
8
Image
10
45.503650
20
23.296403
11
47.028810
21
22.408214
0
LINE
8
Image
10
47.028810
20
22.408214
11
46.668617
21
21.700058
0
LINE
8
Image
10
46.668617
20
21.700058
11
46.278619
21
20.914411
0
LINE
8
Image
10
46.278619
20
20.914411
11
46.654367
21
20.174872
0
LINE
8
Image
10
46.654367
20
20.174872
11
46.984561
21
19.475674
0
LINE
8
Image
10
46.984561
20
19.475674
11
46.144960
21
19.408126
0
LINE
8
Image
10
46.144960
20
19.408126
11
45.347100
21
19.408100
0
LINE
8
Image
10
45.347100
20
19.408100
11
44.956025
21
18.730090
0
LINE
8
Image
10
44.956025
20
18.730090
11
44.424052
21
18.059780
0
LINE
8
Image
10
44.424052
20
18.059780
11
42.847932
21
18.900995
0
LINE
8
Image
10
42.847932
20
18.900995
11
42.847932
21
18.901006
0
LINE
8
Image
10
44.881552
20
18.899683
11
45.272629
21
19.577693
0
LINE
8
Image
10
45.272629
20
19.577693
11
46.028000
21
19.577700
0
LINE
8
Image
10
46.028000
20
19.577700
11
46.783345
21
19.626447
0
LINE
8
Image
10
46.783345
20
19.626447
11
46.444340
21
20.245825
0
LINE
8
Image
10
46.444340
20
20.245825
11
46.105335
21
20.929306
0
LINE
8
Image
10
46.105335
20
20.929306
11
46.487991
21
21.678803
0
LINE
8
Image
10
46.487991
20
21.678803
11
46.848184
21
22.334609
0
LINE
8
Image
10
46.848184
20
22.334609
11
45.343244
21
23.211646
0
LINE
8
Image
10
45.343244
20
23.211646
11
43.860764
21
24.069517
0
LINE
8
Image
10
43.860764
20
24.069517
11
41.499200
21
24.069500
0
LINE
8
Image
10
41.499200
20
24.069500
11
39.497197
21
24.047497
0
LINE
8
Image
10
39.497197
20
24.047497
11
39.194410
21
23.921498
0
LINE
8
Image
10
39.194410
20
23.921498
11
41.235940
21
20.340448
0
LINE
8
Image
10
41.235940
20
20.340448
11
41.675549
21
19.822230
0
LINE
8
Image
10
41.675549
20
19.822230
11
42.897080
21
19.056578
0
LINE
8
Image
10
42.897080
20
19.056578
11
44.386870
21
18.230251
0
LINE
8
Image
10
44.386870
20
18.230251
11
44.881606
21
18.899675
0
LINE
8
Image
10
44.881606
20
18.899675
11
44.881552
21
18.899683
0
LINE
8
Image
10
10.655452
20
21.132953
11
9.662268
21
22.863403
0
LINE
8
Image
10
9.662268
20
22.863403
11
9.662270
21
24.759100
0
LINE
8
Image
10
9.662270
20
24.759100
11
9.662270
21
26.654800
0
LINE
8
Image
10
9.662270
20
26.654800
11
10.323026
21
27.057178
0
LINE
8
Image
10
10.323026
20
27.057178
11
11.085202
21
27.459558
0
LINE
8
Image
10
11.085202
20
27.459558
11
11.801656
21
27.077032
0
LINE
8
Image
10
11.801656
20
27.077032
11
12.416687
21
26.694506
0
LINE
8
Image
10
12.416687
20
26.694506
11
12.459063
21
25.445566
0
LINE
8
Image
10
12.459063
20
25.445566
11
12.501438
21
24.196626
0
LINE
8
Image
10
12.501438
20
24.196626
11
13.454889
21
24.172655
0
LINE
8
Image
10
13.454889
20
24.172655
11
14.408343
21
24.084231
0
LINE
8
Image
10
14.408343
20
24.084231
11
13.624392
21
23.566090
0
LINE
8
Image
10
13.624392
20
23.566090
11
12.811530
21
23.088840
0
LINE
8
Image
10
12.811530
20
23.088840
11
13.751697
21
21.369320
0
LINE
8
Image
10
13.751697
20
21.369320
11
14.078920
21
20.830304
0
LINE
8
Image
10
14.078920
20
20.830304
11
13.667710
21
20.140425
0
LINE
8
Image
10
13.667710
20
20.140425
11
13.256498
21
19.450546
0
LINE
8
Image
10
13.256498
20
19.450546
11
12.452568
21
19.426522
0
LINE
8
Image
10
12.452568
20
19.426522
11
11.648638
21
19.402498
0
LINE
8
Image
10
11.648638
20
19.402498
11
10.655452
21
21.132953
0
LINE
8
Image
10
13.387612
20
19.937893
11
13.737658
21
20.554956
0
LINE
8
Image
10
13.737658
20
20.554956
11
13.890701
21
20.811826
0
LINE
8
Image
10
13.890701
20
20.811826
11
13.259634
21
21.902156
0
LINE
8
Image
10
13.259634
20
21.902156
11
12.630937
21
23.086056
0
LINE
8
Image
10
12.630937
20
23.086056
11
13.372510
21
23.603387
0
LINE
8
Image
10
13.372510
20
23.603387
11
14.111713
21
24.027143
0
LINE
8
Image
10
14.111713
20
24.027143
11
13.200635
21
24.051193
0
LINE
8
Image
10
13.200635
20
24.051193
11
12.289559
21
24.075244
0
LINE
8
Image
10
12.289559
20
24.075244
11
12.289600
21
25.339900
0
LINE
8
Image
10
12.289600
20
25.339900
11
12.289600
21
26.604500
0
LINE
8
Image
10
12.289600
20
26.604500
11
11.712597
21
26.947291
0
LINE
8
Image
10
11.712597
20
26.947291
11
11.064678
21
27.290079
0
LINE
8
Image
10
11.064678
20
27.290079
11
10.412785
21
26.931577
0
LINE
8
Image
10
10.412785
20
26.931577
11
9.831811
21
26.573075
0
LINE
8
Image
10
9.831811
20
26.573075
11
9.831780
21
24.719600
0
LINE
8
Image
10
9.831780
20
24.719600
11
9.831780
21
22.866100
0
LINE
8
Image
10
9.831780
20
22.866100
11
10.775360
21
21.221920
0
LINE
8
Image
10
10.775360
20
21.221920
11
11.718937
21
19.577740
0
LINE
8
Image
10
11.718937
20
19.577740
11
12.454800
21
19.577700
0
LINE
8
Image
10
12.454800
20
19.577700
11
13.190600
21
19.577700
0
LINE
8
Image
10
13.190600
20
19.577700
11
13.387612
21
19.937893
0
LINE
8
Image
10
48.935612
20
19.726713
11
48.526445
21
20.445238
0
LINE
8
Image
10
48.526445
20
20.445238
11
48.345062
21
20.825552
0
LINE
8
Image
10
48.345062
20
20.825552
11
48.456267
21
21.080875
0
LINE
8
Image
10
48.456267
20
21.080875
11
49.567117
21
23.088425
0
LINE
8
Image
10
49.567117
20
23.088425
11
48.753813
21
23.566114
0
LINE
8
Image
10
48.753813
20
23.566114
11
47.969864
21
24.084255
0
LINE
8
Image
10
47.969864
20
24.084255
11
48.923315
21
24.172678
0
LINE
8
Image
10
48.923315
20
24.172678
11
49.876766
21
24.196650
0
LINE
8
Image
10
49.876766
20
24.196650
11
49.919142
21
25.445590
0
LINE
8
Image
10
49.919142
20
25.445590
11
49.961518
21
26.694530
0
LINE
8
Image
10
49.961518
20
26.694530
11
50.576549
21
27.077056
0
LINE
8
Image
10
50.576549
20
27.077056
11
51.285441
21
27.459582
0
LINE
8
Image
10
51.285441
20
27.459582
11
52.047620
21
27.062038
0
LINE
8
Image
10
52.047620
20
27.062038
11
52.715935
21
26.664494
0
LINE
8
Image
10
52.715935
20
26.664494
11
52.715900
21
24.764500
0
LINE
8
Image
10
52.715900
20
24.764500
11
52.715900
21
22.864400
0
LINE
8
Image
10
52.715900
20
22.864400
11
51.722565
21
21.136300
0
LINE
8
Image
10
51.722565
20
21.136300
11
50.729230
21
19.408200
0
LINE
8
Image
10
50.729230
20
19.408200
11
49.921601
21
19.408994
0
LINE
8
Image
10
49.921601
20
19.408994
11
49.113969
21
19.409787
0
LINE
8
Image
10
49.113969
20
19.409787
11
48.935571
21
19.726906
0
LINE
8
Image
10
48.935571
20
19.726906
11
48.935612
21
19.726713
0
LINE
8
Image
10
51.601942
20
21.224023
11
52.546440
21
22.870343
0
LINE
8
Image
10
52.546440
20
22.870343
11
52.546400
21
24.721700
0
LINE
8
Image
10
52.546400
20
24.721700
11
52.546400
21
26.573100
0
LINE
8
Image
10
52.546400
20
26.573100
11
51.965426
21
26.931602
0
LINE
8
Image
10
51.965426
20
26.931602
11
51.313533
21
27.290104
0
LINE
8
Image
10
51.313533
20
27.290104
11
50.665614
21
26.947316
0
LINE
8
Image
10
50.665614
20
26.947316
11
50.088611
21
26.604525
0
LINE
8
Image
10
50.088611
20
26.604525
11
50.088600
21
25.339900
0
LINE
8
Image
10
50.088600
20
25.339900
11
50.088600
21
24.075300
0
LINE
8
Image
10
50.088600
20
24.075300
11
49.177524
21
24.051249
0
LINE
8
Image
10
49.177524
20
24.051249
11
48.266448
21
24.027199
0
LINE
8
Image
10
48.266448
20
24.027199
11
49.005648
21
23.603443
0
LINE
8
Image
10
49.005648
20
23.603443
11
49.746065
21
23.094936
0
LINE
8
Image
10
49.746065
20
23.094936
11
49.117911
21
21.909806
0
LINE
8
Image
10
49.117911
20
21.909806
11
48.488545
21
20.809426
0
LINE
8
Image
10
48.488545
20
20.809426
11
48.753184
21
20.341905
0
LINE
8
Image
10
48.753184
20
20.341905
11
49.107469
21
19.726072
0
LINE
8
Image
10
49.107469
20
19.726072
11
49.318431
21
19.605849
0
LINE
8
Image
10
49.318431
20
19.605849
11
49.927250
21
19.577757
0
LINE
8
Image
10
49.927250
20
19.577757
11
50.657400
21
19.577700
0
LINE
8
Image
10
50.657400
20
19.577700
11
51.601942
21
21.224023
0
LINE
8
Image
10
22.968242
20
20.436854
11
25.043812
21
24.111894
0
LINE
8
Image
10
25.043812
20
24.111894
11
25.396035
21
24.705155
0
LINE
8
Image
10
25.396035
20
24.705155
11
26.322100
21
24.705200
0
LINE
8
Image
10
26.322100
20
24.705200
11
27.248200
21
24.705200
0
LINE
8
Image
10
27.248200
20
24.705200
11
27.272092
21
23.758287
0
LINE
8
Image
10
27.272092
20
23.758287
11
27.295984
21
22.811379
0
LINE
8
Image
10
27.295984
20
22.811379
11
26.509321
21
22.352521
0
LINE
8
Image
10
26.509321
20
22.352521
11
23.010881
21
20.340511
0
LINE
8
Image
10
23.010881
20
20.340511
11
22.968235
21
20.436901
0
LINE
8
Image
10
22.968235
20
20.436901
11
22.968242
21
20.436854
0
LINE
8
Image
10
25.214152
20
21.769584
11
27.078682
21
22.851144
0
LINE
8
Image
10
27.078682
20
22.851144
11
27.102865
21
23.717688
0
LINE
8
Image
10
27.102865
20
23.717688
11
27.127048
21
24.584234
0
LINE
8
Image
10
27.127048
20
24.584234
11
26.301316
21
24.559945
0
LINE
8
Image
10
26.301316
20
24.559945
11
25.475584
21
24.535656
0
LINE
8
Image
10
25.475584
20
24.535656
11
25.126895
21
23.942397
0
LINE
8
Image
10
25.126895
20
23.942397
11
23.290465
21
20.683747
0
LINE
8
Image
10
23.290465
20
20.683747
11
25.214145
21
21.769587
0
LINE
8
Image
10
25.214145
20
21.769587
11
25.214152
21
21.769584
0
LINE
8
Image
10
37.630252
20
21.323645
11
35.529902
21
22.549105
0
LINE
8
Image
10
35.529902
20
22.549105
11
35.082204
21
22.802806
0
LINE
8
Image
10
35.082204
20
22.802806
11
35.106149
21
23.753979
0
LINE
8
Image
10
35.106149
20
23.753979
11
35.130094
21
24.705155
0
LINE
8
Image
10
35.130094
20
24.705155
11
36.061100
21
24.705200
0
LINE
8
Image
10
36.061100
20
24.705200
11
36.992100
21
24.705200
0
LINE
8
Image
10
36.992100
20
24.705200
11
38.196920
21
22.628790
0
LINE
8
Image
10
38.196920
20
22.628790
11
39.254535
21
20.751196
0
LINE
8
Image
10
39.254535
20
20.751196
11
39.346450
21
20.346220
0
LINE
8
Image
10
39.346450
20
20.346220
11
37.630240
21
21.323693
0
LINE
8
Image
10
37.630240
20
21.323693
11
37.630252
21
21.323645
0
LINE
8
Image
10
38.373500
20
22.014297
11
37.251370
21
23.942387
0
LINE
8
Image
10
37.251370
20
23.942387
11
36.902681
21
24.535646
0
LINE
8
Image
10
36.902681
20
24.535646
11
36.076949
21
24.559934
0
LINE
8
Image
10
36.076949
20
24.559934
11
35.251217
21
24.584223
0
LINE
8
Image
10
35.251217
20
24.584223
11
35.275400
21
23.717677
0
LINE
8
Image
10
35.275400
20
23.717677
11
35.299583
21
22.851133
0
LINE
8
Image
10
35.299583
20
22.851133
11
37.164113
21
21.769573
0
LINE
8
Image
10
37.164113
20
21.769573
11
39.087793
21
20.683733
0
LINE
8
Image
10
39.087793
20
20.683733
11
38.373496
21
22.014283
0
LINE
8
Image
10
38.373496
20
22.014283
11
38.373500
21
22.014297
0
LINE
8
Image
10
30.696060
20
24.329097
11
30.252203
21
25.088466
0
LINE
8
Image
10
30.252203
20
25.088466
11
30.004754
21
24.960503
0
LINE
8
Image
10
30.004754
20
24.960503
11
29.265525
21
24.536001
0
LINE
8
Image
10
29.265525
20
24.536001
11
28.710181
21
24.239242
0
LINE
8
Image
10
28.710181
20
24.239242
11
28.646618
21
25.128913
0
LINE
8
Image
10
28.646618
20
25.128913
11
28.646600
21
26.018800
0
LINE
8
Image
10
28.646600
20
26.018800
11
27.756700
21
26.018800
0
LINE
8
Image
10
27.756700
20
26.018800
11
26.866812
21
26.138923
0
LINE
8
Image
10
26.866812
20
26.138923
11
27.248193
21
26.904126
0
LINE
8
Image
10
27.248193
20
26.904126
11
27.629574
21
27.625744
0
LINE
8
Image
10
27.629574
20
27.625744
11
26.911559
21
28.110621
0
LINE
8
Image
10
26.911559
20
28.110621
11
26.191734
21
28.603714
0
LINE
8
Image
10
26.191734
20
28.603714
11
26.909746
21
29.096606
0
LINE
8
Image
10
26.909746
20
29.096606
11
27.629573
21
29.574176
0
LINE
8
Image
10
27.629573
20
29.574176
11
27.248822
21
30.310177
0
LINE
8
Image
10
27.248822
20
30.310177
11
26.867441
21
31.082691
0
LINE
8
Image
10
26.867441
20
31.082691
11
27.756699
21
31.188630
0
LINE
8
Image
10
27.756699
20
31.188630
11
28.646600
21
31.188600
0
LINE
8
Image
10
28.646600
20
31.188600
11
28.646600
21
32.078500
0
LINE
8
Image
10
28.646600
20
32.078500
11
28.702713
21
32.968389
0
LINE
8
Image
10
28.702713
20
32.968389
11
29.401913
21
32.592851
0
LINE
8
Image
10
29.401913
20
32.592851
11
30.156207
21
32.190282
0
LINE
8
Image
10
30.156207
20
32.190282
11
30.671871
21
32.841262
0
LINE
8
Image
10
30.671871
20
32.841262
11
31.193674
21
33.519273
0
LINE
8
Image
10
31.193674
20
33.519273
11
31.663743
21
32.897970
0
LINE
8
Image
10
31.663743
20
32.897970
11
32.093050
21
32.200080
0
LINE
8
Image
10
32.093050
20
32.200080
11
32.887093
21
32.543988
0
LINE
8
Image
10
32.887093
20
32.543988
11
33.668113
21
32.966436
0
LINE
8
Image
10
33.668113
20
32.966436
11
33.731676
21
32.078501
0
LINE
8
Image
10
33.731676
20
32.078501
11
33.731600
21
31.188600
0
LINE
8
Image
10
33.731600
20
31.188600
11
34.621500
21
31.188600
0
LINE
8
Image
10
34.621500
20
31.188600
11
35.510758
21
31.082661
0
LINE
8
Image
10
35.510758
20
31.082661
11
35.129377
21
30.310147
0
LINE
8
Image
10
35.129377
20
30.310147
11
34.748626
21
29.574146
0
LINE
8
Image
10
34.748626
20
29.574146
11
35.468453
21
29.096576
0
LINE
8
Image
10
35.468453
20
29.096576
11
36.186465
21
28.603684
0
LINE
8
Image
10
36.186465
20
28.603684
11
35.466640
21
28.110591
0
LINE
8
Image
10
35.466640
20
28.110591
11
34.748625
21
27.633024
0
LINE
8
Image
10
34.748625
20
27.633024
11
35.129376
21
26.897221
0
LINE
8
Image
10
35.129376
20
26.897221
11
35.510757
21
26.124707
0
LINE
8
Image
10
35.510757
20
26.124707
11
34.621499
21
26.018768
0
LINE
8
Image
10
34.621499
20
26.018768
11
33.731600
21
26.018800
0
LINE
8
Image
10
33.731600
20
26.018800
11
33.731600
21
25.128900
0
LINE
8
Image
10
33.731600
20
25.128900
11
33.668037
21
24.239229
0
LINE
8
Image
10
33.668037
20
24.239229
11
33.112693
21
24.535988
0
LINE
8
Image
10
33.112693
20
24.535988
11
32.372961
21
24.960750
0
LINE
8
Image
10
32.372961
20
24.960750
11
32.125012
21
25.088972
0
LINE
8
Image
10
32.125012
20
25.088972
11
31.731342
21
24.411444
0
LINE
8
Image
10
31.731342
20
24.411444
11
31.238747
21
23.651818
0
LINE
8
Image
10
31.238747
20
23.651818
11
30.695966
21
24.329084
0
LINE
8
Image
10
30.695966
20
24.329084
11
30.696060
21
24.329097
0
LINE
8
Image
10
32.032870
20
25.201382
11
32.769310
21
24.905700
0
LINE
8
Image
10
32.769310
20
24.905700
11
33.493651
21
24.508450
0
LINE
8
Image
10
33.493651
20
24.508450
11
33.580244
21
25.313587
0
LINE
8
Image
10
33.580244
20
25.313587
11
33.604586
21
26.145928
0
LINE
8
Image
10
33.604586
20
26.145928
11
34.474030
21
26.188303
0
LINE
8
Image
10
34.474030
20
26.188303
11
35.343474
21
26.230679
0
LINE
8
Image
10
35.343474
20
26.230679
11
34.925253
21
26.948130
0
LINE
8
Image
10
34.925253
20
26.948130
11
34.543780
21
27.725036
0
LINE
8
Image
10
34.543780
20
27.725036
11
35.257887
21
28.175195
0
LINE
8
Image
10
35.257887
20
28.175195
11
35.935249
21
28.604862
0
LINE
8
Image
10
35.935249
20
28.604862
11
35.254014
21
29.039654
0
LINE
8
Image
10
35.254014
20
29.039654
11
34.539748
21
29.488921
0
LINE
8
Image
10
34.539748
20
29.488921
11
34.920417
21
30.259556
0
LINE
8
Image
10
34.920417
20
30.259556
11
35.334114
21
30.976753
0
LINE
8
Image
10
35.334114
20
30.976753
11
34.469351
21
31.019129
0
LINE
8
Image
10
34.469351
20
31.019129
11
33.604588
21
31.061504
0
LINE
8
Image
10
33.604588
20
31.061504
11
33.580246
21
31.893845
0
LINE
8
Image
10
33.580246
20
31.893845
11
33.493653
21
32.698982
0
LINE
8
Image
10
33.493653
20
32.698982
11
32.764867
21
32.299279
0
LINE
8
Image
10
32.764867
20
32.299279
11
32.098348
21
31.926779
0
LINE
8
Image
10
32.098348
20
31.926779
11
31.947374
21
32.126928
0
LINE
8
Image
10
31.947374
20
32.126928
11
31.513969
21
32.858906
0
LINE
8
Image
10
31.513969
20
32.858906
11
31.189162
21
33.390883
0
LINE
8
Image
10
31.189162
20
33.390883
11
30.834229
21
32.819527
0
LINE
8
Image
10
30.834229
20
32.819527
11
30.310064
21
32.026033
0
LINE
8
Image
10
30.310064
20
32.026033
11
30.053986
21
32.059036
0
LINE
8
Image
10
30.053986
20
32.059036
11
29.614729
21
32.298577
0
LINE
8
Image
10
29.614729
20
32.298577
11
28.884670
21
32.698983
0
LINE
8
Image
10
28.884670
20
32.698983
11
28.798078
21
31.893846
0
LINE
8
Image
10
28.798078
20
31.893846
11
28.773762
21
31.061505
0
LINE
8
Image
10
28.773762
20
31.061505
11
27.908999
21
31.019130
0
LINE
8
Image
10
27.908999
20
31.019130
11
27.044236
21
30.976754
0
LINE
8
Image
10
27.044236
20
30.976754
11
27.457933
21
30.259557
0
LINE
8
Image
10
27.457933
20
30.259557
11
27.838602
21
29.488922
0
LINE
8
Image
10
27.838602
20
29.488922
11
27.124336
21
29.039655
0
LINE
8
Image
10
27.124336
20
29.039655
11
26.443101
21
28.604863
0
LINE
8
Image
10
26.443101
20
28.604863
11
27.120463
21
28.175196
0
LINE
8
Image
10
27.120463
20
28.175196
11
27.831339
21
27.727971
0
LINE
8
Image
10
27.831339
20
27.727971
11
27.451268
21
26.951065
0
LINE
8
Image
10
27.451268
20
26.951065
11
27.037685
21
26.230680
0
LINE
8
Image
10
27.037685
20
26.230680
11
27.905724
21
26.188304
0
LINE
8
Image
10
27.905724
20
26.188304
11
28.773763
21
26.145929
0
LINE
8
Image
10
28.773763
20
26.145929
11
28.798026
21
25.319605
0
LINE
8
Image
10
28.798026
20
25.319605
11
28.851839
21
24.493278
0
LINE
8
Image
10
28.851839
20
24.493278
11
29.547967
21
24.874029
0
LINE
8
Image
10
29.547967
20
24.874029
11
30.271969
21
25.255410
0
LINE
8
Image
10
30.271969
20
25.255410
11
30.643893
21
24.726347
0
LINE
8
Image
10
30.643893
20
24.726347
11
31.184708
21
23.918543
0
LINE
8
Image
10
31.184708
20
23.918543
11
31.580594
21
24.463838
0
LINE
8
Image
10
31.580594
20
24.463838
11
32.032891
21
25.201384
0
LINE
8
Image
10
32.032891
20
25.201384
11
32.032870
21
25.201382
0
LINE
8
Image
10
7.378870
20
25.785735
11
6.165000
21
27.875385
0
LINE
8
Image
10
6.165000
20
27.875385
11
5.820789
21
28.517982
0
LINE
8
Image
10
5.820789
20
28.517982
11
5.870083
21
28.807651
0
LINE
8
Image
10
5.870083
20
28.807651
11
7.073683
21
30.913191
0
LINE
8
Image
10
7.073683
20
30.913191
11
8.228233
21
32.798911
0
LINE
8
Image
10
8.228233
20
32.798911
11
8.306354
21
31.289061
0
LINE
8
Image
10
8.306354
20
31.289061
11
8.306260
21
29.779200
0
LINE
8
Image
10
8.306260
20
29.779200
11
9.278822
21
29.233834
0
LINE
8
Image
10
9.278822
20
29.233834
11
10.226503
21
28.603714
0
LINE
8
Image
10
10.226503
20
28.603714
11
9.253938
21
27.970072
0
LINE
8
Image
10
9.253938
20
27.970072
11
8.306260
21
27.421181
0
LINE
8
Image
10
8.306260
20
27.421181
11
8.306260
21
25.914900
0
LINE
8
Image
10
8.306260
20
25.914900
11
8.238408
21
24.408570
0
LINE
8
Image
10
8.238408
20
24.408570
11
7.378778
21
25.785780
0
LINE
8
Image
10
7.378778
20
25.785780
11
7.378870
21
25.785735
0
LINE
8
Image
10
8.166478
20
26.018801
11
8.219718
21
27.352281
0
LINE
8
Image
10
8.219718
20
27.352281
11
8.401371
21
27.608364
0
LINE
8
Image
10
8.401371
20
27.608364
11
9.111490
21
28.060726
0
LINE
8
Image
10
9.111490
20
28.060726
11
10.001378
21
28.603716
0
LINE
8
Image
10
10.001378
20
28.603716
11
9.111490
21
29.146706
0
LINE
8
Image
10
9.111490
20
29.146706
11
8.374704
21
29.615806
0
LINE
8
Image
10
8.374704
20
29.615806
11
8.211588
21
29.897526
0
LINE
8
Image
10
8.211588
20
29.897526
11
8.148024
21
31.259306
0
LINE
8
Image
10
8.148024
20
31.259306
11
8.094473
21
32.389376
0
LINE
8
Image
10
8.094473
20
32.389376
11
7.042143
21
30.545836
0
LINE
8
Image
10
7.042143
20
30.545836
11
5.989813
21
28.603266
0
LINE
8
Image
10
5.989813
20
28.603266
11
8.104793
21
24.860836
0
LINE
8
Image
10
8.104793
20
24.860836
11
8.166475
21
26.018786
0
LINE
8
Image
10
8.166475
20
26.018786
11
8.166478
21
26.018801
0
LINE
8
Image
10
54.072078
20
25.914696
11
54.072000
21
27.420900
0
LINE
8
Image
10
54.072000
20
27.420900
11
53.125457
21
27.970412
0
LINE
8
Image
10
53.125457
20
27.970412
11
52.152895
21
28.604213
0
LINE
8
Image
10
52.152895
20
28.604213
11
53.099438
21
29.233873
0
LINE
8
Image
10
53.099438
20
29.233873
11
54.072000
21
29.779239
0
LINE
8
Image
10
54.072000
20
29.779239
11
54.072000
21
31.289100
0
LINE
8
Image
10
54.072000
20
31.289100
11
54.138479
21
32.798950
0
LINE
8
Image
10
54.138479
20
32.798950
11
54.347836
21
32.548729
0
LINE
8
Image
10
54.347836
20
32.548729
11
55.549869
21
30.475940
0
LINE
8
Image
10
55.549869
20
30.475940
11
56.595899
21
28.565800
0
LINE
8
Image
10
56.595899
20
28.565800
11
54.146479
21
24.408560
0
LINE
8
Image
10
54.146479
20
24.408560
11
54.071999
21
25.914730
0
LINE
8
Image
10
54.071999
20
25.914730
11
54.072078
21
25.914696
0
LINE
8
Image
10
55.377438
20
26.733493
11
56.448018
21
28.592333
0
LINE
8
Image
10
56.448018
20
28.592333
11
55.365988
21
30.482603
0
LINE
8
Image
10
55.365988
20
30.482603
11
54.283958
21
32.372873
0
LINE
8
Image
10
54.283958
20
32.372873
11
54.199207
21
31.009913
0
LINE
8
Image
10
54.199207
20
31.009913
11
54.114456
21
29.646953
0
LINE
8
Image
10
54.114456
20
29.646953
11
53.266944
21
29.149868
0
LINE
8
Image
10
53.266944
20
29.149868
11
52.432682
21
28.593278
0
LINE
8
Image
10
52.432682
20
28.593278
11
53.280194
21
28.054045
0
LINE
8
Image
10
53.280194
20
28.054045
11
54.114456
21
27.574319
0
LINE
8
Image
10
54.114456
20
27.574319
11
54.168113
21
27.029633
0
LINE
8
Image
10
54.168113
20
27.029633
11
54.231677
21
25.644493
0
LINE
8
Image
10
54.231677
20
25.644493
11
54.274224
21
24.839356
0
LINE
8
Image
10
54.274224
20
24.839356
11
55.377444
21
26.733506
0
LINE
8
Image
10
55.377444
20
26.733506
11
55.377438
21
26.733493
0
LINE
8
Image
10
2.797538
20
28.603633
11
2.873524
21
31.781803
0
LINE
8
Image
10
2.873524
20
31.781803
11
4.746824
21
28.615983
0
LINE
8
Image
10
4.746824
20
28.615983
11
4.267545
21
27.745791
0
LINE
8
Image
10
4.267545
20
27.745791
11
3.370484
21
26.167031
0
LINE
8
Image
10
3.370484
20
26.167031
11
2.875121
21
25.425458
0
LINE
8
Image
10
2.875121
20
25.425458
11
2.797543
21
28.603628
0
LINE
8
Image
10
2.797543
20
28.603628
11
2.797538
21
28.603633
0
LINE
8
Image
10
3.872538
20
27.360893
11
4.577318
21
28.610413
0
LINE
8
Image
10
4.577318
20
28.610413
11
3.001048
21
31.350983
0
LINE
8
Image
10
3.001048
20
31.350983
11
2.969626
21
28.596563
0
LINE
8
Image
10
2.969626
20
28.596563
11
2.992242
21
26.431170
0
LINE
8
Image
10
2.992242
20
26.431170
11
3.069982
21
25.976333
0
LINE
8
Image
10
3.069982
20
25.976333
11
3.872542
21
27.360883
0
LINE
8
Image
10
3.872542
20
27.360883
11
3.872538
21
27.360893
0
LINE
8
Image
10
59.109338
20
25.997533
11
58.438501
21
27.162863
0
LINE
8
Image
10
58.438501
20
27.162863
11
57.850613
21
28.189783
0
LINE
8
Image
10
57.850613
20
28.189783
11
57.616939
21
28.623445
0
LINE
8
Image
10
57.616939
20
28.623445
11
58.522921
21
30.202625
0
LINE
8
Image
10
58.522921
20
30.202625
11
59.504892
21
31.781805
0
LINE
8
Image
10
59.504892
20
31.781805
11
59.580875
21
28.603635
0
LINE
8
Image
10
59.580875
20
28.603635
11
59.503419
21
25.425465
0
LINE
8
Image
10
59.503419
20
25.425465
11
59.109338
21
25.997536
0
LINE
8
Image
10
59.109338
20
25.997536
11
59.109338
21
25.997533
0
LINE
8
Image
10
59.392259
20
29.956933
11
59.369003
21
31.363373
0
LINE
8
Image
10
59.369003
20
31.363373
11
58.580990
21
29.995693
0
LINE
8
Image
10
58.580990
20
29.995693
11
57.818229
21
28.566733
0
LINE
8
Image
10
57.818229
20
28.566733
11
58.606242
21
27.182783
0
LINE
8
Image
10
58.606242
20
27.182783
11
59.369003
21
25.860113
0
LINE
8
Image
10
59.369003
20
25.860113
11
59.392259
21
27.205303
0
LINE
8
Image
10
59.392259
20
27.205303
11
59.392259
21
29.956933
0
LINE
8
Image
10
59.392259
20
29.956933
11
59.392259
21
29.956933
0
LINE
8
Image
10
20.004559
20
25.616153
11
21.678399
21
26.676383
0
LINE
8
Image
10
21.678399
20
26.676383
11
23.776409
21
27.880553
0
LINE
8
Image
10
23.776409
20
27.880553
11
24.203105
21
28.130433
0
LINE
8
Image
10
24.203105
20
28.130433
11
25.030919
21
27.659936
0
LINE
8
Image
10
25.030919
20
27.659936
11
25.833116
21
27.131019
0
LINE
8
Image
10
25.833116
20
27.131019
11
25.356187
21
26.291407
0
LINE
8
Image
10
25.356187
20
26.291407
11
24.904872
21
25.510220
0
LINE
8
Image
10
24.904872
20
25.510220
11
22.453400
21
25.510200
0
LINE
8
Image
10
22.453400
20
25.510200
11
20.004500
21
25.616139
0
LINE
8
Image
10
20.004500
20
25.616139
11
20.004559
21
25.616153
0
LINE
8
Image
10
25.219939
20
26.357726
11
25.590310
21
27.078111
0
LINE
8
Image
10
25.590310
20
27.078111
11
24.206900
21
27.908830
0
LINE
8
Image
10
24.206900
20
27.908830
11
20.346690
21
25.712530
0
LINE
8
Image
10
20.346690
20
25.712530
11
22.581380
21
25.699486
0
LINE
8
Image
10
22.581380
20
25.699486
11
24.852800
21
25.722081
0
LINE
8
Image
10
24.852800
20
25.722081
11
25.219939
21
26.357726
0
LINE
8
Image
10
37.022239
20
26.291400
11
36.546529
21
27.127350
0
LINE
8
Image
10
36.546529
20
27.127350
11
37.932879
21
27.993624
0
LINE
8
Image
10
37.932879
20
27.993624
11
38.309947
21
28.021987
0
LINE
8
Image
10
38.309947
20
28.021987
11
39.380719
21
27.432592
0
LINE
8
Image
10
39.380719
20
27.432592
11
41.469869
21
26.230602
0
LINE
8
Image
10
41.469869
20
26.230602
11
42.373875
21
25.616156
0
LINE
8
Image
10
42.373875
20
25.616156
11
39.924975
21
25.510217
0
LINE
8
Image
10
39.924975
20
25.510217
11
37.473400
21
25.510200
0
LINE
8
Image
10
37.473400
20
25.510200
11
37.022239
21
26.291400
0
LINE
8
Image
10
42.030319
20
25.711818
11
38.171529
21
27.908688
0
LINE
8
Image
10
38.171529
20
27.908688
11
36.785379
21
27.078106
0
LINE
8
Image
10
36.785379
20
27.078106
11
37.168606
21
26.336533
0
LINE
8
Image
10
37.168606
20
26.336533
11
37.551341
21
25.679711
0
LINE
8
Image
10
37.551341
20
25.679711
11
39.808400
21
25.679700
0
LINE
8
Image
10
39.808400
20
25.679700
11
42.030240
21
25.711802
0
LINE
8
Image
10
42.030240
20
25.711802
11
42.030319
21
25.711818
0
LINE
8
Image
10
14.380219
20
26.075223
11
14.323718
21
26.918087
0
LINE
8
Image
10
14.323718
20
26.918087
11
14.323600
21
27.704500
0
LINE
8
Image
10
14.323600
20
27.704500
11
13.645588
21
28.110817
0
LINE
8
Image
10
13.645588
20
28.110817
11
12.967578
21
28.603685
0
LINE
8
Image
10
12.967578
20
28.603685
11
13.642553
21
29.094735
0
LINE
8
Image
10
13.642553
20
29.094735
11
14.317531
21
29.499232
0
LINE
8
Image
10
14.317531
20
29.499232
11
14.341740
21
30.322728
0
LINE
8
Image
10
14.341740
20
30.322728
11
14.365950
21
31.146224
0
LINE
8
Image
10
14.365950
20
31.146224
11
16.132900
21
31.169158
0
LINE
8
Image
10
16.132900
20
31.169158
11
17.899850
21
31.192092
0
LINE
8
Image
10
17.899850
20
31.192092
11
19.183950
21
30.444021
0
LINE
8
Image
10
19.183950
20
30.444021
11
21.336740
21
29.194071
0
LINE
8
Image
10
21.336740
20
29.194071
11
22.205440
21
28.601712
0
LINE
8
Image
10
22.205440
20
28.601712
11
20.030010
21
27.264992
0
LINE
8
Image
10
20.030010
20
27.264992
11
17.854580
21
26.018762
0
LINE
8
Image
10
17.854580
20
26.018762
11
16.145600
21
26.018700
0
LINE
8
Image
10
16.145600
20
26.018700
11
14.380090
21
26.075202
0
LINE
8
Image
10
14.380090
20
26.075202
11
14.380219
21
26.075223
0
LINE
8
Image
10
19.955929
20
27.395933
11
21.935699
21
28.671383
0
LINE
8
Image
10
21.935699
20
28.671383
11
19.849349
21
29.879093
0
LINE
8
Image
10
19.849349
20
29.879093
11
17.874499
21
31.019053
0
LINE
8
Image
10
17.874499
20
31.019053
11
16.183700
21
31.019100
0
LINE
8
Image
10
16.183700
20
31.019100
11
14.493100
21
31.019100
0
LINE
8
Image
10
14.493100
20
31.019100
11
14.493100
21
30.219700
0
LINE
8
Image
10
14.493100
20
30.219700
11
14.493100
21
29.420300
0
LINE
8
Image
10
14.493100
20
29.420300
11
13.817371
21
29.018346
0
LINE
8
Image
10
13.817371
20
29.018346
11
13.261483
21
28.598255
0
LINE
8
Image
10
13.261483
20
28.598255
11
13.963405
21
28.103698
0
LINE
8
Image
10
13.963405
20
28.103698
11
14.493100
21
27.786220
0
LINE
8
Image
10
14.493100
20
27.786220
11
14.493100
21
26.987200
0
LINE
8
Image
10
14.493100
20
26.987200
11
14.493100
21
26.188200
0
LINE
8
Image
10
14.493100
20
26.188200
11
16.178800
21
26.188200
0
LINE
8
Image
10
16.178800
20
26.188200
11
17.864500
21
26.188200
0
LINE
8
Image
10
17.864500
20
26.188200
11
19.955929
21
27.395933
0
LINE
8
Image
10
44.113829
20
26.232853
11
41.973859
21
27.477953
0
LINE
8
Image
10
41.973859
20
27.477953
11
40.172899
21
28.602253
0
LINE
8
Image
10
40.172899
20
28.602253
11
41.041599
21
29.194025
0
LINE
8
Image
10
41.041599
20
29.194025
11
43.194399
21
30.443975
0
LINE
8
Image
10
43.194399
20
30.443975
11
44.478489
21
31.192047
0
LINE
8
Image
10
44.478489
20
31.192047
11
46.245439
21
31.169113
0
LINE
8
Image
10
46.245439
20
31.169113
11
48.012389
21
31.146179
0
LINE
8
Image
10
48.012389
20
31.146179
11
48.036625
21
30.322683
0
LINE
8
Image
10
48.036625
20
30.322683
11
48.060861
21
29.499187
0
LINE
8
Image
10
48.060861
20
29.499187
11
48.735836
21
29.094690
0
LINE
8
Image
10
48.735836
20
29.094690
11
49.408615
21
28.604539
0
LINE
8
Image
10
49.408615
20
28.604539
11
48.733616
21
28.111721
0
LINE
8
Image
10
48.733616
20
28.111721
11
48.060818
21
27.704557
0
LINE
8
Image
10
48.060818
20
27.704557
11
48.036609
21
26.882828
0
LINE
8
Image
10
48.036609
20
26.882828
11
48.012399
21
26.061099
0
LINE
8
Image
10
48.012399
20
26.061099
11
46.232619
21
26.041626
0
LINE
8
Image
10
46.232619
20
26.041626
11
44.637621
21
26.051669
0
LINE
8
Image
10
44.637621
20
26.051669
11
44.113839
21
26.232864
0
LINE
8
Image
10
44.113839
20
26.232864
11
44.113829
21
26.232853
0
LINE
8
Image
10
47.885259
20
26.987169
11
47.885100
21
27.786100
0
LINE
8
Image
10
47.885100
20
27.786100
11
48.499546
21
28.158675
0
LINE
8
Image
10
48.499546
20
28.158675
11
49.113992
21
28.608887
0
LINE
8
Image
10
49.113992
20
28.608887
11
48.499546
21
29.054209
0
LINE
8
Image
10
48.499546
20
29.054209
11
47.885100
21
29.421892
0
LINE
8
Image
10
47.885100
20
29.421892
11
47.885100
21
30.220500
0
LINE
8
Image
10
47.885100
20
30.220500
11
47.885100
21
31.019100
0
LINE
8
Image
10
47.885100
20
31.019100
11
46.197500
21
31.019100
0
LINE
8
Image
10
46.197500
20
31.019100
11
44.509800
21
31.019100
0
LINE
8
Image
10
44.509800
20
31.019100
11
42.424140
21
29.820340
0
LINE
8
Image
10
42.424140
20
29.820340
11
40.361540
21
28.598810
0
LINE
8
Image
10
40.361540
20
28.598810
11
42.249140
21
27.497990
0
LINE
8
Image
10
42.249140
20
27.497990
11
44.280840
21
26.304100
0
LINE
8
Image
10
44.280840
20
26.304100
11
46.166550
21
26.188266
0
LINE
8
Image
10
46.166550
20
26.188266
11
47.885100
21
26.188200
0
LINE
8
Image
10
47.885100
20
26.188200
11
47.885259
21
26.987169
0
LINE
8
Image
10
22.102959
20
30.286689
11
20.005359
21
31.591119
0
LINE
8
Image
10
20.005359
20
31.591119
11
22.452479
21
31.697058
0
LINE
8
Image
10
22.452479
20
31.697058
11
24.902700
21
31.697100
0
LINE
8
Image
10
24.902700
20
31.697100
11
25.279326
21
31.040277
0
LINE
8
Image
10
25.279326
20
31.040277
11
25.750847
21
30.202129
0
LINE
8
Image
10
25.750847
20
30.202129
11
25.713101
21
29.980712
0
LINE
8
Image
10
25.713101
20
29.980712
11
25.063820
21
29.574467
0
LINE
8
Image
10
25.063820
20
29.574467
11
24.239522
21
29.108187
0
LINE
8
Image
10
24.239522
20
29.108187
11
22.102802
21
30.286737
0
LINE
8
Image
10
22.102802
20
30.286737
11
22.102959
21
30.286689
0
LINE
8
Image
10
25.320259
20
29.894484
11
25.594169
21
30.123666
0
LINE
8
Image
10
25.594169
20
30.123666
11
25.209905
21
30.870732
0
LINE
8
Image
10
25.209905
20
30.870732
11
24.827167
21
31.527555
0
LINE
8
Image
10
24.827167
20
31.527555
11
22.562957
21
31.526708
0
LINE
8
Image
10
22.562957
20
31.526708
11
20.298747
21
31.525862
0
LINE
8
Image
10
20.298747
20
31.525862
11
21.146259
21
31.031617
0
LINE
8
Image
10
21.146259
20
31.031617
11
23.095539
21
29.896637
0
LINE
8
Image
10
23.095539
20
29.896637
11
24.197309
21
29.255902
0
LINE
8
Image
10
24.197309
20
29.255902
11
24.621068
21
29.505713
0
LINE
8
Image
10
24.621068
20
29.505713
11
25.320266
21
29.894467
0
LINE
8
Image
10
25.320266
20
29.894467
11
25.320259
21
29.894484
0
LINE
8
Image
10
37.344259
20
29.549246
11
36.522160
21
30.016494
0
LINE
8
Image
10
36.522160
20
30.016494
11
36.833254
21
30.581334
0
LINE
8
Image
10
36.833254
20
30.581334
11
37.309548
21
31.421615
0
LINE
8
Image
10
37.309548
20
31.421615
11
37.474748
21
31.697057
0
LINE
8
Image
10
37.474748
20
31.697057
11
39.925400
21
31.697100
0
LINE
8
Image
10
39.925400
20
31.697100
11
42.373350
21
31.591161
0
LINE
8
Image
10
42.373350
20
31.591161
11
40.660890
21
30.510581
0
LINE
8
Image
10
40.660890
20
30.510581
11
38.558750
21
29.308991
0
LINE
8
Image
10
38.558750
20
29.308991
11
38.166133
21
29.082042
0
LINE
8
Image
10
38.166133
20
29.082042
11
37.344259
21
29.549246
0
LINE
8
Image
10
40.257719
20
30.465269
11
42.030429
21
31.496139
0
LINE
8
Image
10
42.030429
20
31.496139
11
39.808589
21
31.527550
0
LINE
8
Image
10
39.808589
20
31.527550
11
37.551200
21
31.527600
0
LINE
8
Image
10
37.551200
20
31.527600
11
37.168465
21
30.870777
0
LINE
8
Image
10
37.168465
20
30.870777
11
36.786741
21
30.129204
0
LINE
8
Image
10
36.786741
20
30.129204
11
37.484409
21
29.646737
0
LINE
8
Image
10
37.484409
20
29.646737
11
38.090779
21
29.335708
0
LINE
8
Image
10
38.090779
20
29.335708
11
38.350566
21
29.357439
0
LINE
8
Image
10
38.350566
20
29.357439
11
40.257476
21
30.465319
0
LINE
8
Image
10
40.257476
20
30.465319
11
40.257719
21
30.465269
0
LINE
8
Image
10
10.319319
20
30.152931
11
9.662497
21
30.551912
0
LINE
8
Image
10
9.662497
20
30.551912
11
9.662270
21
32.452000
0
LINE
8
Image
10
9.662270
20
32.452000
11
9.662270
21
34.352100
0
LINE
8
Image
10
9.662270
20
34.352100
11
10.654120
21
36.075660
0
LINE
8
Image
10
10.654120
20
36.075660
11
11.645973
21
37.799220
0
LINE
8
Image
10
11.645973
20
37.799220
11
12.455086
21
37.798717
0
LINE
8
Image
10
12.455086
20
37.798717
11
13.174581
21
37.767527
0
LINE
8
Image
10
13.174581
20
37.767527
11
13.395292
21
37.565651
0
LINE
8
Image
10
13.395292
20
37.565651
11
13.794053
21
36.863326
0
LINE
8
Image
10
13.794053
20
36.863326
11
14.061724
21
36.393531
0
LINE
8
Image
10
14.061724
20
36.393531
11
13.429926
21
35.295431
0
LINE
8
Image
10
13.429926
20
35.295431
11
12.799282
21
34.154951
0
LINE
8
Image
10
12.799282
20
34.154951
11
13.604387
21
33.651937
0
LINE
8
Image
10
13.604387
20
33.651937
11
14.408344
21
33.125017
0
LINE
8
Image
10
14.408344
20
33.125017
11
13.454890
21
33.034771
0
LINE
8
Image
10
13.454890
20
33.034771
11
12.501439
21
33.010782
0
LINE
8
Image
10
12.501439
20
33.010782
11
12.459063
21
31.762882
0
LINE
8
Image
10
12.459063
20
31.762882
11
12.416688
21
30.514982
0
LINE
8
Image
10
12.416688
20
30.514982
11
11.794209
21
30.131416
0
LINE
8
Image
10
11.794209
20
30.131416
11
11.073824
21
29.750935
0
LINE
8
Image
10
11.073824
20
29.750935
11
10.319093
21
30.153006
0
LINE
8
Image
10
10.319093
20
30.153006
11
10.319319
21
30.152931
0
LINE
8
Image
10
11.712789
20
30.260069
11
12.289792
21
30.602860
0
LINE
8
Image
10
12.289792
20
30.602860
11
12.289600
21
31.867500
0
LINE
8
Image
10
12.289600
20
31.867500
11
12.289600
21
33.132100
0
LINE
8
Image
10
12.289600
20
33.132100
11
13.200676
21
33.156156
0
LINE
8
Image
10
13.200676
20
33.156156
11
14.111754
21
33.180212
0
LINE
8
Image
10
14.111754
20
33.180212
11
13.372551
21
33.603968
0
LINE
8
Image
10
13.372551
20
33.603968
11
12.630978
21
34.121300
0
LINE
8
Image
10
12.630978
20
34.121300
11
13.257497
21
35.301440
0
LINE
8
Image
10
13.257497
20
35.301440
11
13.886387
21
36.388000
0
LINE
8
Image
10
13.886387
20
36.388000
11
13.633755
21
36.818136
0
LINE
8
Image
10
13.633755
20
36.818136
11
13.287889
21
37.438962
0
LINE
8
Image
10
13.287889
20
37.438962
11
13.095579
21
37.600301
0
LINE
8
Image
10
13.095579
20
37.600301
11
12.457733
21
37.629653
0
LINE
8
Image
10
12.457733
20
37.629653
11
11.720800
21
37.629700
0
LINE
8
Image
10
11.720800
20
37.629700
11
10.776300
21
35.983380
0
LINE
8
Image
10
10.776300
20
35.983380
11
9.831800
21
34.337060
0
LINE
8
Image
10
9.831800
20
34.337060
11
9.832594
21
32.487390
0
LINE
8
Image
10
9.832594
20
32.487390
11
9.833652
21
30.637720
0
LINE
8
Image
10
9.833652
20
30.637720
11
10.404810
21
30.280361
0
LINE
8
Image
10
10.404810
20
30.280361
11
11.055790
21
29.920168
0
LINE
8
Image
10
11.055790
20
29.920168
11
11.712612
21
30.260123
0
LINE
8
Image
10
11.712612
20
30.260123
11
11.712789
21
30.260069
0
LINE
8
Image
10
50.597389
20
30.127653
11
49.961752
21
30.505615
0
LINE
8
Image
10
49.961752
20
30.505615
11
49.919377
21
31.758155
0
LINE
8
Image
10
49.919377
20
31.758155
11
49.877001
21
33.010695
0
LINE
8
Image
10
49.877001
20
33.010695
11
48.923550
21
33.034658
0
LINE
8
Image
10
48.923550
20
33.034658
11
47.970099
21
33.124904
0
LINE
8
Image
10
47.970099
20
33.124904
11
48.774053
21
33.651824
0
LINE
8
Image
10
48.774053
20
33.651824
11
49.579192
21
34.159717
0
LINE
8
Image
10
49.579192
20
34.159717
11
48.945807
21
35.294347
0
LINE
8
Image
10
48.945807
20
35.294347
11
48.311239
21
36.381717
0
LINE
8
Image
10
48.311239
20
36.381717
11
48.712741
21
37.089871
0
LINE
8
Image
10
48.712741
20
37.089871
11
49.114240
21
37.798024
0
LINE
8
Image
10
49.114240
20
37.798024
11
49.923353
21
37.798606
0
LINE
8
Image
10
49.923353
20
37.798606
11
50.732469
21
37.799188
0
LINE
8
Image
10
50.732469
20
37.799188
11
51.724319
21
36.075628
0
LINE
8
Image
10
51.724319
20
36.075628
11
52.716169
21
34.352068
0
LINE
8
Image
10
52.716169
20
34.352068
11
52.715900
21
32.451600
0
LINE
8
Image
10
52.715900
20
32.451600
11
52.715900
21
30.551200
0
LINE
8
Image
10
52.715900
20
30.551200
11
52.045648
21
30.149531
0
LINE
8
Image
10
52.045648
20
30.149531
11
51.304072
21
29.748817
0
LINE
8
Image
10
51.304072
20
29.748817
11
50.597119
21
30.127737
0
LINE
8
Image
10
50.597119
20
30.127737
11
50.597389
21
30.127653
0
LINE
8
Image
10
51.961319
20
30.277473
11
52.545214
21
30.637666
0
LINE
8
Image
10
52.545214
20
30.637666
11
52.546008
21
32.491426
0
LINE
8
Image
10
52.546008
20
32.491426
11
52.546802
21
34.345186
0
LINE
8
Image
10
52.546802
20
34.345186
11
51.602085
21
35.987416
0
LINE
8
Image
10
51.602085
20
35.987416
11
50.657365
21
37.629646
0
LINE
8
Image
10
50.657365
20
37.629646
11
49.920400
21
37.629700
0
LINE
8
Image
10
49.920400
20
37.629700
11
49.282747
21
37.600346
0
LINE
8
Image
10
49.282747
20
37.600346
11
49.090464
21
37.439009
0
LINE
8
Image
10
49.090464
20
37.439009
11
48.744596
21
36.818183
0
LINE
8
Image
10
48.744596
20
36.818183
11
48.491964
21
36.388047
0
LINE
8
Image
10
48.491964
20
36.388047
11
49.120857
21
35.301487
0
LINE
8
Image
10
49.120857
20
35.301487
11
49.747376
21
34.121347
0
LINE
8
Image
10
49.747376
20
34.121347
11
49.005800
21
33.604015
0
LINE
8
Image
10
49.005800
20
33.604015
11
48.266600
21
33.180259
0
LINE
8
Image
10
48.266600
20
33.180259
11
49.177676
21
33.156203
0
LINE
8
Image
10
49.177676
20
33.156203
11
50.088752
21
33.132147
0
LINE
8
Image
10
50.088752
20
33.132147
11
50.088800
21
31.868400
0
LINE
8
Image
10
50.088800
20
31.868400
11
50.088800
21
30.604700
0
LINE
8
Image
10
50.088800
20
30.604700
11
50.660873
21
30.261462
0
LINE
8
Image
10
50.660873
20
30.261462
11
51.305146
21
29.917761
0
LINE
8
Image
10
51.305146
20
29.917761
11
51.961243
21
30.277491
0
LINE
8
Image
10
51.961243
20
30.277491
11
51.961319
21
30.277473
0
LINE
8
Image
10
4.489019
20
31.799273
11
3.292489
21
33.840973
0
LINE
8
Image
10
3.292489
20
33.840973
11
2.797618
21
34.671240
0
LINE
8
Image
10
2.797618
20
34.671240
11
2.797420
21
37.261300
0
LINE
8
Image
10
2.797420
20
37.261300
11
2.819223
21
39.377586
0
LINE
8
Image
10
2.819223
20
39.377586
11
2.918742
21
39.804790
0
LINE
8
Image
10
2.918742
20
39.804790
11
4.145922
21
39.120343
0
LINE
8
Image
10
4.145922
20
39.120343
11
5.251782
21
38.482452
0
LINE
8
Image
10
5.251782
20
38.482452
11
6.164572
21
39.000650
0
LINE
8
Image
10
6.164572
20
39.000650
11
7.385872
21
39.713591
0
LINE
8
Image
10
7.385872
20
39.713591
11
7.746065
21
39.856646
0
LINE
8
Image
10
7.746065
20
39.856646
11
7.797751
21
37.318696
0
LINE
8
Image
10
7.797751
20
37.318696
11
7.797750
21
34.832400
0
LINE
8
Image
10
7.797750
20
34.832400
11
6.579720
21
32.738650
0
LINE
8
Image
10
6.579720
20
32.738650
11
5.276090
21
30.616370
0
LINE
8
Image
10
5.276090
20
30.616370
11
4.488831
21
31.799270
0
LINE
8
Image
10
4.488831
20
31.799270
11
4.489019
21
31.799273
0
LINE
8
Image
10
6.465189
20
32.849833
11
7.631019
21
34.850123
0
LINE
8
Image
10
7.631019
20
34.850123
11
7.608556
21
37.246913
0
LINE
8
Image
10
7.608556
20
37.246913
11
7.586093
21
39.643703
0
LINE
8
Image
10
7.586093
20
39.643703
11
6.419083
21
38.972654
0
LINE
8
Image
10
6.419083
20
38.972654
11
5.252073
21
38.301604
0
LINE
8
Image
10
5.252073
20
38.301604
11
4.153393
21
38.940265
0
LINE
8
Image
10
4.153393
20
38.940265
11
3.010933
21
39.578926
0
LINE
8
Image
10
3.010933
20
39.578926
11
2.968245
21
37.142326
0
LINE
8
Image
10
2.968245
20
37.142326
11
2.969304
21
34.705726
0
LINE
8
Image
10
2.969304
20
34.705726
11
4.091174
21
32.778046
0
LINE
8
Image
10
4.091174
20
32.778046
11
5.256204
21
30.849956
0
LINE
8
Image
10
5.256204
20
30.849956
11
6.465194
21
32.849836
0
LINE
8
Image
10
6.465194
20
32.849836
11
6.465189
21
32.849833
0
LINE
8
Image
10
56.689989
20
31.209733
11
55.457359
21
33.324753
0
LINE
8
Image
10
55.457359
20
33.324753
11
54.580637
21
34.825333
0
LINE
8
Image
10
54.580637
20
34.825333
11
54.580500
21
37.315100
0
LINE
8
Image
10
54.580500
20
37.315100
11
54.632186
21
39.856580
0
LINE
8
Image
10
54.632186
20
39.856580
11
54.992379
21
39.713525
0
LINE
8
Image
10
54.992379
20
39.713525
11
56.213679
21
39.000584
0
LINE
8
Image
10
56.213679
20
39.000584
11
57.126469
21
38.482386
0
LINE
8
Image
10
57.126469
20
38.482386
11
58.232329
21
39.120277
0
LINE
8
Image
10
58.232329
20
39.120277
11
59.459509
21
39.804724
0
LINE
8
Image
10
59.459509
20
39.804724
11
59.559030
21
39.378877
0
LINE
8
Image
10
59.559030
20
39.378877
11
59.580831
21
37.268974
0
LINE
8
Image
10
59.580831
20
37.268974
11
59.580800
21
34.686700
0
LINE
8
Image
10
59.580800
20
34.686700
11
59.086112
21
33.848693
0
LINE
8
Image
10
59.086112
20
33.848693
11
57.891762
21
31.802983
0
LINE
8
Image
10
57.891762
20
31.802983
11
57.118920
21
30.595273
0
LINE
8
Image
10
57.118920
20
30.595273
11
56.689827
21
31.209719
0
LINE
8
Image
10
56.689827
20
31.209719
11
56.689989
21
31.209733
0
LINE
8
Image
10
58.287419
20
32.778043
11
59.409289
21
34.705723
0
LINE
8
Image
10
59.409289
20
34.705723
11
59.410348
21
37.142323
0
LINE
8
Image
10
59.410348
20
37.142323
11
59.376796
21
39.578923
0
LINE
8
Image
10
59.376796
20
39.578923
11
58.232526
21
38.941304
0
LINE
8
Image
10
58.232526
20
38.941304
11
57.122896
21
38.303685
0
LINE
8
Image
10
57.122896
20
38.303685
11
55.957696
21
38.973692
0
LINE
8
Image
10
55.957696
20
38.973692
11
54.792496
21
39.643698
0
LINE
8
Image
10
54.792496
20
39.643698
11
54.770033
21
37.246908
0
LINE
8
Image
10
54.770033
20
37.246908
11
54.747570
21
34.850118
0
LINE
8
Image
10
54.747570
20
34.850118
11
55.913400
21
32.849828
0
LINE
8
Image
10
55.913400
20
32.849828
11
57.122390
21
30.849948
0
LINE
8
Image
10
57.122390
20
30.849948
11
58.287420
21
32.778038
0
LINE
8
Image
10
58.287420
20
32.778038
11
58.287419
21
32.778043
0
LINE
8
Image
10
25.412519
20
32.563884
11
22.968419
21
36.778404
0
LINE
8
Image
10
22.968419
20
36.778404
11
23.012912
21
36.866886
0
LINE
8
Image
10
23.012912
20
36.866886
11
27.100042
21
34.522386
0
LINE
8
Image
10
27.100042
20
34.522386
11
27.262532
21
34.284948
0
LINE
8
Image
10
27.262532
20
34.284948
11
27.290732
21
33.474886
0
LINE
8
Image
10
27.290732
20
33.474886
11
27.290500
21
32.544600
0
LINE
8
Image
10
27.290500
20
32.544600
11
26.534700
21
32.544600
0
LINE
8
Image
10
26.534700
20
32.544600
11
25.663566
21
32.500354
0
LINE
8
Image
10
25.663566
20
32.500354
11
25.412318
21
32.563917
0
LINE
8
Image
10
25.412318
20
32.563917
11
25.412519
21
32.563884
0
LINE
8
Image
10
27.121229
20
33.467084
11
27.091772
21
34.199193
0
LINE
8
Image
10
27.091772
20
34.199193
11
26.923750
21
34.434243
0
LINE
8
Image
10
26.923750
20
34.434243
11
23.274210
21
36.527883
0
LINE
8
Image
10
23.274210
20
36.527883
11
25.391580
21
32.820013
0
LINE
8
Image
10
25.391580
20
32.820013
11
25.619940
21
32.658793
0
LINE
8
Image
10
25.619940
20
32.658793
11
26.318046
21
32.629322
0
LINE
8
Image
10
26.318046
20
32.629322
11
27.121000
21
32.629300
0
LINE
8
Image
10
27.121000
20
32.629300
11
27.121229
21
33.467084
0
LINE
8
Image
10
35.914179
20
32.522998
11
35.087855
21
32.550705
0
LINE
8
Image
10
35.087855
20
32.550705
11
35.087700
21
33.478000
0
LINE
8
Image
10
35.087700
20
33.478000
11
35.115922
21
34.285350
0
LINE
8
Image
10
35.115922
20
34.285350
11
35.278390
21
34.522430
0
LINE
8
Image
10
35.278390
20
34.522430
11
39.365520
21
36.866930
0
LINE
8
Image
10
39.365520
20
36.866930
11
39.255015
21
36.464247
0
LINE
8
Image
10
39.255015
20
36.464247
11
38.253860
21
34.678750
0
LINE
8
Image
10
38.253860
20
34.678750
11
37.173146
21
32.869811
0
LINE
8
Image
10
37.173146
20
32.869811
11
36.787720
21
32.477600
0
LINE
8
Image
10
36.787720
20
32.477600
11
35.914030
21
32.523044
0
LINE
8
Image
10
35.914030
20
32.523044
11
35.914179
21
32.522998
0
LINE
8
Image
10
38.024479
20
34.599788
11
39.085429
21
36.523598
0
LINE
8
Image
10
39.085429
20
36.523598
11
37.164259
21
35.437758
0
LINE
8
Image
10
37.164259
20
35.437758
11
35.299729
21
34.356198
0
LINE
8
Image
10
35.299729
20
34.356198
11
35.275546
21
33.489653
0
LINE
8
Image
10
35.275546
20
33.489653
11
35.251364
21
32.623108
0
LINE
8
Image
10
35.251364
20
32.623108
11
36.079125
21
32.647402
0
LINE
8
Image
10
36.079125
20
32.647402
11
36.906889
21
32.671696
0
LINE
8
Image
10
36.906889
20
32.671696
11
38.024479
21
34.599788
0
LINE
8
Image
10
16.846279
20
33.924480
11
15.341949
21
34.834906
0
LINE
8
Image
10
15.341949
20
34.834906
11
15.722208
21
35.548570
0
LINE
8
Image
10
15.722208
20
35.548570
11
16.099781
21
36.309280
0
LINE
8
Image
10
16.099781
20
36.309280
11
15.724033
21
37.032405
0
LINE
8
Image
10
15.724033
20
37.032405
11
15.393836
21
37.731603
0
LINE
8
Image
10
15.393836
20
37.731603
11
16.228302
21
37.799149
0
LINE
8
Image
10
16.228302
20
37.799149
11
17.020800
21
37.799200
0
LINE
8
Image
10
17.020800
20
37.799200
11
17.408655
21
38.471626
0
LINE
8
Image
10
17.408655
20
38.471626
11
17.861015
21
39.183163
0
LINE
8
Image
10
17.861015
20
39.183163
11
19.450375
21
38.342999
0
LINE
8
Image
10
19.450375
20
38.342999
11
20.975225
21
37.463723
0
LINE
8
Image
10
20.975225
20
37.463723
11
21.430199
21
36.678010
0
LINE
8
Image
10
21.430199
20
36.678010
11
23.476739
21
33.096920
0
LINE
8
Image
10
23.476739
20
33.096920
11
20.913009
21
33.055834
0
LINE
8
Image
10
20.913009
20
33.055834
11
18.349279
21
33.058538
0
LINE
8
Image
10
18.349279
20
33.058538
11
16.846279
21
33.924480
0
LINE
8
Image
10
23.184039
20
33.285830
11
22.272109
21
34.917290
0
LINE
8
Image
10
22.272109
20
34.917290
11
20.872323
21
37.216379
0
LINE
8
Image
10
20.872323
20
37.216379
11
20.360626
21
37.643363
0
LINE
8
Image
10
20.360626
20
37.643363
11
19.509579
21
38.129040
0
LINE
8
Image
10
19.509579
20
38.129040
11
18.035189
21
38.945544
0
LINE
8
Image
10
18.035189
20
38.945544
11
17.840091
21
38.845000
0
LINE
8
Image
10
17.840091
20
38.845000
11
17.495784
21
38.314716
0
LINE
8
Image
10
17.495784
20
38.314716
11
17.097729
21
37.629647
0
LINE
8
Image
10
17.097729
20
37.629647
11
16.346200
21
37.629700
0
LINE
8
Image
10
16.346200
20
37.629700
11
15.594877
21
37.594769
0
LINE
8
Image
10
15.594877
20
37.594769
11
15.933882
21
36.971842
0
LINE
8
Image
10
15.933882
20
36.971842
11
16.272887
21
36.282849
0
LINE
8
Image
10
16.272887
20
36.282849
11
15.892210
21
35.531542
0
LINE
8
Image
10
15.892210
20
35.531542
11
15.616769
21
34.821158
0
LINE
8
Image
10
15.616769
20
34.821158
11
17.120199
21
33.949482
0
LINE
8
Image
10
17.120199
20
33.949482
11
18.518399
21
33.137879
0
LINE
8
Image
10
18.518399
20
33.137879
11
20.879500
21
33.137800
0
LINE
8
Image
10
20.879500
20
33.137800
11
22.881095
21
33.159807
0
LINE
8
Image
10
22.881095
20
33.159807
11
23.183820
21
33.285802
0
LINE
8
Image
10
23.183820
20
33.285802
11
23.184039
21
33.285830
0
LINE
8
Image
10
38.926939
20
33.159016
11
40.186089
21
35.364556
0
LINE
8
Image
10
40.186089
20
35.364556
11
41.401849
21
37.464156
0
LINE
8
Image
10
41.401849
20
37.464156
11
42.927369
21
38.343193
0
LINE
8
Image
10
42.927369
20
38.343193
11
44.508419
21
39.188666
0
LINE
8
Image
10
44.508419
20
39.188666
11
44.961419
21
38.477129
0
LINE
8
Image
10
44.961419
20
38.477129
11
45.358886
21
37.799156
0
LINE
8
Image
10
45.358886
20
37.799156
11
46.150800
21
37.799200
0
LINE
8
Image
10
46.150800
20
37.799200
11
46.984625
21
37.731654
0
LINE
8
Image
10
46.984625
20
37.731654
11
46.654431
21
37.032456
0
LINE
8
Image
10
46.654431
20
37.032456
11
46.278683
21
36.305953
0
LINE
8
Image
10
46.278683
20
36.305953
11
46.667131
21
35.518755
0
LINE
8
Image
10
46.667131
20
35.518755
11
47.027324
21
34.798397
0
LINE
8
Image
10
47.027324
20
34.798397
11
45.501964
21
33.911756
0
LINE
8
Image
10
45.501964
20
33.911756
11
44.008674
21
33.053127
0
LINE
8
Image
10
44.008674
20
33.053127
11
41.446000
21
33.053100
0
LINE
8
Image
10
41.446000
20
33.053100
11
38.926750
21
33.159039
0
LINE
8
Image
10
38.926750
20
33.159039
11
38.926939
21
33.159016
0
LINE
8
Image
10
44.915809
20
33.748387
11
46.417489
21
34.621467
0
LINE
8
Image
10
46.417489
20
34.621467
11
46.856572
21
34.883987
0
LINE
8
Image
10
46.856572
20
34.883987
11
46.484862
21
35.515243
0
LINE
8
Image
10
46.484862
20
35.515243
11
46.109345
21
36.265146
0
LINE
8
Image
10
46.109345
20
36.265146
11
46.444540
21
36.971789
0
LINE
8
Image
10
46.444540
20
36.971789
11
46.783545
21
37.594716
0
LINE
8
Image
10
46.783545
20
37.594716
11
46.032222
21
37.629647
0
LINE
8
Image
10
46.032222
20
37.629647
11
45.280700
21
37.629700
0
LINE
8
Image
10
45.280700
20
37.629700
11
44.886749
21
38.307710
0
LINE
8
Image
10
44.886749
20
38.307710
11
44.416151
21
38.985721
0
LINE
8
Image
10
44.416151
20
38.985721
11
42.919611
21
38.159396
0
LINE
8
Image
10
42.919611
20
38.159396
11
41.499721
21
37.333071
0
LINE
8
Image
10
41.499721
20
37.333071
11
40.327721
21
35.303041
0
LINE
8
Image
10
40.327721
20
35.303041
11
39.155721
21
33.205451
0
LINE
8
Image
10
39.155721
20
33.205451
11
41.504361
21
33.137886
0
LINE
8
Image
10
41.504361
20
33.137886
11
43.853000
21
33.137800
0
LINE
8
Image
10
43.853000
20
33.137800
11
44.915809
21
33.748387
0
LINE
8
Image
10
28.879809
20
34.430386
11
28.138233
21
34.868431
0
LINE
8
Image
10
28.138233
20
34.868431
11
28.138100
21
37.350800
0
LINE
8
Image
10
28.138100
20
37.350800
11
28.201663
21
39.831840
0
LINE
8
Image
10
28.201663
20
39.831840
11
30.637253
21
35.674040
0
LINE
8
Image
10
30.637253
20
35.674040
11
30.246418
21
34.772341
0
LINE
8
Image
10
30.246418
20
34.772341
11
29.709363
21
33.988830
0
LINE
8
Image
10
29.709363
20
33.988830
11
28.879673
21
34.430374
0
LINE
8
Image
10
28.879673
20
34.430374
11
28.879809
21
34.430386
0
LINE
8
Image
10
30.116449
20
34.845212
11
30.470630
21
35.664026
0
LINE
8
Image
10
30.470630
20
35.664026
11
28.289870
21
39.406066
0
LINE
8
Image
10
28.289870
20
39.406066
11
28.289341
21
35.031756
0
LINE
8
Image
10
28.289341
20
35.031756
11
29.667091
21
34.160896
0
LINE
8
Image
10
29.667091
20
34.160896
11
30.116361
21
34.845212
0
LINE
8
Image
10
30.116361
20
34.845212
11
30.116449
21
34.845212
0
LINE
8
Image
10
32.135669
20
34.755630
11
31.738617
21
35.666707
0
LINE
8
Image
10
31.738617
20
35.666707
11
34.176767
21
39.832677
0
LINE
8
Image
10
34.176767
20
39.832677
11
34.240331
21
37.353327
0
LINE
8
Image
10
34.240331
20
37.353327
11
34.240200
21
34.873500
0
LINE
8
Image
10
34.240200
20
34.873500
11
33.480482
21
34.429441
0
LINE
8
Image
10
33.480482
20
34.429441
11
32.653274
21
33.985382
0
LINE
8
Image
10
32.653274
20
33.985382
11
32.135541
21
34.755670
0
LINE
8
Image
10
32.135541
20
34.755670
11
32.135669
21
34.755630
0
LINE
8
Image
10
33.442059
20
34.582753
11
34.150483
21
35.010661
0
LINE
8
Image
10
34.150483
20
35.010661
11
34.149690
21
37.210041
0
LINE
8
Image
10
34.149690
20
37.210041
11
34.088672
21
39.406061
0
LINE
8
Image
10
34.088672
20
39.406061
11
31.907992
21
35.664021
0
LINE
8
Image
10
31.907992
20
35.664021
11
32.699672
21
34.154841
0
LINE
8
Image
10
32.699672
20
34.154841
11
33.442124
21
34.582749
0
LINE
8
Image
10
33.442124
20
34.582749
11
33.442059
21
34.582753
0
LINE
8
Image
10
25.590009
20
36.935663
11
23.469169
21
38.163703
0
LINE
8
Image
10
23.469169
20
38.163703
11
22.328659
21
38.824880
0
LINE
8
Image
10
22.328659
20
38.824880
11
21.455673
21
40.343880
0
LINE
8
Image
10
21.455673
20
40.343880
11
20.628176
21
41.936490
0
LINE
8
Image
10
20.628176
20
41.936490
11
21.354903
21
42.405921
0
LINE
8
Image
10
21.354903
20
42.405921
11
22.036141
21
42.801747
0
LINE
8
Image
10
22.036141
20
42.801747
11
22.036000
21
43.605800
0
LINE
8
Image
10
22.036000
20
43.605800
11
22.122434
21
44.409806
0
LINE
8
Image
10
22.122434
20
44.409806
11
22.525002
21
44.210356
0
LINE
8
Image
10
22.525002
20
44.210356
11
23.189383
21
43.833347
0
LINE
8
Image
10
23.189383
20
43.833347
11
23.537630
21
43.655789
0
LINE
8
Image
10
23.537630
20
43.655789
11
24.181673
21
44.032798
0
LINE
8
Image
10
24.181673
20
44.032798
11
24.935195
21
44.407541
0
LINE
8
Image
10
24.935195
20
44.407541
11
25.913372
21
42.885451
0
LINE
8
Image
10
25.913372
20
42.885451
11
26.782072
21
41.365621
0
LINE
8
Image
10
26.782072
20
41.365621
11
26.782000
21
38.862000
0
LINE
8
Image
10
26.782000
20
38.862000
11
26.676061
21
36.363610
0
LINE
8
Image
10
26.676061
20
36.363610
11
25.589801
21
36.935681
0
LINE
8
Image
10
25.589801
20
36.935681
11
25.590009
21
36.935663
0
LINE
8
Image
10
25.787663
20
42.785193
11
24.898937
21
44.238533
0
LINE
8
Image
10
24.898937
20
44.238533
11
24.192736
21
43.858876
0
LINE
8
Image
10
24.192736
20
43.858876
11
23.519729
21
43.477495
0
LINE
8
Image
10
23.519729
20
43.477495
11
22.903804
21
43.816500
0
LINE
8
Image
10
22.903804
20
43.816500
11
22.296267
21
44.126913
0
LINE
8
Image
10
22.296267
20
44.126913
11
22.130928
21
44.091942
0
LINE
8
Image
10
22.130928
20
44.091942
11
22.130928
21
43.344295
0
LINE
8
Image
10
22.130928
20
43.344295
11
22.120901
21
42.660211
0
LINE
8
Image
10
22.120901
20
42.660211
11
21.464079
21
42.290239
0
LINE
8
Image
10
21.464079
20
42.290239
11
20.778349
21
41.900148
0
LINE
8
Image
10
20.778349
20
41.900148
11
21.593201
21
40.411668
0
LINE
8
Image
10
21.593201
20
40.411668
11
22.436961
21
38.943308
0
LINE
8
Image
10
22.436961
20
38.943308
11
24.503651
21
37.744268
0
LINE
8
Image
10
24.503651
20
37.744268
11
26.570341
21
36.545228
0
LINE
8
Image
10
26.570341
20
36.545228
11
26.592804
21
38.939408
0
LINE
8
Image
10
26.592804
20
38.939408
11
26.615267
21
41.333588
0
LINE
8
Image
10
26.615267
20
41.333588
11
25.787663
21
42.785193
0
LINE
8
Image
10
35.596343
20
38.859513
11
35.596200
21
41.360700
0
LINE
8
Image
10
35.596200
20
41.360700
11
36.464900
21
42.882670
0
LINE
8
Image
10
36.464900
20
42.882670
11
37.449644
21
44.407230
0
LINE
8
Image
10
37.449644
20
44.407230
11
38.042903
21
44.123829
0
LINE
8
Image
10
38.042903
20
44.123829
11
38.834339
21
43.729621
0
LINE
8
Image
10
38.834339
20
43.729621
11
39.531933
21
44.033452
0
LINE
8
Image
10
39.531933
20
44.033452
11
40.267270
21
44.409813
0
LINE
8
Image
10
40.267270
20
44.409813
11
40.342271
21
43.605807
0
LINE
8
Image
10
40.342271
20
43.605807
11
40.342200
21
42.801800
0
LINE
8
Image
10
40.342200
20
42.801800
11
41.023438
21
42.405974
0
LINE
8
Image
10
41.023438
20
42.405974
11
41.750314
21
41.936301
0
LINE
8
Image
10
41.750314
20
41.936301
11
40.920762
21
40.343681
0
LINE
8
Image
10
40.920762
20
40.343681
11
40.045572
21
38.824901
0
LINE
8
Image
10
40.045572
20
38.824901
11
38.986182
21
38.209734
0
LINE
8
Image
10
38.986182
20
38.209734
11
35.683682
21
36.358434
0
LINE
8
Image
10
35.683682
20
36.358434
11
35.596131
21
38.859564
0
LINE
8
Image
10
35.596131
20
38.859564
11
35.596343
21
38.859513
0
LINE
8
Image
10
38.213613
20
37.941227
11
39.940993
21
38.943297
0
LINE
8
Image
10
39.940993
20
38.943297
11
40.783542
21
40.413187
0
LINE
8
Image
10
40.783542
20
40.413187
11
41.598704
21
41.903977
0
LINE
8
Image
10
41.598704
20
41.903977
11
40.914495
21
42.294294
0
LINE
8
Image
10
40.914495
20
42.294294
11
40.257673
21
42.663707
0
LINE
8
Image
10
40.257673
20
42.663707
11
40.247090
21
43.155352
0
LINE
8
Image
10
40.247090
20
43.155352
11
40.215308
21
43.816500
0
LINE
8
Image
10
40.215308
20
43.816500
11
40.183527
21
44.108989
0
LINE
8
Image
10
40.183527
20
44.108989
11
39.534857
21
43.854735
0
LINE
8
Image
10
39.534857
20
43.854735
11
38.863851
21
43.477494
0
LINE
8
Image
10
38.863851
20
43.477494
11
38.185839
21
43.858875
0
LINE
8
Image
10
38.185839
20
43.858875
11
37.479638
21
44.238532
0
LINE
8
Image
10
37.479638
20
44.238532
11
36.592190
21
42.787422
0
LINE
8
Image
10
36.592190
20
42.787422
11
35.765866
21
41.338042
0
LINE
8
Image
10
35.765866
20
41.338042
11
35.765700
21
38.929400
0
LINE
8
Image
10
35.765700
20
38.929400
11
35.765700
21
36.520800
0
LINE
8
Image
10
35.765700
20
36.520800
11
36.125893
21
36.730009
0
LINE
8
Image
10
36.125893
20
36.730009
11
38.213463
21
37.941289
0
LINE
8
Image
10
38.213463
20
37.941289
11
38.213613
21
37.941227
0
LINE
8
Image
10
9.153913
20
38.887073
11
9.153770
21
41.331000
0
LINE
8
Image
10
9.153770
20
41.331000
11
11.232910
21
42.531370
0
LINE
8
Image
10
11.232910
20
42.531370
11
13.351690
21
43.731740
0
LINE
8
Image
10
13.351690
20
43.731740
11
13.306656
21
43.438452
0
LINE
8
Image
10
13.306656
20
43.438452
11
12.713325
21
42.333340
0
LINE
8
Image
10
12.713325
20
42.333340
11
12.035315
21
41.043560
0
LINE
8
Image
10
12.035315
20
41.043560
11
12.543822
21
40.065567
0
LINE
8
Image
10
12.543822
20
40.065567
11
13.052329
21
39.082502
0
LINE
8
Image
10
13.052329
20
39.082502
11
11.916989
21
38.985665
0
LINE
8
Image
10
11.916989
20
38.985665
11
10.781600
21
38.985700
0
LINE
8
Image
10
10.781600
20
38.985700
11
10.040826
21
37.714430
0
LINE
8
Image
10
10.040826
20
37.714430
11
9.226892
21
36.443160
0
LINE
8
Image
10
9.226892
20
36.443160
11
9.153732
21
38.887100
0
LINE
8
Image
10
9.153732
20
38.887100
11
9.153913
21
38.887073
0
LINE
8
Image
10
10.129661
20
38.157011
11
10.714874
21
39.150502
0
LINE
8
Image
10
10.714874
20
39.150502
11
11.797114
21
39.174026
0
LINE
8
Image
10
11.797114
20
39.174026
11
12.879354
21
39.197550
0
LINE
8
Image
10
12.879354
20
39.197550
11
12.372656
21
40.062964
0
LINE
8
Image
10
12.372656
20
40.062964
11
11.866765
21
41.037604
0
LINE
8
Image
10
11.866765
20
41.037604
11
12.491652
21
42.248594
0
LINE
8
Image
10
12.491652
20
42.248594
11
13.092181
21
43.377594
0
LINE
8
Image
10
13.092181
20
43.377594
11
12.488482
21
43.074658
0
LINE
8
Image
10
12.488482
20
43.074658
11
9.471732
21
41.325328
0
LINE
8
Image
10
9.471732
20
41.325328
11
9.346919
21
40.898855
0
LINE
8
Image
10
9.346919
20
40.898855
11
9.323417
21
39.031168
0
LINE
8
Image
10
9.323417
20
39.031168
11
9.344058
21
37.271684
0
LINE
8
Image
10
9.344058
20
37.271684
11
9.433933
21
36.996338
0
LINE
8
Image
10
9.433933
20
36.996338
11
10.129662
21
38.156998
0
LINE
8
Image
10
10.129662
20
38.156998
11
10.129661
21
38.157011
0
LINE
8
Image
10
52.337461
20
37.714403
11
51.596689
21
38.985673
0
LINE
8
Image
10
51.596689
20
38.985673
11
50.461200
21
38.985700
0
LINE
8
Image
10
50.461200
20
38.985700
11
49.325850
21
39.092057
0
LINE
8
Image
10
49.325850
20
39.092057
11
49.834357
21
40.073491
0
LINE
8
Image
10
49.834357
20
40.073491
11
50.342867
21
41.041963
0
LINE
8
Image
10
50.342867
20
41.041963
11
49.664855
21
42.333373
0
LINE
8
Image
10
49.664855
20
42.333373
11
49.071525
21
43.438484
0
LINE
8
Image
10
49.071525
20
43.438484
11
49.026490
21
43.731773
0
LINE
8
Image
10
49.026490
20
43.731773
11
51.145270
21
42.531403
0
LINE
8
Image
10
51.145270
20
42.531403
11
53.224410
21
41.331033
0
LINE
8
Image
10
53.224410
20
41.331033
11
53.224400
21
38.887100
0
LINE
8
Image
10
53.224400
20
38.887100
11
53.151240
21
36.443160
0
LINE
8
Image
10
53.151240
20
36.443160
11
52.337303
21
37.714430
0
LINE
8
Image
10
52.337303
20
37.714430
11
52.337461
21
37.714403
0
LINE
8
Image
10
52.950579
20
41.290013
11
49.286779
21
43.378093
0
LINE
8
Image
10
49.286779
20
43.378093
11
49.886819
21
42.248603
0
LINE
8
Image
10
49.886819
20
42.248603
11
50.511706
21
41.037613
0
LINE
8
Image
10
50.511706
20
41.037613
11
50.005815
21
40.062973
0
LINE
8
Image
10
50.005815
20
40.062973
11
49.499117
21
39.197559
0
LINE
8
Image
10
49.499117
20
39.197559
11
50.583097
21
39.174022
0
LINE
8
Image
10
50.583097
20
39.174022
11
51.667077
21
39.150484
0
LINE
8
Image
10
51.667077
20
39.150484
11
52.339880
21
38.010034
0
LINE
8
Image
10
52.339880
20
38.010034
11
53.012683
21
36.869584
0
LINE
8
Image
10
53.012683
20
36.869584
11
53.035332
21
39.046394
0
LINE
8
Image
10
53.035332
20
39.046394
11
52.950580
21
41.290024
0
LINE
8
Image
10
52.950580
20
41.290024
11
52.950579
21
41.290013
0
LINE
8
Image
10
29.881979
20
39.696423
11
28.643289
21
41.847943
0
LINE
8
Image
10
28.643289
20
41.847943
11
28.666202
21
43.658543
0
LINE
8
Image
10
28.666202
20
43.658543
11
28.689115
21
45.469143
0
LINE
8
Image
10
28.689115
20
45.469143
11
29.282374
21
45.485206
0
LINE
8
Image
10
29.282374
20
45.485206
11
30.096612
21
45.506393
0
LINE
8
Image
10
30.096612
20
45.506393
11
30.351145
21
45.637374
0
LINE
8
Image
10
30.351145
20
45.637374
11
30.717961
21
46.189529
0
LINE
8
Image
10
30.717961
20
46.189529
11
31.179317
21
46.867539
0
LINE
8
Image
10
31.179317
20
46.867539
11
31.648396
21
46.192479
0
LINE
8
Image
10
31.648396
20
46.192479
11
32.056486
21
45.517419
0
LINE
8
Image
10
32.056486
20
45.517419
11
32.872963
21
45.493282
0
LINE
8
Image
10
32.872963
20
45.493282
11
33.689440
21
45.469144
0
LINE
8
Image
10
33.689440
20
45.469144
11
33.712353
21
43.656014
0
LINE
8
Image
10
33.712353
20
43.656014
11
33.735266
21
41.842884
0
LINE
8
Image
10
33.735266
20
41.842884
11
33.041418
21
40.647344
0
LINE
8
Image
10
33.041418
20
40.647344
11
31.805948
21
38.498354
0
LINE
8
Image
10
31.805948
20
38.498354
11
31.192515
21
37.544902
0
LINE
8
Image
10
31.192515
20
37.544902
11
29.882005
21
39.696422
0
LINE
8
Image
10
29.882005
20
39.696422
11
29.881979
21
39.696423
0
LINE
8
Image
10
32.396959
20
39.831398
11
33.562289
21
41.858238
0
LINE
8
Image
10
33.562289
20
41.858238
11
33.562100
21
43.600100
0
LINE
8
Image
10
33.562100
20
43.600100
11
33.562100
21
45.342000
0
LINE
8
Image
10
33.562100
20
45.342000
11
32.773800
21
45.342000
0
LINE
8
Image
10
32.773800
20
45.342000
11
31.985500
21
45.342000
0
LINE
8
Image
10
31.985500
20
45.342000
11
31.608509
21
45.975212
0
LINE
8
Image
10
31.608509
20
45.975212
11
31.189140
21
46.608423
0
LINE
8
Image
10
31.189140
20
46.608423
11
30.769773
21
45.975212
0
LINE
8
Image
10
30.769773
20
45.975212
11
30.392782
21
45.342000
0
LINE
8
Image
10
30.392782
20
45.342000
11
29.604400
21
45.342000
0
LINE
8
Image
10
29.604400
20
45.342000
11
28.816100
21
45.342000
0
LINE
8
Image
10
28.816100
20
45.342000
11
28.816100
21
43.597000
0
LINE
8
Image
10
28.816100
20
43.597000
11
28.816100
21
41.851900
0
LINE
8
Image
10
28.816100
20
41.851900
11
29.981430
21
39.827640
0
LINE
8
Image
10
29.981430
20
39.827640
11
31.189140
21
37.803960
0
LINE
8
Image
10
31.189140
20
37.803960
11
32.396840
21
39.831380
0
LINE
8
Image
10
32.396840
20
39.831380
11
32.396959
21
39.831398
0
LINE
8
Image
10
13.891559
20
40.193377
11
13.501156
21
40.871842
0
LINE
8
Image
10
13.501156
20
40.871842
11
14.459708
21
42.657392
0
LINE
8
Image
10
14.459708
20
42.657392
11
15.453760
21
44.378922
0
LINE
8
Image
10
15.453760
20
44.378922
11
17.069180
21
45.305413
0
LINE
8
Image
10
17.069180
20
45.305413
11
18.813640
21
46.255044
0
LINE
8
Image
10
18.813640
20
46.255044
11
19.578322
21
45.916039
0
LINE
8
Image
10
19.578322
20
45.916039
11
20.213956
21
45.553895
0
LINE
8
Image
10
20.213956
20
45.553895
11
20.238139
21
44.734269
0
LINE
8
Image
10
20.238139
20
44.734269
11
20.262322
21
43.914644
0
LINE
8
Image
10
20.262322
20
43.914644
11
19.196522
21
43.301060
0
LINE
8
Image
10
19.196522
20
43.301060
11
18.088012
21
42.618364
0
LINE
8
Image
10
18.088012
20
42.618364
11
18.515187
21
41.735389
0
LINE
8
Image
10
18.515187
20
41.735389
11
18.985078
21
40.885862
0
LINE
8
Image
10
18.985078
20
40.885862
11
18.752856
21
40.905220
0
LINE
8
Image
10
18.752856
20
40.905220
11
18.010436
21
41.310623
0
LINE
8
Image
10
18.010436
20
41.310623
11
17.187371
21
41.728572
0
LINE
8
Image
10
17.187371
20
41.728572
11
16.518891
21
40.635332
0
LINE
8
Image
10
16.518891
20
40.635332
11
15.910715
21
39.578932
0
LINE
8
Image
10
15.910715
20
39.578932
11
15.078500
21
39.578900
0
LINE
8
Image
10
15.078500
20
39.578900
11
14.246300
21
39.578900
0
LINE
8
Image
10
14.246300
20
39.578900
11
13.891559
21
40.193377
0
LINE
8
Image
10
16.406669
20
40.747311
11
17.099064
21
41.879651
0
LINE
8
Image
10
17.099064
20
41.879651
11
17.918102
21
41.542284
0
LINE
8
Image
10
17.918102
20
41.542284
11
18.646054
21
41.154460
0
LINE
8
Image
10
18.646054
20
41.154460
11
18.253968
21
41.886087
0
LINE
8
Image
10
18.253968
20
41.886087
11
17.936148
21
42.690606
0
LINE
8
Image
10
17.936148
20
42.690606
11
19.027438
21
43.383573
0
LINE
8
Image
10
19.027438
20
43.383573
11
20.044458
21
43.963020
0
LINE
8
Image
10
20.044458
20
43.963020
11
20.068271
21
44.716085
0
LINE
8
Image
10
20.068271
20
44.716085
11
20.092083
21
45.469149
0
LINE
8
Image
10
20.092083
20
45.469149
11
19.464201
21
45.804712
0
LINE
8
Image
10
19.464201
20
45.804712
11
18.836316
21
46.140275
0
LINE
8
Image
10
18.836316
20
46.140275
11
17.195536
21
45.195357
0
LINE
8
Image
10
17.195536
20
45.195357
11
15.554756
21
44.250439
0
LINE
8
Image
10
15.554756
20
44.250439
11
14.596738
21
42.592599
0
LINE
8
Image
10
14.596738
20
42.592599
11
13.638717
21
40.934759
0
LINE
8
Image
10
13.638717
20
40.934759
11
13.869322
21
40.532290
0
LINE
8
Image
10
13.869322
20
40.532290
11
14.398059
21
39.753563
0
LINE
8
Image
10
14.398059
20
39.753563
11
15.115062
21
39.681582
0
LINE
8
Image
10
15.115062
20
39.681582
11
15.805375
21
39.706066
0
LINE
8
Image
10
15.805375
20
39.706066
11
16.406669
21
40.747311
0
LINE
8
Image
10
45.861269
20
40.632515
11
45.187741
21
41.731125
0
LINE
8
Image
10
45.187741
20
41.731125
11
44.746057
21
41.537225
0
LINE
8
Image
10
44.746057
20
41.537225
11
43.424507
21
40.875652
0
LINE
8
Image
10
43.424507
20
40.875652
11
43.624000
21
41.334297
0
LINE
8
Image
10
43.624000
20
41.334297
11
44.291035
21
42.617537
0
LINE
8
Image
10
44.291035
20
42.617537
11
43.182015
21
43.301060
0
LINE
8
Image
10
43.182015
20
43.301060
11
42.116215
21
43.914644
0
LINE
8
Image
10
42.116215
20
43.914644
11
42.140398
21
44.734269
0
LINE
8
Image
10
42.140398
20
44.734269
11
42.164581
21
45.553895
0
LINE
8
Image
10
42.164581
20
45.553895
11
42.800215
21
45.916039
0
LINE
8
Image
10
42.800215
20
45.916039
11
43.564897
21
46.255044
0
LINE
8
Image
10
43.564897
20
46.255044
11
45.309357
21
45.305413
0
LINE
8
Image
10
45.309357
20
45.305413
11
46.924767
21
44.378922
0
LINE
8
Image
10
46.924767
20
44.378922
11
47.920112
21
42.655152
0
LINE
8
Image
10
47.920112
20
42.655152
11
48.915455
21
40.931382
0
LINE
8
Image
10
48.915455
20
40.931382
11
48.537284
21
40.276342
0
LINE
8
Image
10
48.537284
20
40.276342
11
48.159116
21
39.621302
0
LINE
8
Image
10
48.159116
20
39.621302
11
47.315094
21
39.597296
0
LINE
8
Image
10
47.315094
20
39.597296
11
46.471074
21
39.573291
0
LINE
8
Image
10
46.471074
20
39.573291
11
45.861269
21
40.632515
0
LINE
8
Image
10
48.376949
20
40.317857
11
48.742759
21
40.929658
0
LINE
8
Image
10
48.742759
20
40.929658
11
47.783270
21
42.590048
0
LINE
8
Image
10
47.783270
20
42.590048
11
46.823778
21
44.250438
0
LINE
8
Image
10
46.823778
20
44.250438
11
45.182998
21
45.195356
0
LINE
8
Image
10
45.182998
20
45.195356
11
43.542218
21
46.140274
0
LINE
8
Image
10
43.542218
20
46.140274
11
42.914336
21
45.804711
0
LINE
8
Image
10
42.914336
20
45.804711
11
42.286451
21
45.469148
0
LINE
8
Image
10
42.286451
20
45.469148
11
42.310264
21
44.719460
0
LINE
8
Image
10
42.310264
20
44.719460
11
42.334076
21
43.969772
0
LINE
8
Image
10
42.334076
20
43.969772
11
43.388826
21
43.356166
0
LINE
8
Image
10
43.388826
20
43.356166
11
44.474466
21
42.649883
0
LINE
8
Image
10
44.474466
20
42.649883
11
44.118911
21
41.876146
0
LINE
8
Image
10
44.118911
20
41.876146
11
43.732464
21
41.154460
0
LINE
8
Image
10
43.732464
20
41.154460
11
44.452910
21
41.537865
0
LINE
8
Image
10
44.452910
20
41.537865
11
45.252623
21
41.912909
0
LINE
8
Image
10
45.252623
20
41.912909
11
45.776553
21
41.081620
0
LINE
8
Image
10
45.776553
20
41.081620
11
46.420810
21
39.978130
0
LINE
8
Image
10
46.420810
20
39.978130
11
46.620398
21
39.656936
0
LINE
8
Image
10
46.620398
20
39.656936
11
47.315770
21
39.681500
0
LINE
8
Image
10
47.315770
20
39.681500
11
48.011144
21
39.706064
0
LINE
8
Image
10
48.011144
20
39.706064
11
48.376949
21
40.317857
0
LINE
8
Image
10
3.984149
20
41.352587
11
2.840009
21
42.020083
0
LINE
8
Image
10
2.840009
20
42.020083
11
2.817149
21
43.911383
0
LINE
8
Image
10
2.817149
20
43.911383
11
2.794289
21
45.802683
0
LINE
8
Image
10
2.794289
20
45.802683
11
4.002569
21
47.013123
0
LINE
8
Image
10
4.002569
20
47.013123
11
5.264449
21
48.223563
0
LINE
8
Image
10
5.264449
20
48.223563
11
6.557999
21
46.984183
0
LINE
8
Image
10
6.557999
20
46.984183
11
7.797959
21
45.744803
0
LINE
8
Image
10
7.797959
20
45.744803
11
7.797695
21
43.911943
0
LINE
8
Image
10
7.797695
20
43.911943
11
7.797430
21
42.079083
0
LINE
8
Image
10
7.797430
20
42.079083
11
6.582350
21
41.379885
0
LINE
8
Image
10
6.582350
20
41.379885
11
5.247890
21
40.682884
0
LINE
8
Image
10
5.247890
20
40.682884
11
3.984370
21
41.352578
0
LINE
8
Image
10
3.984370
20
41.352578
11
3.984149
21
41.352587
0
LINE
8
Image
10
6.493949
20
41.505389
11
7.628459
21
42.160580
0
LINE
8
Image
10
7.628459
20
42.160580
11
7.628240
21
43.943100
0
LINE
8
Image
10
7.628240
20
43.943100
11
7.628240
21
45.725700
0
LINE
8
Image
10
7.628240
20
45.725700
11
6.441740
21
46.909930
0
LINE
8
Image
10
6.441740
20
46.909930
11
5.255240
21
48.094160
0
LINE
8
Image
10
5.255240
20
48.094160
11
4.111080
21
46.952350
0
LINE
8
Image
10
4.111080
20
46.952350
11
2.966920
21
45.810540
0
LINE
8
Image
10
2.966920
20
45.810540
11
2.966920
21
43.971500
0
LINE
8
Image
10
2.966920
20
43.971500
11
2.966920
21
42.132500
0
LINE
8
Image
10
2.966920
20
42.132500
11
4.047500
21
41.492809
0
LINE
8
Image
10
4.047500
20
41.492809
11
5.243650
21
40.851682
0
LINE
8
Image
10
5.243650
20
40.851682
11
6.493730
21
41.505438
0
LINE
8
Image
10
6.493730
20
41.505438
11
6.493949
21
41.505389
0
LINE
8
Image
10
55.788849
20
41.381506
11
54.581639
21
42.079092
0
LINE
8
Image
10
54.581639
20
42.079092
11
54.581110
21
43.913702
0
LINE
8
Image
10
54.581110
20
43.913702
11
54.580581
21
45.748312
0
LINE
8
Image
10
54.580581
20
45.748312
11
55.825181
21
46.985942
0
LINE
8
Image
10
55.825181
20
46.985942
11
57.118731
21
48.223572
0
LINE
8
Image
10
57.118731
20
48.223572
11
58.375961
21
47.013132
0
LINE
8
Image
10
58.375961
20
47.013132
11
59.584241
21
45.802692
0
LINE
8
Image
10
59.584241
20
45.802692
11
59.561381
21
43.911392
0
LINE
8
Image
10
59.561381
20
43.911392
11
59.538521
21
42.020092
0
LINE
8
Image
10
59.538521
20
42.020092
11
58.394381
21
41.352596
0
LINE
8
Image
10
58.394381
20
41.352596
11
57.123111
21
40.684515
0
LINE
8
Image
10
57.123111
20
40.684515
11
55.788781
21
41.381516
0
LINE
8
Image
10
55.788781
20
41.381516
11
55.788849
21
41.381506
0
LINE
8
Image
10
58.373269
20
41.518725
11
59.411469
21
42.133487
0
LINE
8
Image
10
59.411469
20
42.133487
11
59.411300
21
43.972000
0
LINE
8
Image
10
59.411300
20
43.972000
11
59.411300
21
45.810500
0
LINE
8
Image
10
59.411300
20
45.810500
11
58.267130
21
46.952310
0
LINE
8
Image
10
58.267130
20
46.952310
11
57.122970
21
48.094120
0
LINE
8
Image
10
57.122970
20
48.094120
11
55.936470
21
46.909890
0
LINE
8
Image
10
55.936470
20
46.909890
11
54.749970
21
45.725660
0
LINE
8
Image
10
54.749970
20
45.725660
11
54.750000
21
43.943400
0
LINE
8
Image
10
54.750000
20
43.943400
11
54.750000
21
42.161100
0
LINE
8
Image
10
54.750000
20
42.161100
11
55.872960
21
41.505033
0
LINE
8
Image
10
55.872960
20
41.505033
11
57.165420
21
40.876449
0
LINE
8
Image
10
57.165420
20
40.876449
11
58.373130
21
41.518694
0
LINE
8
Image
10
58.373130
20
41.518694
11
58.373269
21
41.518725
0
LINE
8
Image
10
9.719269
20
43.279435
11
9.662471
21
44.910355
0
LINE
8
Image
10
9.662471
20
44.910355
11
9.662270
21
46.484500
0
LINE
8
Image
10
9.662270
20
46.484500
11
8.118700
21
48.029760
0
LINE
8
Image
10
8.118700
20
48.029760
11
6.575130
21
49.575020
0
LINE
8
Image
10
6.575130
20
49.575020
11
6.820909
21
49.831559
0
LINE
8
Image
10
6.820909
20
49.831559
11
7.066691
21
50.088098
0
LINE
8
Image
10
7.066691
20
50.088098
11
8.364480
21
50.088100
0
LINE
8
Image
10
8.364480
20
50.088100
11
9.662270
21
50.088100
0
LINE
8
Image
10
9.662270
20
50.088100
11
9.662270
21
51.385900
0
LINE
8
Image
10
9.662270
20
51.385900
11
9.662270
21
52.683700
0
LINE
8
Image
10
9.662270
20
52.683700
11
9.899974
21
52.911434
0
LINE
8
Image
10
9.899974
20
52.911434
11
10.218675
21
53.139169
0
LINE
8
Image
10
10.218675
20
53.139169
11
11.821895
21
51.615179
0
LINE
8
Image
10
11.821895
20
51.615179
11
13.344125
21
50.091189
0
LINE
8
Image
10
13.344125
20
50.091189
11
14.895675
21
50.101354
0
LINE
8
Image
10
14.895675
20
50.101354
11
16.499985
21
50.058756
0
LINE
8
Image
10
16.499985
20
50.058756
11
14.515095
21
46.473856
0
LINE
8
Image
10
14.515095
20
46.473856
11
14.057139
21
45.698758
0
LINE
8
Image
10
14.057139
20
45.698758
11
12.092759
21
44.572518
0
LINE
8
Image
10
12.092759
20
44.572518
11
9.952119
21
43.334478
0
LINE
8
Image
10
9.952119
20
43.334478
11
9.719053
21
43.279471
0
LINE
8
Image
10
9.719053
20
43.279471
11
9.719269
21
43.279435
0
LINE
8
Image
10
11.797449
20
44.570115
11
13.875449
21
45.820195
0
LINE
8
Image
10
13.875449
20
45.820195
11
15.209969
21
47.969305
0
LINE
8
Image
10
15.209969
20
47.969305
11
16.357199
21
49.960965
0
LINE
8
Image
10
16.357199
20
49.960965
11
14.768429
21
49.983738
0
LINE
8
Image
10
14.768429
20
49.983738
11
13.179659
21
50.006510
0
LINE
8
Image
10
13.179659
20
50.006510
11
11.679089
21
51.504620
0
LINE
8
Image
10
11.679089
20
51.504620
11
10.349866
21
52.789093
0
LINE
8
Image
10
10.349866
20
52.789093
11
10.130374
21
52.910147
0
LINE
8
Image
10
10.130374
20
52.910147
11
10.005249
21
52.845920
0
LINE
8
Image
10
10.005249
20
52.845920
11
9.858400
21
52.509146
0
LINE
8
Image
10
9.858400
20
52.509146
11
9.831982
21
51.351940
0
LINE
8
Image
10
9.831982
20
51.351940
11
9.807626
21
50.221553
0
LINE
8
Image
10
9.807626
20
50.221553
11
9.680154
21
49.966580
0
LINE
8
Image
10
9.680154
20
49.966580
11
8.330644
21
49.937523
0
LINE
8
Image
10
8.330644
20
49.937523
11
7.298371
21
49.927104
0
LINE
8
Image
10
7.298371
20
49.927104
11
6.953164
21
49.793936
0
LINE
8
Image
10
6.953164
20
49.793936
11
6.773361
21
49.631218
0
LINE
8
Image
10
6.773361
20
49.631218
11
8.302671
21
48.100228
0
LINE
8
Image
10
8.302671
20
48.100228
11
9.831981
21
46.569238
0
LINE
8
Image
10
9.831981
20
46.569238
11
9.831780
21
45.023400
0
LINE
8
Image
10
9.831780
20
45.023400
11
9.869163
21
43.477520
0
LINE
8
Image
10
9.869163
20
43.477520
11
11.797253
21
44.570150
0
LINE
8
Image
10
11.797253
20
44.570150
11
11.797449
21
44.570115
0
LINE
8
Image
10
50.470249
20
44.456986
11
48.351469
21
45.672946
0
LINE
8
Image
10
48.351469
20
45.672946
11
47.978912
21
46.291432
0
LINE
8
Image
10
47.978912
20
46.291432
11
45.881222
21
50.061512
0
LINE
8
Image
10
45.881222
20
50.061512
11
47.482752
21
50.101324
0
LINE
8
Image
10
47.482752
20
50.101324
11
49.034302
21
50.091158
0
LINE
8
Image
10
49.034302
20
50.091158
11
50.556532
21
51.615148
0
LINE
8
Image
10
50.556532
20
51.615148
11
52.159752
21
53.139138
0
LINE
8
Image
10
52.159752
20
53.139138
11
52.478453
21
52.911403
0
LINE
8
Image
10
52.478453
20
52.911403
11
52.716154
21
52.683669
0
LINE
8
Image
10
52.716154
20
52.683669
11
52.715900
21
51.385900
0
LINE
8
Image
10
52.715900
20
51.385900
11
52.715900
21
50.088100
0
LINE
8
Image
10
52.715900
20
50.088100
11
54.013700
21
50.088100
0
LINE
8
Image
10
54.013700
20
50.088100
11
55.311500
21
50.088100
0
LINE
8
Image
10
55.311500
20
50.088100
11
55.557279
21
49.831561
0
LINE
8
Image
10
55.557279
20
49.831561
11
55.803058
21
49.575022
0
LINE
8
Image
10
55.803058
20
49.575022
11
54.259488
21
48.029762
0
LINE
8
Image
10
54.259488
20
48.029762
11
52.715918
21
46.484502
0
LINE
8
Image
10
52.715918
20
46.484502
11
52.715900
21
44.901300
0
LINE
8
Image
10
52.715900
20
44.901300
11
52.652337
21
43.279570
0
LINE
8
Image
10
52.652337
20
43.279570
11
50.469997
21
44.457050
0
LINE
8
Image
10
50.469997
20
44.457050
11
50.470249
21
44.456986
0
LINE
8
Image
10
52.546659
20
45.023361
11
52.546400
21
46.569300
0
LINE
8
Image
10
52.546400
20
46.569300
11
54.075710
21
48.100290
0
LINE
8
Image
10
54.075710
20
48.100290
11
55.605020
21
49.631280
0
LINE
8
Image
10
55.605020
20
49.631280
11
55.425217
21
49.793998
0
LINE
8
Image
10
55.425217
20
49.793998
11
55.080009
21
49.927165
0
LINE
8
Image
10
55.080009
20
49.927165
11
54.047737
21
49.937585
0
LINE
8
Image
10
54.047737
20
49.937585
11
52.698227
21
49.966642
0
LINE
8
Image
10
52.698227
20
49.966642
11
52.570756
21
50.221617
0
LINE
8
Image
10
52.570756
20
50.221617
11
52.546399
21
51.352002
0
LINE
8
Image
10
52.546399
20
51.352002
11
52.519978
21
52.509208
0
LINE
8
Image
10
52.519978
20
52.509208
11
52.373132
21
52.845982
0
LINE
8
Image
10
52.373132
20
52.845982
11
52.247996
21
52.910180
0
LINE
8
Image
10
52.247996
20
52.910180
11
52.028411
21
52.788949
0
LINE
8
Image
10
52.028411
20
52.788949
11
50.698432
21
51.503092
0
LINE
8
Image
10
50.698432
20
51.503092
11
49.197002
21
50.003402
0
LINE
8
Image
10
49.197002
20
50.003402
11
47.651200
21
50.003400
0
LINE
8
Image
10
47.651200
20
50.003400
11
46.105350
21
49.908047
0
LINE
8
Image
10
46.105350
20
49.908047
11
48.429880
21
45.866427
0
LINE
8
Image
10
48.429880
20
45.866427
11
52.482890
21
43.484437
0
LINE
8
Image
10
52.482890
20
43.484437
11
52.546453
21
45.023427
0
LINE
8
Image
10
52.546453
20
45.023427
11
52.546659
21
45.023361
0
LINE
8
Image
10
26.140459
20
46.185821
11
25.602892
21
47.002918
0
LINE
8
Image
10
25.602892
20
47.002918
11
24.498552
21
46.357929
0
LINE
8
Image
10
24.498552
20
46.357929
11
23.443692
21
45.739650
0
LINE
8
Image
10
23.443692
20
45.739650
11
23.015406
21
45.964586
0
LINE
8
Image
10
23.015406
20
45.964586
11
22.311681
21
46.357782
0
LINE
8
Image
10
22.311681
20
46.357782
11
22.036240
21
46.526041
0
LINE
8
Image
10
22.036240
20
46.526041
11
22.037828
21
47.353612
0
LINE
8
Image
10
22.037828
20
47.353612
11
22.039415
21
48.181183
0
LINE
8
Image
10
22.039415
20
48.181183
11
23.698255
21
49.134635
0
LINE
8
Image
10
23.698255
20
49.134635
11
25.357095
21
50.088087
0
LINE
8
Image
10
25.357095
20
50.088087
11
27.319805
21
50.085891
0
LINE
8
Image
10
27.319805
20
50.085891
11
29.282515
21
50.083695
0
LINE
8
Image
10
29.282515
20
50.083695
11
29.692682
21
49.405998
0
LINE
8
Image
10
29.692682
20
49.405998
11
30.102849
21
48.728301
0
LINE
8
Image
10
30.102849
20
48.728301
11
29.697730
21
48.073362
0
LINE
8
Image
10
29.697730
20
48.073362
11
29.202812
21
47.353934
0
LINE
8
Image
10
29.202812
20
47.353934
11
27.968872
21
47.299635
0
LINE
8
Image
10
27.968872
20
47.299635
11
26.824732
21
47.309827
0
LINE
8
Image
10
26.824732
20
47.309827
11
26.800867
21
46.325923
0
LINE
8
Image
10
26.800867
20
46.325923
11
26.702794
21
45.342017
0
LINE
8
Image
10
26.702794
20
45.342017
11
26.140510
21
46.185824
0
LINE
8
Image
10
26.140510
20
46.185824
11
26.140459
21
46.185821
0
LINE
8
Image
10
27.878269
20
47.460801
11
29.137500
21
47.460800
0
LINE
8
Image
10
29.137500
20
47.460800
11
29.529699
21
48.090058
0
LINE
8
Image
10
29.529699
20
48.090058
11
29.921898
21
48.719316
0
LINE
8
Image
10
29.921898
20
48.719316
11
29.532122
21
49.361327
0
LINE
8
Image
10
29.532122
20
49.361327
11
29.142349
21
50.003338
0
LINE
8
Image
10
29.142349
20
50.003338
11
27.326200
21
50.003400
0
LINE
8
Image
10
27.326200
20
50.003400
11
25.510100
21
50.003400
0
LINE
8
Image
10
25.510100
20
50.003400
11
23.836620
21
49.034611
0
LINE
8
Image
10
23.836620
20
49.034611
11
22.163140
21
48.065822
0
LINE
8
Image
10
22.163140
20
48.065822
11
22.138904
21
47.356447
0
LINE
8
Image
10
22.138904
20
47.356447
11
22.114668
21
46.647071
0
LINE
8
Image
10
22.114668
20
46.647071
11
22.762399
21
46.276466
0
LINE
8
Image
10
22.762399
20
46.276466
11
23.305941
21
46.000533
0
LINE
8
Image
10
23.305941
20
46.000533
11
23.552285
21
45.994636
0
LINE
8
Image
10
23.552285
20
45.994636
11
24.698395
21
46.653378
0
LINE
8
Image
10
24.698395
20
46.653378
11
25.509442
21
47.081468
0
LINE
8
Image
10
25.509442
20
47.081468
11
25.775885
21
47.109037
0
LINE
8
Image
10
25.775885
20
47.109037
11
26.209817
21
46.369010
0
LINE
8
Image
10
26.209817
20
46.369010
11
26.570216
21
45.743292
0
LINE
8
Image
10
26.570216
20
45.743292
11
26.594373
21
46.602076
0
LINE
8
Image
10
26.594373
20
46.602076
11
26.618529
21
47.460861
0
LINE
8
Image
10
26.618529
20
47.460861
11
27.878269
21
47.460801
0
LINE
8
Image
10
35.577949
20
46.325921
11
35.554084
21
47.309825
0
LINE
8
Image
10
35.554084
20
47.309825
11
34.409944
21
47.299633
0
LINE
8
Image
10
34.409944
20
47.299633
11
33.176004
21
47.353932
0
LINE
8
Image
10
33.176004
20
47.353932
11
32.681086
21
48.073360
0
LINE
8
Image
10
32.681086
20
48.073360
11
32.275970
21
48.728299
0
LINE
8
Image
10
32.275970
20
48.728299
11
32.686135
21
49.405996
0
LINE
8
Image
10
32.686135
20
49.405996
11
33.096302
21
50.083693
0
LINE
8
Image
10
33.096302
20
50.083693
11
35.059012
21
50.085889
0
LINE
8
Image
10
35.059012
20
50.085889
11
37.021722
21
50.088085
0
LINE
8
Image
10
37.021722
20
50.088085
11
38.680562
21
49.134633
0
LINE
8
Image
10
38.680562
20
49.134633
11
40.339402
21
48.181181
0
LINE
8
Image
10
40.339402
20
48.181181
11
40.340989
21
47.353610
0
LINE
8
Image
10
40.340989
20
47.353610
11
40.342577
21
46.526039
0
LINE
8
Image
10
40.342577
20
46.526039
11
40.067136
21
46.357780
0
LINE
8
Image
10
40.067136
20
46.357780
11
39.363411
21
45.964584
0
LINE
8
Image
10
39.363411
20
45.964584
11
38.935125
21
45.739648
0
LINE
8
Image
10
38.935125
20
45.739648
11
37.880265
21
46.357927
0
LINE
8
Image
10
37.880265
20
46.357927
11
36.775925
21
47.002916
0
LINE
8
Image
10
36.775925
20
47.002916
11
36.238358
21
46.185819
0
LINE
8
Image
10
36.238358
20
46.185819
11
35.676074
21
45.342012
0
LINE
8
Image
10
35.676074
20
45.342012
11
35.578006
21
46.325917
0
LINE
8
Image
10
35.578006
20
46.325917
11
35.577949
21
46.325921
0
LINE
8
Image
10
36.233692
20
46.486159
11
36.657641
21
47.191823
0
LINE
8
Image
10
36.657641
20
47.191823
11
38.826261
21
45.994573
0
LINE
8
Image
10
38.826261
20
45.994573
11
39.069686
21
45.998840
0
LINE
8
Image
10
39.069686
20
45.998840
11
39.601410
21
46.267973
0
LINE
8
Image
10
39.601410
20
46.267973
11
40.234412
21
46.630147
0
LINE
8
Image
10
40.234412
20
46.630147
11
40.224914
21
47.349383
0
LINE
8
Image
10
40.224914
20
47.349383
11
40.215415
21
48.068619
0
LINE
8
Image
10
40.215415
20
48.068619
11
38.535425
21
49.035978
0
LINE
8
Image
10
38.535425
20
49.035978
11
36.855435
21
50.003337
0
LINE
8
Image
10
36.855435
20
50.003337
11
35.051500
21
50.003400
0
LINE
8
Image
10
35.051500
20
50.003400
11
33.247700
21
50.003400
0
LINE
8
Image
10
33.247700
20
50.003400
11
32.851736
21
49.361776
0
LINE
8
Image
10
32.851736
20
49.361776
11
32.455772
21
48.720151
0
LINE
8
Image
10
32.455772
20
48.720151
11
32.848212
21
48.090506
0
LINE
8
Image
10
32.848212
20
48.090506
11
33.240652
21
47.460861
0
LINE
8
Image
10
33.240652
20
47.460861
11
34.503200
21
47.460800
0
LINE
8
Image
10
34.503200
20
47.460800
11
35.765700
21
47.460800
0
LINE
8
Image
10
35.765700
20
47.460800
11
35.765700
21
46.599200
0
LINE
8
Image
10
35.765700
20
46.599200
11
35.800223
21
45.772875
0
LINE
8
Image
10
35.800223
20
45.772875
11
36.233443
21
46.486199
0
LINE
8
Image
10
36.233443
20
46.486199
11
36.233692
21
46.486159
0
LINE
8
Image
10
16.124992
20
46.516100
11
18.513342
21
50.616490
0
LINE
8
Image
10
18.513342
20
50.616490
11
20.955702
21
50.680053
0
LINE
8
Image
10
20.955702
20
50.680053
11
23.306072
21
50.575411
0
LINE
8
Image
10
23.306072
20
50.575411
11
22.776377
21
50.158897
0
LINE
8
Image
10
22.776377
20
50.158897
11
21.506587
21
49.414044
0
LINE
8
Image
10
21.506587
20
49.414044
11
20.765014
21
48.979766
0
LINE
8
Image
10
20.765014
20
48.979766
11
20.764700
21
47.881300
0
LINE
8
Image
10
20.764700
20
47.881300
11
20.657404
21
46.782810
0
LINE
8
Image
10
20.657404
20
46.782810
11
19.669946
21
47.291318
0
LINE
8
Image
10
19.669946
20
47.291318
11
18.748242
21
47.799826
0
LINE
8
Image
10
18.748242
20
47.799826
11
17.449702
21
47.079440
0
LINE
8
Image
10
17.449702
20
47.079440
11
16.138162
21
46.359054
0
LINE
8
Image
10
16.138162
20
46.359054
11
16.124695
21
46.516122
0
LINE
8
Image
10
16.124695
20
46.516122
11
16.124992
21
46.516100
0
LINE
8
Image
10
17.589562
20
47.333672
11
18.758902
21
47.969307
0
LINE
8
Image
10
18.758902
20
47.969307
11
19.677637
21
47.460398
0
LINE
8
Image
10
19.677637
20
47.460398
11
20.553132
21
46.951489
0
LINE
8
Image
10
20.553132
20
46.951489
11
20.576786
21
48.001849
0
LINE
8
Image
10
20.576786
20
48.001849
11
20.600440
21
49.052209
0
LINE
8
Image
10
20.600440
20
49.052209
11
21.636180
21
49.668388
0
LINE
8
Image
10
21.636180
20
49.668388
11
22.839100
21
50.398208
0
LINE
8
Image
10
22.839100
20
50.398208
11
22.572670
21
50.491173
0
LINE
8
Image
10
22.572670
20
50.491173
11
20.790260
21
50.511849
0
LINE
8
Image
10
20.790260
20
50.511849
11
18.573900
21
50.511900
0
LINE
8
Image
10
18.573900
20
50.511900
11
17.877036
21
49.304190
0
LINE
8
Image
10
17.877036
20
49.304190
11
16.770426
21
47.397290
0
LINE
8
Image
10
16.770426
20
47.397290
11
16.411911
21
46.698092
0
LINE
8
Image
10
16.411911
20
46.698092
11
17.589241
21
47.333727
0
LINE
8
Image
10
17.589241
20
47.333727
11
17.589562
21
47.333672
0
LINE
8
Image
10
44.895662
20
47.092228
11
43.539642
21
47.768581
0
LINE
8
Image
10
43.539642
20
47.768581
11
42.588429
21
47.220849
0
LINE
8
Image
10
42.588429
20
47.220849
11
41.677351
21
46.756775
0
LINE
8
Image
10
41.677351
20
46.756775
11
41.613788
21
47.886275
0
LINE
8
Image
10
41.613788
20
47.886275
11
41.613500
21
48.979800
0
LINE
8
Image
10
41.613500
20
48.979800
11
40.871927
21
49.414078
0
LINE
8
Image
10
40.871927
20
49.414078
11
39.602137
21
50.158931
0
LINE
8
Image
10
39.602137
20
50.158931
11
39.072442
21
50.575445
0
LINE
8
Image
10
39.072442
20
50.575445
11
41.422812
21
50.680087
0
LINE
8
Image
10
41.422812
20
50.680087
11
43.863272
21
50.616524
0
LINE
8
Image
10
43.863272
20
50.616524
11
45.754492
21
47.452974
0
LINE
8
Image
10
45.754492
20
47.452974
11
46.222008
21
46.583452
0
LINE
8
Image
10
46.222008
20
46.583452
11
46.211260
21
46.363664
0
LINE
8
Image
10
46.211260
20
46.363664
11
44.895380
21
47.092258
0
LINE
8
Image
10
44.895380
20
47.092258
11
44.895662
21
47.092228
0
LINE
8
Image
10
45.608038
20
47.397235
11
44.501428
21
49.304135
0
LINE
8
Image
10
44.501428
20
49.304135
11
43.804564
21
50.511845
0
LINE
8
Image
10
43.804564
20
50.511845
11
41.588300
21
50.511900
0
LINE
8
Image
10
41.588300
20
50.511900
11
39.805889
21
50.491224
0
LINE
8
Image
10
39.805889
20
50.491224
11
39.539460
21
50.398259
0
LINE
8
Image
10
39.539460
20
50.398259
11
40.742370
21
49.668439
0
LINE
8
Image
10
40.742370
20
49.668439
11
41.778110
21
49.052260
0
LINE
8
Image
10
41.778110
20
49.052260
11
41.801764
21
48.001900
0
LINE
8
Image
10
41.801764
20
48.001900
11
41.825417
21
46.951540
0
LINE
8
Image
10
41.825417
20
46.951540
11
42.711048
21
47.466339
0
LINE
8
Image
10
42.711048
20
47.466339
11
43.457485
21
47.864518
0
LINE
8
Image
10
43.457485
20
47.864518
11
43.770438
21
47.899521
0
LINE
8
Image
10
43.770438
20
47.899521
11
44.918838
21
47.258449
0
LINE
8
Image
10
44.918838
20
47.258449
11
45.955508
21
46.698540
0
LINE
8
Image
10
45.955508
20
46.698540
11
45.607790
21
47.397285
0
LINE
8
Image
10
45.607790
20
47.397285
11
45.608038
21
47.397235
0
LINE
8
Image
10
30.602038
20
50.448285
11
30.068017
21
51.375437
0
LINE
8
Image
10
30.068017
20
51.375437
11
28.625527
21
51.455236
0
LINE
8
Image
10
28.625527
20
51.455236
11
27.309664
21
51.512392
0
LINE
8
Image
10
27.309664
20
51.512392
11
27.038977
21
51.643232
0
LINE
8
Image
10
27.038977
20
51.643232
11
31.117637
21
53.965512
0
LINE
8
Image
10
31.117637
20
53.965512
11
33.283384
21
52.845187
0
LINE
8
Image
10
33.283384
20
52.845187
11
35.342147
21
51.609232
0
LINE
8
Image
10
35.342147
20
51.609232
11
33.392867
21
51.443400
0
LINE
8
Image
10
33.392867
20
51.443400
11
32.333477
21
51.441204
0
LINE
8
Image
10
32.333477
20
51.441204
11
31.797540
21
50.510387
0
LINE
8
Image
10
31.797540
20
50.510387
11
31.187417
21
49.579570
0
LINE
8
Image
10
31.187417
20
49.579570
11
30.602040
21
50.448271
0
LINE
8
Image
10
30.602040
20
50.448271
11
30.602038
21
50.448285
0
LINE
8
Image
10
31.743948
20
50.721520
11
32.248727
21
51.609201
0
LINE
8
Image
10
32.248727
20
51.609201
11
33.583557
21
51.611397
0
LINE
8
Image
10
33.583557
20
51.611397
11
34.916917
21
51.677168
0
LINE
8
Image
10
34.916917
20
51.677168
11
31.187277
21
53.817138
0
LINE
8
Image
10
31.187277
20
53.817138
11
27.462857
21
51.677168
0
LINE
8
Image
10
27.462857
20
51.677168
11
28.795107
21
51.611087
0
LINE
8
Image
10
28.795107
20
51.611087
11
30.129937
21
51.608573
0
LINE
8
Image
10
30.129937
20
51.608573
11
30.631594
21
50.721202
0
LINE
8
Image
10
30.631594
20
50.721202
11
31.186210
21
49.833830
0
LINE
8
Image
10
31.186210
20
49.833830
11
31.743940
21
50.721512
0
LINE
8
Image
10
31.743940
20
50.721512
11
31.743948
21
50.721520
0
LINE
8
Image
10
4.707748
20
51.440934
11
4.207691
21
51.946263
0
LINE
8
Image
10
4.207691
20
51.946263
11
3.523882
21
51.970631
0
LINE
8
Image
10
3.523882
20
51.970631
11
2.840073
21
51.994999
0
LINE
8
Image
10
2.840073
20
51.994999
11
2.816684
21
53.287459
0
LINE
8
Image
10
2.816684
20
53.287459
11
2.793295
21
54.579919
0
LINE
8
Image
10
2.793295
20
54.579919
11
5.803900
21
54.579900
0
LINE
8
Image
10
5.803900
20
54.579900
11
8.814780
21
54.513684
0
LINE
8
Image
10
8.814780
20
54.513684
11
8.306273
21
53.944265
0
LINE
8
Image
10
8.306273
20
53.944265
11
7.797763
21
53.441061
0
LINE
8
Image
10
7.797763
20
53.441061
11
7.797760
21
52.696900
0
LINE
8
Image
10
7.797760
20
52.696900
11
7.797760
21
51.952600
0
LINE
8
Image
10
7.797760
20
51.952600
11
7.053530
21
51.952600
0
LINE
8
Image
10
7.053530
20
51.952600
11
6.309300
21
51.952600
0
LINE
8
Image
10
6.309300
20
51.952600
11
5.806100
21
51.444092
0
LINE
8
Image
10
5.806100
20
51.444092
11
5.255214
21
50.935584
0
LINE
8
Image
10
5.255214
20
50.935584
11
4.707477
21
51.440913
0
LINE
8
Image
10
4.707477
20
51.440913
11
4.707748
21
51.440934
0
LINE
8
Image
10
5.763998
20
51.655991
11
6.224338
21
52.122123
0
LINE
8
Image
10
6.224338
20
52.122123
11
6.926150
21
52.122100
0
LINE
8
Image
10
6.926150
20
52.122100
11
7.628240
21
52.122100
0
LINE
8
Image
10
7.628240
20
52.122100
11
7.628240
21
52.806400
0
LINE
8
Image
10
7.628240
20
52.806400
11
7.628240
21
53.490700
0
LINE
8
Image
10
7.628240
20
53.490700
11
8.107273
21
53.992916
0
LINE
8
Image
10
8.107273
20
53.992916
11
8.586306
21
54.495132
0
LINE
8
Image
10
8.586306
20
54.495132
11
5.776610
21
54.495200
0
LINE
8
Image
10
5.776610
20
54.495200
11
2.966920
21
54.495200
0
LINE
8
Image
10
2.966920
20
54.495200
11
2.966920
21
53.308700
0
LINE
8
Image
10
2.966920
20
53.308700
11
2.966920
21
52.122100
0
LINE
8
Image
10
2.966920
20
52.122100
11
3.626640
21
52.122100
0
LINE
8
Image
10
3.626640
20
52.122100
11
4.286360
21
52.122100
0
LINE
8
Image
10
4.286360
20
52.122100
11
4.746703
21
51.655968
0
LINE
8
Image
10
4.746703
20
51.655968
11
5.255210
21
51.189836
0
LINE
8
Image
10
5.255210
20
51.189836
11
5.763720
21
51.655968
0
LINE
8
Image
10
5.763720
20
51.655968
11
5.763998
21
51.655991
0
LINE
8
Image
10
56.572398
20
51.444113
11
56.069196
21
51.952621
0
LINE
8
Image
10
56.069196
20
51.952621
11
55.324700
21
51.952600
0
LINE
8
Image
10
55.324700
20
51.952600
11
54.580500
21
51.952600
0
LINE
8
Image
10
54.580500
20
51.952600
11
54.580500
21
52.696900
0
LINE
8
Image
10
54.580500
20
52.696900
11
54.580500
21
53.441100
0
LINE
8
Image
10
54.580500
20
53.441100
11
54.071993
21
53.944302
0
LINE
8
Image
10
54.071993
20
53.944302
11
53.563486
21
54.513721
0
LINE
8
Image
10
53.563486
20
54.513721
11
56.574366
21
54.579937
0
LINE
8
Image
10
56.574366
20
54.579937
11
59.585200
21
54.579900
0
LINE
8
Image
10
59.585200
20
54.579900
11
59.561811
21
53.287440
0
LINE
8
Image
10
59.561811
20
53.287440
11
59.538422
21
51.994980
0
LINE
8
Image
10
59.538422
20
51.994980
11
58.854613
21
51.970612
0
LINE
8
Image
10
58.854613
20
51.970612
11
58.170804
21
51.946244
0
LINE
8
Image
10
58.170804
20
51.946244
11
57.670747
21
51.440915
0
LINE
8
Image
10
57.670747
20
51.440915
11
57.123010
21
50.935586
0
LINE
8
Image
10
57.123010
20
50.935586
11
56.572127
21
51.444094
0
LINE
8
Image
10
56.572127
20
51.444094
11
56.572398
21
51.444113
0
LINE
8
Image
10
57.631788
20
51.655991
11
58.092131
21
52.122123
0
LINE
8
Image
10
58.092131
20
52.122123
11
58.751600
21
52.122100
0
LINE
8
Image
10
58.751600
20
52.122100
11
59.411300
21
52.122100
0
LINE
8
Image
10
59.411300
20
52.122100
11
59.411300
21
53.308700
0
LINE
8
Image
10
59.411300
20
53.308700
11
59.411300
21
54.495200
0
LINE
8
Image
10
59.411300
20
54.495200
11
56.601600
21
54.495200
0
LINE
8
Image
10
56.601600
20
54.495200
11
53.791900
21
54.495200
0
LINE
8
Image
10
53.791900
20
54.495200
11
54.270933
21
53.992984
0
LINE
8
Image
10
54.270933
20
53.992984
11
54.749966
21
53.490768
0
LINE
8
Image
10
54.749966
20
53.490768
11
54.750000
21
52.806400
0
LINE
8
Image
10
54.750000
20
52.806400
11
54.750000
21
52.122100
0
LINE
8
Image
10
54.750000
20
52.122100
11
55.452100
21
52.122100
0
LINE
8
Image
10
55.452100
20
52.122100
11
56.154200
21
52.122100
0
LINE
8
Image
10
56.154200
20
52.122100
11
56.614543
21
51.655968
0
LINE
8
Image
10
56.614543
20
51.655968
11
57.123050
21
51.189836
0
LINE
8
Image
10
57.123050
20
51.189836
11
57.631557
21
51.655968
0
LINE
8
Image
10
57.631557
20
51.655968
11
57.631788
21
51.655991
0
LINE
8
Image
10
12.813288
20
53.245081
11
11.526808
21
54.537541
0
LINE
8
Image
10
11.526808
20
54.537541
11
15.311628
21
54.559610
0
LINE
8
Image
10
15.311628
20
54.559610
11
19.131208
21
54.546920
0
LINE
8
Image
10
19.131208
20
54.546920
11
18.422514
21
53.232390
0
LINE
8
Image
10
18.422514
20
53.232390
11
17.679060
21
51.952620
0
LINE
8
Image
10
17.679060
20
51.952620
11
15.889100
21
51.952600
0
LINE
8
Image
10
15.889100
20
51.952600
11
14.099500
21
51.952600
0
LINE
8
Image
10
14.099500
20
51.952600
11
12.813288
21
53.245081
0
LINE
8
Image
10
18.260498
20
53.255878
11
18.900455
21
54.442398
0
LINE
8
Image
10
18.900455
20
54.442398
11
15.383275
21
54.495164
0
LINE
8
Image
10
15.383275
20
54.495164
11
11.866095
21
54.432737
0
LINE
8
Image
10
11.866095
20
54.432737
11
12.987875
21
53.246217
0
LINE
8
Image
10
12.987875
20
53.246217
11
14.109655
21
52.122127
0
LINE
8
Image
10
14.109655
20
52.122127
11
15.864800
21
52.122100
0
LINE
8
Image
10
15.864800
20
52.122100
11
17.620300
21
52.122100
0
LINE
8
Image
10
17.620300
20
52.122100
11
18.260498
21
53.255878
0
LINE
8
Image
10
19.964348
20
52.030088
11
20.616810
21
53.322548
0
LINE
8
Image
10
20.616810
20
53.322548
11
21.317151
21
54.537538
0
LINE
8
Image
10
21.317151
20
54.537538
11
25.296431
21
54.559576
0
LINE
8
Image
10
25.296431
20
54.559576
11
29.187721
21
54.493617
0
LINE
8
Image
10
29.187721
20
54.493617
11
26.997381
21
53.179127
0
LINE
8
Image
10
26.997381
20
53.179127
11
24.895041
21
51.952627
0
LINE
8
Image
10
24.895041
20
51.952627
11
22.453300
21
51.952600
0
LINE
8
Image
10
22.453300
20
51.952600
11
19.964020
21
52.030067
0
LINE
8
Image
10
19.964020
20
52.030067
11
19.964348
21
52.030088
0
LINE
8
Image
10
26.705488
20
53.187998
11
28.703098
21
54.371818
0
LINE
8
Image
10
28.703098
20
54.371818
11
28.173795
21
54.469275
0
LINE
8
Image
10
28.173795
20
54.469275
11
25.161418
21
54.492458
0
LINE
8
Image
10
25.161418
20
54.492458
11
21.464098
21
54.495155
0
LINE
8
Image
10
21.464098
20
54.495155
11
20.817915
21
53.366725
0
LINE
8
Image
10
20.817915
20
53.366725
11
20.171732
21
52.180205
0
LINE
8
Image
10
20.171732
20
52.180205
11
22.517632
21
52.122115
0
LINE
8
Image
10
22.517632
20
52.122115
11
24.863200
21
52.122100
0
LINE
8
Image
10
24.863200
20
52.122100
11
26.705488
21
53.187998
0
LINE
8
Image
10
35.309388
20
53.210806
11
33.211358
21
54.537536
0
LINE
8
Image
10
33.211358
20
54.537536
11
34.229580
21
54.641753
0
LINE
8
Image
10
34.229580
20
54.641753
11
37.923008
21
54.600908
0
LINE
8
Image
10
37.923008
20
54.600908
11
41.054688
21
54.537536
0
LINE
8
Image
10
41.054688
20
54.537536
11
41.758870
21
53.323136
0
LINE
8
Image
10
41.758870
20
53.323136
11
42.414808
21
52.030676
0
LINE
8
Image
10
42.414808
20
52.030676
11
39.892598
21
51.960726
0
LINE
8
Image
10
39.892598
20
51.960726
11
37.418628
21
51.968831
0
LINE
8
Image
10
37.418628
20
51.968831
11
35.309388
21
53.210806
0
LINE
8
Image
10
42.207078
20
52.173486
11
41.561694
21
53.360006
0
LINE
8
Image
10
41.561694
20
53.360006
11
40.916310
21
54.495156
0
LINE
8
Image
10
40.916310
20
54.495156
11
37.222100
21
54.495200
0
LINE
8
Image
10
37.222100
20
54.495200
11
33.608730
21
54.416650
0
LINE
8
Image
10
33.608730
20
54.416650
11
35.596150
21
53.230950
0
LINE
8
Image
10
35.596150
20
53.230950
11
37.503060
21
52.123800
0
LINE
8
Image
10
37.503060
20
52.123800
11
39.854910
21
52.122980
0
LINE
8
Image
10
39.854910
20
52.122980
11
42.206760
21
52.173525
0
LINE
8
Image
10
42.206760
20
52.173525
11
42.207078
21
52.173486
0
LINE
8
Image
10
43.956798
20
53.226646
11
43.224091
21
54.540296
0
LINE
8
Image
10
43.224091
20
54.540296
11
47.058061
21
54.579915
0
LINE
8
Image
10
47.058061
20
54.579915
11
50.891700
21
54.579900
0
LINE
8
Image
10
50.891700
20
54.579900
11
49.580100
21
53.266250
0
LINE
8
Image
10
49.580100
20
53.266250
11
48.268510
21
51.952600
0
LINE
8
Image
10
48.268510
20
51.952600
11
46.478900
21
51.952600
0
LINE
8
Image
10
46.478900
20
51.952600
11
44.689200
21
51.952600
0
LINE
8
Image
10
44.689200
20
51.952600
11
43.956798
21
53.226646
0
LINE
8
Image
10
49.388608
20
53.243899
11
50.512698
21
54.430419
0
LINE
8
Image
10
50.512698
20
54.430419
11
46.995518
21
54.495160
0
LINE
8
Image
10
46.995518
20
54.495160
11
43.478338
21
54.442395
0
LINE
8
Image
10
43.478338
20
54.442395
11
44.118295
21
53.255875
0
LINE
8
Image
10
44.118295
20
53.255875
11
44.758252
21
52.122125
0
LINE
8
Image
10
44.758252
20
52.122125
11
46.511100
21
52.122100
0
LINE
8
Image
10
46.511100
20
52.122100
11
48.264200
21
52.122100
0
LINE
8
Image
10
48.264200
20
52.122100
11
49.388608
21
53.243899
 0 
ENDSEC
 0 
EOF