  0
SECTION
  2
HEADER
  9
$ACADVER
  1
AC1014
  9
$ACADMAINTVER
 70
     9
  9
$DWGCODEPAGE
  3
ANSI_1252
  9
$INSBASE
 10
0.0
 20
0.0
 30
0.0
  9
$EXTMIN
 10
1.000000000000000E+20
 20
1.000000000000000E+20
 30
1.000000000000000E+20
  9
$EXTMAX
 10
-1.000000000000000E+20
 20
-1.000000000000000E+20
 30
-1.000000000000000E+20
  9
$LIMMIN
 10
0.0
 20
0.0
  9
$LIMMAX
 10
12.0
 20
9.0
  9
$ORTHOMODE
 70
     0
  9
$REGENMODE
 70
     1
  9
$FILLMODE
 70
     1
  9
$QTEXTMODE
 70
     0
  9
$MIRRTEXT
 70
     1
  9
$DRAGMODE
 70
     2
  9
$LTSCALE
 40
1.0
  9
$OSMODE
 70
    37
  9
$ATTMODE
 70
     1
  9
$TEXTSIZE
 40
0.2
  9
$TRACEWID
 40
0.05
  9
$TEXTSTYLE
  7
STANDARD
  9
$CLAYER
  8
0
  9
$CELTYPE
  6
BYLAYER
  9
$CECOLOR
 62
   256
  9
$CELTSCALE
 40
1.0
  9
$DELOBJ
 70
     1
  9
$DISPSILH
 70
     0
  9
$DIMSCALE
 40
1.0
  9
$DIMASZ
 40
0.18
  9
$DIMEXO
 40
0.0625
  9
$DIMDLI
 40
0.38
  9
$DIMRND
 40
0.0
  9
$DIMDLE
 40
0.0
  9
$DIMEXE
 40
0.18
  9
$DIMTP
 40
0.0
  9
$DIMTM
 40
0.0
  9
$DIMTXT
 40
0.18
  9
$DIMCEN
 40
0.09
  9
$DIMTSZ
 40
0.0
  9
$DIMTOL
 70
     0
  9
$DIMLIM
 70
     0
  9
$DIMTIH
 70
     1
  9
$DIMTOH
 70
     1
  9
$DIMSE1
 70
     0
  9
$DIMSE2
 70
     0
  9
$DIMTAD
 70
     0
  9
$DIMZIN
 70
     0
  9
$DIMBLK
  1

  9
$DIMASO
 70
     1
  9
$DIMSHO
 70
     1
  9
$DIMPOST
  1

  9
$DIMAPOST
  1

  9
$DIMALT
 70
     0
  9
$DIMALTD
 70
     2
  9
$DIMALTF
 40
25.4
  9
$DIMLFAC
 40
1.0
  9
$DIMTOFL
 70
     0
  9
$DIMTVP
 40
0.0
  9
$DIMTIX
 70
     0
  9
$DIMSOXD
 70
     0
  9
$DIMSAH
 70
     0
  9
$DIMBLK1
  1

  9
$DIMBLK2
  1

  9
$DIMSTYLE
  2
STANDARD
  9
$DIMCLRD
 70
     0
  9
$DIMCLRE
 70
     0
  9
$DIMCLRT
 70
     0
  9
$DIMTFAC
 40
1.0
  9
$DIMGAP
 40
0.09
  9
$DIMJUST
 70
     0
  9
$DIMSD1
 70
     0
  9
$DIMSD2
 70
     0
  9
$DIMTOLJ
 70
     1
  9
$DIMTZIN
 70
     0
  9
$DIMALTZ
 70
     0
  9
$DIMALTTZ
 70
     0
  9
$DIMFIT
 70
     3
  9
$DIMUPT
 70
     0
  9
$DIMUNIT
 70
     2
  9
$DIMDEC
 70
     4
  9
$DIMTDEC
 70
     4
  9
$DIMALTU
 70
     2
  9
$DIMALTTD
 70
     2
  9
$DIMTXSTY
  7
STANDARD
  9
$DIMAUNIT
 70
     0
  9
$LUNITS
 70
     2
  9
$LUPREC
 70
     4
  9
$SKETCHINC
 40
0.1
  9
$FILLETRAD
 40
0.0
  9
$AUNITS
 70
     0
  9
$AUPREC
 70
     0
  9
$MENU
  1
.
  9
$ELEVATION
 40
0.0
  9
$PELEVATION
 40
0.0
  9
$THICKNESS
 40
0.0
  9
$LIMCHECK
 70
     0
  9
$CHAMFERA
 40
0.0
  9
$CHAMFERB
 40
0.0
  9
$CHAMFERC
 40
0.0
  9
$CHAMFERD
 40
0.0
  9
$SKPOLY
 70
     0
  9
$TDCREATE
 40
2460382.518543218
  9
$TDUPDATE
 40
2460382.518543333
  9
$TDINDWG
 40
0.0000000116
  9
$TDUSRTIMER
 40
0.0000000116
  9
$USRTIMER
 70
     1
  9
$ANGBASE
 50
0.0
  9
$ANGDIR
 70
     0
  9
$PDMODE
 70
     0
  9
$PDSIZE
 40
0.0
  9
$PLINEWID
 40
0.0
  9
$COORDS
 70
     1
  9
$SPLFRAME
 70
     0
  9
$SPLINETYPE
 70
     6
  9
$SPLINESEGS
 70
     8
  9
$ATTDIA
 70
     0
  9
$ATTREQ
 70
     1
  9
$HANDLING
 70
     1
  9
$HANDSEED
  5
23A
  9
$SURFTAB1
 70
     6
  9
$SURFTAB2
 70
     6
  9
$SURFTYPE
 70
     6
  9
$SURFU
 70
     6
  9
$SURFV
 70
     6
  9
$UCSNAME
  2

  9
$UCSORG
 10
0.0
 20
0.0
 30
0.0
  9
$UCSXDIR
 10
1.0
 20
0.0
 30
0.0
  9
$UCSYDIR
 10
0.0
 20
1.0
 30
0.0
  9
$PUCSNAME
  2

  9
$PUCSORG
 10
0.0
 20
0.0
 30
0.0
  9
$PUCSXDIR
 10
1.0
 20
0.0
 30
0.0
  9
$PUCSYDIR
 10
0.0
 20
1.0
 30
0.0
  9
$USERI1
 70
     0
  9
$USERI2
 70
     0
  9
$USERI3
 70
     0
  9
$USERI4
 70
     0
  9
$USERI5
 70
     0
  9
$USERR1
 40
0.0
  9
$USERR2
 40
0.0
  9
$USERR3
 40
0.0
  9
$USERR4
 40
0.0
  9
$USERR5
 40
0.0
  9
$WORLDVIEW
 70
     1
  9
$SHADEDGE
 70
     3
  9
$SHADEDIF
 70
    70
  9
$TILEMODE
 70
     1
  9
$MAXACTVP
 70
    64
  9
$PINSBASE
 10
0.0
 20
0.0
 30
0.0
  9
$PLIMCHECK
 70
     0
  9
$PEXTMIN
 10
1.000000000000000E+20
 20
1.000000000000000E+20
 30
1.000000000000000E+20
  9
$PEXTMAX
 10
-1.000000000000000E+20
 20
-1.000000000000000E+20
 30
-1.000000000000000E+20
  9
$PLIMMIN
 10
0.0
 20
0.0
  9
$PLIMMAX
 10
12.0
 20
9.0
  9
$UNITMODE
 70
     0
  9
$VISRETAIN
 70
     1
  9
$PLINEGEN
 70
     0
  9
$PSLTSCALE
 70
     1
  9
$TREEDEPTH
 70
  3020
  9
$PICKSTYLE
 70
     1
  9
$CMLSTYLE
  2
STANDARD
  9
$CMLJUST
 70
     0
  9
$CMLSCALE
 40
1.0
  9
$PROXYGRAPHICS
 70
     1
  9
$MEASUREMENT
 70
     1
  0
ENDSEC
  0
SECTION
  2
CLASSES
  0
CLASS
  1
ACDBDICTIONARYWDFLT
  2
AcDbDictionaryWithDefault
  3
ObjectDBX Classes
 90
        0
280
     0
281
     0
  0
CLASS
  1
VISUALSTYLE
  2
AcDbVisualStyle
  3
ObjectDBX Classes
 90
     4095
280
     0
281
     0
  0
CLASS
  1
MATERIAL
  2
AcDbMaterial
  3
ObjectDBX Classes
 90
     1153
280
     0
281
     0
  0
CLASS
  1
SCALE
  2
AcDbScale
  3
ObjectDBX Classes
 90
     1153
280
     0
281
     0
  0
CLASS
  1
TABLESTYLE
  2
AcDbTableStyle
  3
ObjectDBX Classes
 90
     4095
280
     0
281
     0
  0
CLASS
  1
MLEADERSTYLE
  2
AcDbMLeaderStyle
  3
ACDB_MLEADERSTYLE_CLASS
 90
     4095
280
     0
281
     0
  0
CLASS
  1
SUN
  2
AcDbSun
  3
SCENEOE
 90
     1153
280
     0
281
     0
  0
CLASS
  1
DICTIONARYVAR
  2
AcDbDictionaryVar
  3
ObjectDBX Classes
 90
        0
280
     0
281
     0
  0
CLASS
  1
XRECORD
  2
AcDbXrecord
  3
ObjectDBX Classes
 90
        0
280
     0
281
     0
  0
CLASS
  1
LWPOLYLINE
  2
AcDbPolyline
  3
ObjectDBX Classes
 90
        0
280
     0
281
     1
  0
CLASS
  1
HATCH
  2
AcDbHatch
  3
ObjectDBX Classes
 90
        0
280
     0
281
     1
  0
CLASS
  1
ACDBPLACEHOLDER
  2
AcDbPlaceHolder
  3
ObjectDBX Classes
 90
        0
280
     0
281
     0
  0
CLASS
  1
LAYOUT
  2
AcDbLayout
  3
ObjectDBX Classes
 90
        0
280
     0
281
     0
  0
ENDSEC
  0
SECTION
  2
TABLES
  0
TABLE
  2
VPORT
  5
8
102
{ACAD_XDICTIONARY
360
22F
102
}
330
0
100
AcDbSymbolTable
 70
     1
  0
VPORT
  5
29
330
8
100
AcDbSymbolTableRecord
100
AcDbViewportTableRecord
  2
*ACTIVE
 70
     0
 10
0.0
 20
0.0
 11
1.0
 21
1.0
 12
0.0
 22
0.0
 13
0.0
 23
0.0
 14
0.5
 24
0.5
 15
0.5
 25
0.5
 16
0.0
 26
0.0
 36
1.0
 17
0.0
 27
0.0
 37
-1000.0
 40
164.0978112410187
 41
1.78927680798005
 42
50.0
 43
231.1812204429669
 44
235.5212209917623
 50
0.0
 51
0.0
 71
     0
 72
   100
 73
     1
 74
     3
 75
     0
 76
     0
 77
     0
 78
     0
  0
ENDTAB
  0
TABLE
  2
LTYPE
  5
5
330
0
100
AcDbSymbolTable
 70
     1
  0
LTYPE
  5
14
330
5
100
AcDbSymbolTableRecord
100
AcDbLinetypeTableRecord
  2
BYBLOCK
 70
     0
  3

 72
    65
 73
     0
 40
0.0
  0
LTYPE
  5
15
330
5
100
AcDbSymbolTableRecord
100
AcDbLinetypeTableRecord
  2
BYLAYER
 70
     0
  3

 72
    65
 73
     0
 40
0.0
  0
LTYPE
  5
16
330
5
100
AcDbSymbolTableRecord
100
AcDbLinetypeTableRecord
  2
CONTINUOUS
 70
     0
  3
Solid line
 72
    65
 73
     0
 40
0.0
  0
ENDTAB
  0
TABLE
  2
LAYER
  5
2
330
0
100
AcDbSymbolTable
 70
     3
  0
LAYER
  5
10
330
2
100
AcDbSymbolTableRecord
100
AcDbLayerTableRecord
  2
0
 70
     0
 62
     7
  6
CONTINUOUS
  0
LAYER
  5
5E
330
2
100
AcDbSymbolTableRecord
100
AcDbLayerTableRecord
  2
PROFILEEDGES
 70
     0
 62
     7
  6
CONTINUOUS
  0
LAYER
  5
5F
330
2
100
AcDbSymbolTableRecord
100
AcDbLayerTableRecord
  2
SECTIONCUTEDGES
 70
     0
 62
     7
  6
CONTINUOUS
  0
ENDTAB
  0
TABLE
  2
STYLE
  5
3
330
0
100
AcDbSymbolTable
 70
     1
  0
STYLE
  5
11
330
3
100
AcDbSymbolTableRecord
100
AcDbTextStyleTableRecord
  2
STANDARD
 70
     0
 40
0.0
 41
1.0
 50
0.0
 71
     0
 42
0.2
  3
txt
  4

  0
ENDTAB
  0
TABLE
  2
VIEW
  5
6
330
0
100
AcDbSymbolTable
 70
     0
  0
ENDTAB
  0
TABLE
  2
UCS
  5
7
330
0
100
AcDbSymbolTable
 70
     0
  0
ENDTAB
  0
TABLE
  2
APPID
  5
9
330
0
100
AcDbSymbolTable
 70
     2
  0
APPID
  5
12
330
9
100
AcDbSymbolTableRecord
100
AcDbRegAppTableRecord
  2
ACAD
 70
     0
  0
APPID
  5
239
330
9
100
AcDbSymbolTableRecord
100
AcDbRegAppTableRecord
  2
ACAD_MLEADERVER
 70
     0
  0
ENDTAB
  0
TABLE
  2
DIMSTYLE
  5
A
330
0
100
AcDbSymbolTable
 70
     1
  0
DIMSTYLE
105
27
330
A
100
AcDbSymbolTableRecord
100
AcDbDimStyleTableRecord
  2
STANDARD
 70
     0
  3

  4

  5

  6

  7

 40
1.0
 41
0.18
 42
0.0625
 43
0.38
 44
0.18
 45
0.0
 46
0.0
 47
0.0
 48
0.0
140
0.18
141
0.09
142
0.0
143
25.4
144
1.0
145
0.0
146
1.0
147
0.09
 71
     0
 72
     0
 73
     1
 74
     1
 75
     0
 76
     0
 77
     0
 78
     0
170
     0
171
     2
172
     0
173
     0
174
     0
175
     0
176
     0
177
     0
178
     0
270
     2
271
     4
272
     4
273
     2
274
     2
340
11
275
     0
280
     0
281
     0
282
     0
283
     1
284
     0
285
     0
286
     0
287
     3
288
     0
  0
ENDTAB
  0
TABLE
  2
BLOCK_RECORD
  5
1
330
0
100
AcDbSymbolTable
 70
     0
  0
BLOCK_RECORD
  5
1F
330
1
100
AcDbSymbolTableRecord
100
AcDbBlockTableRecord
  2
*MODEL_SPACE
  0
BLOCK_RECORD
  5
1B
330
1
100
AcDbSymbolTableRecord
100
AcDbBlockTableRecord
  2
*PAPER_SPACE
  0
ENDTAB
  0
ENDSEC
  0
SECTION
  2
BLOCKS
  0
BLOCK
  5
20
330
1F
100
AcDbEntity
  8
0
100
AcDbBlockBegin
  2
*MODEL_SPACE
 70
     0
 10
0.0
 20
0.0
 30
0.0
  3
*MODEL_SPACE
  1

  0
ENDBLK
  5
21
330
1F
100
AcDbEntity
  8
0
100
AcDbBlockEnd
  0
BLOCK
  5
1C
330
1B
100
AcDbEntity
 67
     1
  8
0
100
AcDbBlockBegin
  2
*PAPER_SPACE
 70
     0
 10
0.0
 20
0.0
 30
0.0
  3
*PAPER_SPACE
  1

  0
ENDBLK
  5
1D
330
1B
100
AcDbEntity
 67
     1
  8
0
100
AcDbBlockEnd
  0
ENDSEC
  0
SECTION
  2
ENTITIES
  0
LINE
  5
60
330
1F
100
AcDbEntity
  8
0
100
AcDbLine
 10
17.57866160041454
 20
-33.70106195649564
 30
0.0
 11
16.30586939664961
 21
-32.42826974798896
 31
0.0
  0
LINE
  5
61
330
1F
100
AcDbEntity
  8
0
100
AcDbLine
 10
57.23311827409081
 20
-43.16768764676702
 30
0.0
 11
55.43311827409084
 21
-43.16768767805929
 31
0.0
  0
LINE
  5
62
330
1F
100
AcDbEntity
  8
0
100
AcDbLine
 10
55.43311833203947
 20
-46.50102101139263
 30
0.0
 11
44.0331179208032
 21
-46.50102119393078
 31
0.0
  0
LINE
  5
63
330
1F
100
AcDbEntity
  8
0
100
AcDbLine
 10
15.12735845138865
 20
20.60473889421249
 30
0.0
 11
16.30586973800008
 21
19.42622760760086
 31
0.0
  0
LINE
  5
64
330
1F
100
AcDbEntity
  8
0
100
AcDbLine
 10
55.43311828858509
 20
31.83231230629452
 30
0.0
 11
55.43311822157453
 21
33.49897898860739
 31
0.0
  0
LINE
  5
65
330
1F
100
AcDbEntity
  8
0
100
AcDbLine
 10
55.43311827409084
 20
-43.16768767805929
 30
0.0
 11
55.4331182451165
 21
-41.50102101139262
 31
0.0
  0
LINE
  5
66
330
1F
100
AcDbEntity
  8
0
100
AcDbLine
 10
3.899784882511752
 20
-8.301020980871447
 30
0.0
 11
3.899784882512076
 21
-4.701020980871436
 31
0.0
  0
LINE
  5
67
330
1F
100
AcDbEntity
  8
0
100
AcDbLine
 10
57.23311818717441
 20
31.83231235323299
 30
0.0
 11
55.43311828858509
 21
31.83231230629452
 31
0.0
  0
LINE
  5
68
330
1F
100
AcDbEntity
  8
0
100
AcDbLine
 10
7.532548128237745
 20
-1.932604276169785
 30
0.0
 11
7.233118245119784
 21
-6.501020980095694
 31
0.0
  0
LINE
  5
69
330
1F
100
AcDbEntity
  8
0
100
AcDbLine
 10
8.425714381246843
 20
2.557645547626091
 30
0.0
 11
7.532548128237745
 21
-1.932604276169785
 31
0.0
  0
LINE
  5
6A
330
1F
100
AcDbEntity
  8
0
100
AcDbLine
 10
42.23311824512305
 20
28.49897875913072
 30
0.0
 11
37.66470153896616
 21
28.19954891005095
 31
0.0
  0
LINE
  5
6B
330
1F
100
AcDbEntity
  8
0
100
AcDbLine
 10
24.73311832040052
 20
23.80986793504943
 30
0.0
 11
20.92646831601841
 21
21.26634573547048
 31
0.0
  0
LINE
  5
6C
330
1F
100
AcDbEntity
  8
0
100
AcDbLine
 10
14.4657514275309
 20
14.80562889512029
 30
0.0
 11
11.9222291995895
 21
10.99897890968936
 31
0.0
  0
LINE
  5
6D
330
1F
100
AcDbEntity
  8
0
100
AcDbLine
 10
37.66470153896616
 20
28.19954891005095
 30
0.0
 11
33.17445170851551
 21
27.30638269049767
 31
0.0
  0
LINE
  5
6E
330
1F
100
AcDbEntity
  8
0
100
AcDbLine
 10
28.83919817257476
 20
25.83476242197512
 30
0.0
 11
24.73311832040052
 21
23.80986793504943
 31
0.0
  0
LINE
  5
6F
330
1F
100
AcDbEntity
  8
0
100
AcDbLine
 10
9.897334682070362
 20
6.892899072602166
 30
0.0
 11
8.425714381246843
 21
2.557645547626091
 31
0.0
  0
LINE
  5
70
330
1F
100
AcDbEntity
  8
0
100
AcDbLine
 10
17.48438099578916
 20
18.24771619285844
 30
0.0
 11
14.4657514275309
 21
14.80562889512029
 31
0.0
  0
LINE
  5
71
330
1F
100
AcDbEntity
  8
0
100
AcDbLine
 10
11.9222291995895
 20
10.99897890968936
 30
0.0
 11
9.897334682070362
 21
6.892899072602166
 31
0.0
  0
LINE
  5
72
330
1F
100
AcDbEntity
  8
0
100
AcDbLine
 10
20.92646831601841
 20
21.26634573547048
 30
0.0
 11
17.48438099578916
 21
18.24771619285844
 31
0.0
  0
LINE
  5
73
330
1F
100
AcDbEntity
  8
0
100
AcDbLine
 10
7.233118245119784
 20
-6.501020980095694
 30
0.0
 11
7.532548060162184
 21
-11.0694376884835
 31
0.0
  0
LINE
  5
74
330
1F
100
AcDbEntity
  8
0
100
AcDbLine
 10
7.532548060162184
 20
-11.0694376884835
 30
0.0
 11
8.425714246260489
 21
-15.55968752558876
 31
0.0
  0
LINE
  5
75
330
1F
100
AcDbEntity
  8
0
100
AcDbLine
 10
33.17445170851551
 20
27.30638269049767
 30
0.0
 11
28.83919817257476
 21
25.83476242197512
 31
0.0
  0
LINE
  5
76
330
1F
100
AcDbEntity
  8
0
100
AcDbLine
 10
5.277937030206167
 20
8.806316260240932
 30
0.0
 11
7.592102193085178
 21
13.49897893119774
 31
0.0
  0
LINE
  5
77
330
1F
100
AcDbEntity
  8
0
100
AcDbLine
 10
22.23311781495706
 20
-41.14203714389225
 30
0.0
 11
17.88266071040826
 21
-38.23515456526007
 31
0.0
  0
LINE
  5
78
330
1F
100
AcDbEntity
  8
0
100
AcDbLine
 10
14.46575111003311
 20
-27.80767096308763
 30
0.0
 11
17.48438062699961
 21
-31.2497583058074
 31
0.0
  0
LINE
  5
79
330
1F
100
AcDbEntity
  8
0
100
AcDbLine
 10
10.49898473930392
 20
17.84943605740452
 30
0.0
 11
13.94884710302764
 21
21.78325011196239
 31
0.0
  0
LINE
  5
7A
330
1F
100
AcDbEntity
  8
0
100
AcDbLine
 10
17.88266071040826
 20
-38.23515456526007
 30
0.0
 11
13.94884668155386
 21
-34.78529217222717
 31
0.0
  0
LINE
  5
7B
330
1F
100
AcDbEntity
  8
0
100
AcDbLine
 10
2.233118245119766
 20
-6.501020942842322
 30
0.0
 11
2.575323825826043
 21
-1.279973281212696
 31
0.0
  0
LINE
  5
7C
330
1F
100
AcDbEntity
  8
0
100
AcDbLine
 10
37.01207058094421
 20
33.15677321732527
 30
0.0
 11
42.23311824512351
 21
33.49897875913074
 31
0.0
  0
LINE
  5
7D
330
1F
100
AcDbEntity
  8
0
100
AcDbLine
 10
9.897334482482899
 20
-19.89494107249394
 30
0.0
 11
11.9222289388159
 21
-24.00102093975481
 31
0.0
  0
LINE
  5
7E
330
1F
100
AcDbEntity
  8
0
100
AcDbLine
 10
20.92646790224721
 20
-34.26838789971121
 30
0.0
 11
24.73311786872742
 21
-36.81191015601438
 31
0.0
  0
LINE
  5
7F
330
1F
100
AcDbEntity
  8
0
100
AcDbLine
 10
5.277936802106198
 20
-21.80835819129745
 30
0.0
 11
3.596085103566311
 21
-16.85378270912011
 31
0.0
  0
LINE
  5
80
330
1F
100
AcDbEntity
  8
0
100
AcDbLine
 10
37.66470102188089
 20
-41.20159132371394
 30
0.0
 11
42.23311772357586
 21
-41.50102124086926
 31
0.0
  0
LINE
  5
81
330
1F
100
AcDbEntity
  8
0
100
AcDbLine
 10
13.94884668155386
 20
-34.78529217222717
 30
0.0
 11
10.49898437644928
 21
-30.85147806626169
 31
0.0
  0
LINE
  5
82
330
1F
100
AcDbEntity
  8
0
100
AcDbLine
 10
37.01206998998962
 20
-46.15881562126319
 30
0.0
 11
31.88035591325673
 21
-45.13805415101854
 31
0.0
  0
LINE
  5
83
330
1F
100
AcDbEntity
  8
0
100
AcDbLine
 10
57.23311818717441
 20
31.83231235323299
 30
0.0
 11
57.23311821614876
 21
30.16564568656635
 31
0.0
  0
LINE
  5
84
330
1F
100
AcDbEntity
  8
0
100
AcDbLine
 10
26.92578101935402
 20
30.45416008809576
 30
0.0
 11
31.88035648900061
 21
32.13601182355007
 31
0.0
  0
LINE
  5
85
330
1F
100
AcDbEntity
  8
0
100
AcDbLine
 10
7.592102193085178
 20
13.49897893119774
 30
0.0
 11
10.49898473930392
 21
17.84943605740452
 31
0.0
  0
LINE
  5
86
330
1F
100
AcDbEntity
  8
0
100
AcDbLine
 10
8.425714246260489
 20
-15.55968752558876
 30
0.0
 11
9.897334482482899
 21
-19.89494107249394
 31
0.0
  0
LINE
  5
87
330
1F
100
AcDbEntity
  8
0
100
AcDbLine
 10
17.48438062699961
 20
-31.2497583058074
 30
0.0
 11
20.92646790224721
 21
-34.26838789971121
 31
0.0
  0
LINE
  5
88
330
1F
100
AcDbEntity
  8
0
100
AcDbLine
 10
31.88035591325673
 20
-45.13805415101854
 30
0.0
 11
26.925780468672
 21
-43.45620234173436
 31
0.0
  0
LINE
  5
89
330
1F
100
AcDbEntity
  8
0
100
AcDbLine
 10
2.575323748025396
 20
-11.72206860957124
 30
0.0
 11
2.233118245119766
 21
-6.501020942842322
 31
0.0
  0
LINE
  5
8A
330
1F
100
AcDbEntity
  8
0
100
AcDbLine
 10
3.596085103566311
 20
-16.85378270912011
 30
0.0
 11
2.575323748025396
 21
-11.72206860957124
 31
0.0
  0
LINE
  5
8B
330
1F
100
AcDbEntity
  8
0
100
AcDbLine
 10
31.88035648900061
 20
32.13601182355007
 30
0.0
 11
37.01207058094421
 21
33.15677321732527
 31
0.0
  0
LINE
  5
8C
330
1F
100
AcDbEntity
  8
0
100
AcDbLine
 10
11.9222289388159
 20
-24.00102093975481
 30
0.0
 11
14.46575111003311
 21
-27.80767096308763
 31
0.0
  0
LINE
  5
8D
330
1F
100
AcDbEntity
  8
0
100
AcDbLine
 10
5.566451530800647
 20
-4.701020980871599
 30
0.0
 11
5.566451530800304
 21
-8.301020980871593
 31
0.0
  0
LINE
  5
8E
330
1F
100
AcDbEntity
  8
0
100
AcDbLine
 10
5.566451530800304
 20
-8.301020980871593
 30
0.0
 11
3.899784882511752
 21
-8.301020980871447
 31
0.0
  0
LINE
  5
8F
330
1F
100
AcDbEntity
  8
0
100
AcDbLine
 10
16.30586939664961
 20
-32.42826974798896
 30
0.0
 11
15.1273581076672
 21
-33.60678103697116
 31
0.0
  0
LINE
  5
90
330
1F
100
AcDbEntity
  8
0
100
AcDbLine
 10
42.23311764906958
 20
-46.50102124086929
 30
0.0
 11
37.01206998998962
 21
-46.15881562126319
 31
0.0
  0
LINE
  5
91
330
1F
100
AcDbEntity
  8
0
100
AcDbLine
 10
10.49898437644928
 20
-30.85147806626169
 30
0.0
 11
7.592101895058216
 21
-26.50102089673846
 31
0.0
  0
LINE
  5
92
330
1F
100
AcDbEntity
  8
0
100
AcDbLine
 10
22.23311833115489
 20
28.13999496018069
 30
0.0
 11
26.92578101935402
 21
30.45416008809576
 31
0.0
  0
LINE
  5
93
330
1F
100
AcDbEntity
  8
0
100
AcDbLine
 10
7.592101895058216
 20
-26.50102089673846
 30
0.0
 11
5.277936802106198
 21
-21.80835819129745
 31
0.0
  0
LINE
  5
94
330
1F
100
AcDbEntity
  8
0
100
AcDbLine
 10
55.4331182451165
 20
-41.50102101139262
 30
0.0
 11
44.03311782522425
 21
-41.50102120957699
 31
0.0
  0
LINE
  5
95
330
1F
100
AcDbEntity
  8
0
100
AcDbLine
 10
2.575323825826043
 20
-1.279973281212696
 30
0.0
 11
3.596085257836417
 21
3.851740803125427
 31
0.0
  0
LINE
  5
96
330
1F
100
AcDbEntity
  8
0
100
AcDbLine
 10
33.17445120473961
 20
-40.3084250372499
 30
0.0
 11
37.66470102188089
 21
-41.20159132371394
 31
0.0
  0
LINE
  5
97
330
1F
100
AcDbEntity
  8
0
100
AcDbLine
 10
17.57866194650674
 20
20.69901981136575
 30
0.0
 11
16.40015065752457
 21
21.87753110034818
 31
0.0
  0
LINE
  5
98
330
1F
100
AcDbEntity
  8
0
100
AcDbLine
 10
15.1273581076672
 20
-33.60678103697116
 30
0.0
 11
16.40015031380288
 21
-34.87957324310708
 31
0.0
  0
LINE
  5
99
330
1F
100
AcDbEntity
  8
0
100
AcDbLine
 10
13.94884710302764
 20
21.78325011196239
 30
0.0
 11
17.88266118328962
 21
25.23311244637616
 31
0.0
  0
LINE
  5
9A
330
1F
100
AcDbEntity
  8
0
100
AcDbLine
 10
3.596085257836417
 20
3.851740803125427
 30
0.0
 11
5.277937030206167
 21
8.806316260240932
 31
0.0
  0
LINE
  5
9B
330
1F
100
AcDbEntity
  8
0
100
AcDbLine
 10
26.925780468672
 20
-43.45620234173436
 30
0.0
 11
22.23311781495706
 21
-41.14203714389225
 31
0.0
  0
LINE
  5
9C
330
1F
100
AcDbEntity
  8
0
100
AcDbLine
 10
28.83919769072798
 20
-38.83680470412622
 30
0.0
 11
33.17445120473961
 21
-40.3084250372499
 31
0.0
  0
LINE
  5
9D
330
1F
100
AcDbEntity
  8
0
100
AcDbLine
 10
17.88266118328962
 20
25.23311244637616
 30
0.0
 11
22.23311833115489
 21
28.13999496018069
 31
0.0
  0
LINE
  5
9E
330
1F
100
AcDbEntity
  8
0
100
AcDbLine
 10
57.23311830306516
 20
-44.83435431343366
 30
0.0
 11
55.43311830306516
 21
-44.83435434472594
 31
0.0
  0
LINE
  5
9F
330
1F
100
AcDbEntity
  8
0
100
AcDbLine
 10
55.43311833203947
 20
-46.50102101139263
 30
0.0
 11
55.43311830306516
 21
-44.83435434472594
 31
0.0
  0
LINE
  5
A0
330
1F
100
AcDbEntity
  8
0
100
AcDbLine
 10
55.43311835138648
 20
28.49897898860737
 30
0.0
 11
55.43311828858495
 21
30.16564563962782
 31
0.0
  0
LINE
  5
A1
330
1F
100
AcDbEntity
  8
0
100
AcDbLine
 10
16.30586973800008
 20
19.42622760760086
 30
0.0
 11
17.57866194650674
 21
20.69901981136575
 31
0.0
  0
LINE
  5
A2
330
1F
100
AcDbEntity
  8
0
100
AcDbLine
 10
101.2331182885776
 20
30.16564571785847
 30
0.0
 11
103.0331182885773
 21
30.16564571785847
 31
0.0
  0
LINE
  5
A3
330
1F
100
AcDbEntity
  8
0
100
AcDbLine
 10
95.63311828857763
 20
28.49897905119182
 30
0.0
 11
95.63311828857763
 21
30.16564571785847
 31
0.0
  0
LINE
  5
A4
330
1F
100
AcDbEntity
  8
0
100
AcDbLine
 10
103.0331182885773
 20
33.49897905119177
 30
0.0
 11
103.0331182885773
 21
31.8323123845251
 31
0.0
  0
LINE
  5
A5
330
1F
100
AcDbEntity
  8
0
100
AcDbLine
 10
101.2331182885776
 20
31.8323123845251
 30
0.0
 11
103.0331182885773
 21
31.8323123845251
 31
0.0
  0
LINE
  5
A6
330
1F
100
AcDbEntity
  8
0
100
AcDbLine
 10
103.0331182885773
 20
30.16564571785847
 30
0.0
 11
103.0331182885773
 21
28.49897905119182
 31
0.0
  0
LINE
  5
A7
330
1F
100
AcDbEntity
  8
0
100
AcDbLine
 10
-43.7543808597102
 20
-46.50102244867203
 30
0.0
 11
-36.55438085971019
 21
-46.50102234327765
 31
0.0
  0
LINE
  5
A8
330
1F
100
AcDbEntity
  8
0
100
AcDbLine
 10
95.63311828857763
 20
31.8323123845251
 30
0.0
 11
95.63311828857763
 21
33.49897905119177
 31
0.0
  0
LINE
  5
A9
330
1F
100
AcDbEntity
  8
0
100
AcDbLine
 10
95.63311828857763
 20
33.49897905119177
 30
0.0
 11
103.0331182885773
 21
33.49897905119177
 31
0.0
  0
LINE
  5
AA
330
1F
100
AcDbEntity
  8
0
100
AcDbLine
 10
101.2331182885776
 20
31.8323123845251
 30
0.0
 11
101.2331182885776
 21
30.16564571785847
 31
0.0
  0
LINE
  5
AB
330
1F
100
AcDbEntity
  8
0
100
AcDbLine
 10
95.63311828857763
 20
31.8323123845251
 30
0.0
 11
97.43311828857759
 21
31.8323123845251
 31
0.0
  0
LINE
  5
AC
330
1F
100
AcDbEntity
  8
0
100
AcDbLine
 10
97.43311828857759
 20
30.16564571785847
 30
0.0
 11
97.43311828857759
 21
31.8323123845251
 31
0.0
  0
LINE
  5
AD
330
1F
100
AcDbEntity
  8
0
100
AcDbLine
 10
95.63311828857763
 20
30.16564571785847
 30
0.0
 11
97.43311828857759
 21
30.16564571785847
 31
0.0
  0
LINE
  5
AE
330
1F
100
AcDbEntity
  8
0
100
AcDbLine
 10
103.0331182885773
 20
28.49897905119182
 30
0.0
 11
95.63311828857763
 21
28.49897905119182
 31
0.0
  0
LINE
  5
AF
330
1F
100
AcDbEntity
  8
0
100
AcDbLine
 10
58.23311821615337
 20
30.16564568656635
 30
0.0
 11
60.03311821615339
 21
30.16564571785847
 31
0.0
  0
LINE
  5
B0
330
1F
100
AcDbEntity
  8
0
100
AcDbLine
 10
58.23311830306515
 20
-44.83435431343366
 30
0.0
 11
60.03311820165445
 21
-44.83435426649531
 31
0.0
  0
LINE
  5
B1
330
1F
100
AcDbEntity
  8
0
100
AcDbLine
 10
97.88757454373344
 20
-33.70106177156893
 30
0.0
 11
99.06608583271557
 21
-34.87957306055141
 31
0.0
  0
LINE
  5
B2
330
1F
100
AcDbEntity
  8
0
100
AcDbLine
 10
58.23311818717917
 20
31.83231235323299
 30
0.0
 11
58.23311821615337
 21
30.16564568656635
 31
0.0
  0
LINE
  5
B3
330
1F
100
AcDbEntity
  8
0
100
AcDbLine
 10
99.06608583271557
 20
-34.87957306055141
 30
0.0
 11
100.3388780388515
 21
-33.60678085441582
 31
0.0
  0
LINE
  5
B4
330
1F
100
AcDbEntity
  8
0
100
AcDbLine
 10
99.06608617644083
 20
21.87753128290384
 30
0.0
 11
97.88757488982903
 21
20.69901999629246
 31
0.0
  0
LINE
  5
B5
330
1F
100
AcDbEntity
  8
0
100
AcDbLine
 10
111.5664516077303
 20
-4.701020979332592
 30
0.0
 11
111.5664516077297
 21
-8.301020979332586
 31
0.0
  0
LINE
  5
B6
330
1F
100
AcDbEntity
  8
0
100
AcDbLine
 10
60.03311815820491
 20
33.49897905119184
 30
0.0
 11
71.43311856944118
 21
33.49897923372931
 31
0.0
  0
LINE
  5
B7
330
1F
100
AcDbEntity
  8
0
100
AcDbLine
 10
60.0331182451276
 20
28.49897905119182
 30
0.0
 11
71.43311866501988
 21
28.49897924937549
 31
0.0
  0
LINE
  5
B8
330
1F
100
AcDbEntity
  8
0
100
AcDbLine
 10
109.8997849594411
 20
-8.301020979332334
 30
0.0
 11
109.8997849594417
 21
-4.701020979332322
 31
0.0
  0
LINE
  5
B9
330
1F
100
AcDbEntity
  8
0
100
AcDbLine
 10
60.03311815820491
 20
33.49897905119184
 30
0.0
 11
60.03311818717912
 21
31.8323123845251
 31
0.0
  0
LINE
  5
BA
330
1F
100
AcDbEntity
  8
0
100
AcDbLine
 10
58.23311827409088
 20
-43.16768764676702
 30
0.0
 11
60.03311820165467
 21
-43.16768759982865
 31
0.0
  0
LINE
  5
BB
330
1F
100
AcDbEntity
  8
0
100
AcDbLine
 10
109.8997849594417
 20
-4.701020979332322
 30
0.0
 11
111.5664516077303
 21
-4.701020979332592
 31
0.0
  0
LINE
  5
BC
330
1F
100
AcDbEntity
  8
0
100
AcDbLine
 10
60.03311820165445
 20
-44.83435426649531
 30
0.0
 11
60.03311826866487
 21
-46.5010209488082
 31
0.0
  0
LINE
  5
BD
330
1F
100
AcDbEntity
  8
0
100
AcDbLine
 10
99.16036675224017
 20
-32.42826956780411
 30
0.0
 11
97.88757454373344
 21
-33.70106177156893
 31
0.0
  0
LINE
  5
BE
330
1F
100
AcDbEntity
  8
0
100
AcDbLine
 10
100.3388780388515
 20
-33.60678085441582
 30
0.0
 11
99.16036675224017
 21
-32.42826956780411
 31
0.0
  0
LINE
  5
BF
330
1F
100
AcDbEntity
  8
0
100
AcDbLine
 10
99.16036709359389
 20
19.42622778778573
 30
0.0
 11
100.3388783825764
 21
20.60473907676786
 31
0.0
  0
LINE
  5
C0
330
1F
100
AcDbEntity
  8
0
100
AcDbLine
 10
111.5664516077297
 20
-8.301020979332586
 30
0.0
 11
109.8997849594411
 21
-8.301020979332334
 31
0.0
  0
LINE
  5
C1
330
1F
100
AcDbEntity
  8
0
100
AcDbLine
 10
97.88757488982903
 20
20.69901999629246
 30
0.0
 11
99.16036709359389
 21
19.42622778778573
 31
0.0
  0
LINE
  5
C2
330
1F
100
AcDbEntity
  8
0
100
AcDbLine
 10
100.3388783825764
 20
20.60473907676786
 30
0.0
 11
99.06608617644083
 21
21.87753128290384
 31
0.0
  0
LINE
  5
C3
330
1F
100
AcDbEntity
  8
0
100
AcDbLine
 10
60.03311813885321
 20
-41.5010209488082
 30
0.0
 11
60.03311820165467
 21
-43.16768759982865
 31
0.0
  0
LINE
  5
C4
330
1F
100
AcDbEntity
  8
0
100
AcDbLine
 10
60.03311821615339
 20
30.16564571785847
 30
0.0
 11
60.0331182451276
 21
28.49897905119182
 31
0.0
  0
LINE
  5
C5
330
1F
100
AcDbEntity
  8
0
100
AcDbLine
 10
108.2331182451221
 20
-6.501020980108129
 30
0.0
 11
107.93368843008
 21
-1.932604271720284
 31
0.0
  0
LINE
  5
C6
330
1F
100
AcDbEntity
  8
0
100
AcDbLine
 10
107.0405221089945
 20
-15.55968750782984
 30
0.0
 11
107.9336883620039
 21
-11.06943768403402
 31
0.0
  0
LINE
  5
C7
330
1F
100
AcDbEntity
  8
0
100
AcDbLine
 10
105.5689018081707
 20
-19.89494103280581
 30
0.0
 11
107.0405221089945
 21
-15.55968750782984
 31
0.0
  0
LINE
  5
C8
330
1F
100
AcDbEntity
  8
0
100
AcDbLine
 10
88.54045547088558
 20
-43.45620204829834
 30
0.0
 11
83.58588000123892
 21
-45.13805378375238
 31
0.0
  0
LINE
  5
C9
330
1F
100
AcDbEntity
  8
0
100
AcDbLine
 10
78.45416650025474
 20
33.15677366106127
 30
0.0
 11
83.5858805769876
 21
32.1360121908163
 31
0.0
  0
LINE
  5
CA
330
1F
100
AcDbEntity
  8
0
100
AcDbLine
 10
107.93368843008
 20
-1.932604271720284
 30
0.0
 11
107.040522243982
 21
2.557645565385003
 31
0.0
  0
LINE
  5
CB
330
1F
100
AcDbEntity
  8
0
100
AcDbLine
 10
110.1882994600348
 20
-21.80835822044488
 30
0.0
 11
107.8741342971555
 21
-26.50102089140155
 31
0.0
  0
LINE
  5
CC
330
1F
100
AcDbEntity
  8
0
100
AcDbLine
 10
107.040522243982
 20
2.557645565385003
 30
0.0
 11
105.5689020077599
 21
6.892899112290275
 31
0.0
  0
LINE
  5
CD
330
1F
100
AcDbEntity
  8
0
100
AcDbLine
 10
83.5858805769876
 20
32.1360121908163
 30
0.0
 11
88.54045602157224
 21
30.45416038153175
 31
0.0
  0
LINE
  5
CE
330
1F
100
AcDbEntity
  8
0
100
AcDbLine
 10
111.8701513866762
 20
3.851740748916088
 30
0.0
 11
112.8909127422169
 21
-1.279973350632889
 31
0.0
  0
LINE
  5
CF
330
1F
100
AcDbEntity
  8
0
100
AcDbLine
 10
107.9336883620039
 20
-11.06943768403402
 30
0.0
 11
108.2331182451221
 21
-6.501020980108129
 31
0.0
  0
LINE
  5
D0
330
1F
100
AcDbEntity
  8
0
100
AcDbLine
 10
101.0004853802101
 20
14.80562900288426
 30
0.0
 11
97.98185586324381
 21
18.24771634560424
 31
0.0
  0
LINE
  5
D1
330
1F
100
AcDbEntity
  8
0
100
AcDbLine
 10
90.73311816983947
 20
-36.81190989525215
 30
0.0
 11
94.53976817422179
 21
-34.26838769567345
 31
0.0
  0
LINE
  5
D2
330
1F
100
AcDbEntity
  8
0
100
AcDbLine
 10
86.62703831766515
 20
-38.8368043821776
 30
0.0
 11
90.73311816983947
 21
-36.81190989525215
 31
0.0
  0
LINE
  5
D3
330
1F
100
AcDbEntity
  8
0
100
AcDbLine
 10
103.5440072906513
 20
-24.00102086989289
 30
0.0
 11
105.5689018081707
 21
-19.89494103280581
 31
0.0
  0
LINE
  5
D4
330
1F
100
AcDbEntity
  8
0
100
AcDbLine
 10
82.29178478172429
 20
-40.30842465069988
 30
0.0
 11
86.62703831766515
 21
-38.8368043821776
 31
0.0
  0
LINE
  5
D5
330
1F
100
AcDbEntity
  8
0
100
AcDbLine
 10
101.0004850627096
 20
-27.80767085532366
 30
0.0
 11
103.5440072906513
 21
-24.00102086989289
 31
0.0
  0
LINE
  5
D6
330
1F
100
AcDbEntity
  8
0
100
AcDbLine
 10
94.53976817422179
 20
-34.26838769567345
 30
0.0
 11
97.98185549445118
 21
-31.24975815306161
 31
0.0
  0
LINE
  5
D7
330
1F
100
AcDbEntity
  8
0
100
AcDbLine
 10
73.23311824511666
 20
-41.50102071933236
 30
0.0
 11
77.80153495127355
 21
-41.20159087025288
 31
0.0
  0
LINE
  5
D8
330
1F
100
AcDbEntity
  8
0
100
AcDbLine
 10
93.23311867528699
 20
28.13999518368938
 30
0.0
 11
97.5835757798356
 21
25.23311260505692
 31
0.0
  0
LINE
  5
D9
330
1F
100
AcDbEntity
  8
0
100
AcDbLine
 10
103.5440075514271
 20
10.99897897955127
 30
0.0
 11
101.0004853802101
 21
14.80562900288426
 31
0.0
  0
LINE
  5
DA
330
1F
100
AcDbEntity
  8
0
100
AcDbLine
 10
77.80153495127355
 20
-41.20159087025288
 30
0.0
 11
82.29178478172429
 21
-40.30842465069988
 31
0.0
  0
LINE
  5
DB
330
1F
100
AcDbEntity
  8
0
100
AcDbLine
 10
97.98185549445118
 20
-31.24975815306161
 30
0.0
 11
101.0004850627096
 21
-27.80767085532366
 31
0.0
  0
LINE
  5
DC
330
1F
100
AcDbEntity
  8
0
100
AcDbLine
 10
112.8909127422169
 20
-1.279973350632889
 30
0.0
 11
113.2331182451221
 21
-6.501021017361809
 31
0.0
  0
LINE
  5
DD
330
1F
100
AcDbEntity
  8
0
100
AcDbLine
 10
101.5173898086898
 20
21.78325021202376
 30
0.0
 11
104.9672521137941
 21
17.84943610605807
 31
0.0
  0
LINE
  5
DE
330
1F
100
AcDbEntity
  8
0
100
AcDbLine
 10
78.45416590929524
 20
-46.15881517752723
 30
0.0
 11
73.23311824511593
 21
-46.50102071933236
 31
0.0
  0
LINE
  5
DF
330
1F
100
AcDbEntity
  8
0
100
AcDbLine
 10
94.53976858799643
 20
21.26634593950824
 30
0.0
 11
90.73311862151635
 21
23.80986819581166
 31
0.0
  0
LINE
  5
E0
330
1F
100
AcDbEntity
  8
0
100
AcDbLine
 10
77.80153546836318
 20
28.19954936351203
 30
0.0
 11
73.23311876666827
 21
28.49897928066761
 31
0.0
  0
LINE
  5
E1
330
1F
100
AcDbEntity
  8
0
100
AcDbLine
 10
112.8909126644155
 20
-11.7220686789914
 30
0.0
 11
111.8701512324048
 21
-16.85378276332948
 31
0.0
  0
LINE
  5
E2
330
1F
100
AcDbEntity
  8
0
100
AcDbLine
 10
104.9672521137941
 20
17.84943610605807
 30
0.0
 11
107.874134595185
 21
13.49897893653466
 31
0.0
  0
LINE
  5
E3
330
1F
100
AcDbEntity
  8
0
100
AcDbLine
 10
101.5173893872125
 20
-34.78529207216578
 30
0.0
 11
97.58357530695027
 21
-38.23515440657932
 31
0.0
  0
LINE
  5
E4
330
1F
100
AcDbEntity
  8
0
100
AcDbLine
 10
97.58357530695027
 20
-38.23515440657932
 30
0.0
 11
93.23311815908481
 21
-41.14203692038356
 31
0.0
  0
LINE
  5
E5
330
1F
100
AcDbEntity
  8
0
100
AcDbLine
 10
104.9672517509365
 20
-30.85147801760813
 30
0.0
 11
101.5173893872125
 21
-34.78529207216578
 31
0.0
  0
LINE
  5
E6
330
1F
100
AcDbEntity
  8
0
100
AcDbLine
 10
107.8741342971555
 20
-26.50102089140155
 30
0.0
 11
104.9672517509365
 21
-30.85147801760813
 31
0.0
  0
LINE
  5
E7
330
1F
100
AcDbEntity
  8
0
100
AcDbLine
 10
110.1882996881367
 20
8.806316231093504
 30
0.0
 11
111.8701513866762
 21
3.851740748916088
 31
0.0
  0
LINE
  5
E8
330
1F
100
AcDbEntity
  8
0
100
AcDbLine
 10
82.29178528550439
 20
27.30638307704766
 30
0.0
 11
77.80153546836318
 21
28.19954936351203
 31
0.0
  0
LINE
  5
E9
330
1F
100
AcDbEntity
  8
0
100
AcDbLine
 10
107.874134595185
 20
13.49897893653466
 30
0.0
 11
110.1882996881367
 21
8.806316231093504
 31
0.0
  0
LINE
  5
EA
330
1F
100
AcDbEntity
  8
0
100
AcDbLine
 10
73.2331188411748
 20
33.49897928066763
 30
0.0
 11
78.45416650025474
 21
33.15677366106127
 31
0.0
  0
LINE
  5
EB
330
1F
100
AcDbEntity
  8
0
100
AcDbLine
 10
58.23311830306515
 20
-44.83435431343366
 30
0.0
 11
58.23311827409088
 21
-43.16768764676702
 31
0.0
  0
LINE
  5
EC
330
1F
100
AcDbEntity
  8
0
100
AcDbLine
 10
83.58588000123892
 20
-45.13805378375238
 30
0.0
 11
78.45416590929524
 21
-46.15881517752723
 31
0.0
  0
LINE
  5
ED
330
1F
100
AcDbEntity
  8
0
100
AcDbLine
 10
111.8701512324048
 20
-16.85378276332948
 30
0.0
 11
110.1882994600348
 21
-21.80835822044488
 31
0.0
  0
LINE
  5
EE
330
1F
100
AcDbEntity
  8
0
100
AcDbLine
 10
97.98185586324381
 20
18.24771634560424
 30
0.0
 11
94.53976858799643
 21
21.26634593950824
 31
0.0
  0
LINE
  5
EF
330
1F
100
AcDbEntity
  8
0
100
AcDbLine
 10
93.23311815908481
 20
-41.14203692038356
 30
0.0
 11
88.54045547088558
 21
-43.45620204829834
 31
0.0
  0
LINE
  5
F0
330
1F
100
AcDbEntity
  8
0
100
AcDbLine
 10
58.23311818717917
 20
31.83231235323299
 30
0.0
 11
60.03311818717912
 21
31.8323123845251
 31
0.0
  0
LINE
  5
F1
330
1F
100
AcDbEntity
  8
0
100
AcDbLine
 10
97.5835757798356
 20
25.23311260505692
 30
0.0
 11
101.5173898086898
 21
21.78325021202376
 31
0.0
  0
LINE
  5
F2
330
1F
100
AcDbEntity
  8
0
100
AcDbLine
 10
86.62703879951597
 20
25.83476274392375
 30
0.0
 11
82.29178528550439
 21
27.30638307704766
 31
0.0
  0
LINE
  5
F3
330
1F
100
AcDbEntity
  8
0
100
AcDbLine
 10
88.54045602157224
 20
30.45416038153175
 30
0.0
 11
93.23311867528699
 21
28.13999518368938
 31
0.0
  0
LINE
  5
F4
330
1F
100
AcDbEntity
  8
0
100
AcDbLine
 10
113.2331182451221
 20
-6.501021017361809
 30
0.0
 11
112.8909126644155
 21
-11.7220686789914
 31
0.0
  0
LINE
  5
F5
330
1F
100
AcDbEntity
  8
0
100
AcDbLine
 10
105.5689020077599
 20
6.892899112290275
 30
0.0
 11
103.5440075514271
 21
10.99897897955127
 31
0.0
  0
LINE
  5
F6
330
1F
100
AcDbEntity
  8
0
100
AcDbLine
 10
4.756384902113873
 20
-35.40102270839022
 30
0.0
 11
3.08971825717813
 21
-35.40102316498074
 31
0.0
  0
LINE
  5
F7
330
1F
100
AcDbEntity
  8
0
100
AcDbLine
 10
3.089717206093548
 20
-31.60102312556449
 30
0.0
 11
4.756383851029291
 21
-31.60102266897393
 31
0.0
  0
LINE
  5
F8
330
1F
100
AcDbEntity
  8
0
100
AcDbLine
 10
6.423052035138259
 20
-37.20102223709557
 30
0.0
 11
6.423051539505931
 21
-35.40102225179974
 31
0.0
  0
LINE
  5
F9
330
1F
100
AcDbEntity
  8
0
100
AcDbLine
 10
6.423052035138259
 20
-37.20102223709557
 30
0.0
 11
4.756385390202498
 21
-37.20102269368603
 31
0.0
  0
LINE
  5
FA
330
1F
100
AcDbEntity
  8
0
100
AcDbLine
 10
8.089717148444464
 20
-31.601021755793
 30
0.0
 11
8.089718249634265
 21
-35.40102179520923
 31
0.0
  0
LINE
  5
FB
330
1F
100
AcDbEntity
  8
0
100
AcDbLine
 10
6.42305050350872
 20
-31.60102221238349
 30
0.0
 11
8.089717148444464
 21
-31.601021755793
 31
0.0
  0
LINE
  5
FC
330
1F
100
AcDbEntity
  8
0
100
AcDbLine
 10
6.423050007876392
 20
-29.80102222708768
 30
0.0
 11
6.42305050350872
 21
-31.60102221238349
 31
0.0
  0
LINE
  5
FD
330
1F
100
AcDbEntity
  8
0
100
AcDbLine
 10
4.756383362940649
 20
-29.80102268367819
 30
0.0
 11
6.423050007876392
 21
-29.80102222708768
 31
0.0
  0
LINE
  5
FE
330
1F
100
AcDbEntity
  8
0
100
AcDbLine
 10
4.756383362940649
 20
-29.80102268367819
 30
0.0
 11
4.756383851029291
 21
-31.60102266897393
 31
0.0
  0
LINE
  5
FF
330
1F
100
AcDbEntity
  8
0
100
AcDbLine
 10
3.08971825717813
 20
-35.40102316498074
 30
0.0
 11
3.089717206093548
 21
-31.60102312556449
 31
0.0
  0
LINE
  5
100
330
1F
100
AcDbEntity
  8
0
100
AcDbLine
 10
4.756385390202498
 20
-37.20102269368603
 30
0.0
 11
4.756384902113873
 21
-35.40102270839022
 31
0.0
  0
LINE
  5
101
330
1F
100
AcDbEntity
  8
0
100
AcDbLine
 10
8.089718249634265
 20
-35.40102179520923
 30
0.0
 11
6.423051539505931
 21
-35.40102225179974
 31
0.0
  0
LINE
  5
102
330
1F
100
AcDbEntity
  8
0
100
AcDbLine
 10
-7.754380886058779
 20
-44.70102192170019
 30
0.0
 11
-1.566880898002478
 21
-44.70102183112689
 31
0.0
  0
LINE
  5
103
330
1F
100
AcDbEntity
  8
0
100
AcDbLine
 10
-1.566880898002478
 20
-44.70102183112689
 30
0.0
 11
-43.7543824871464
 21
30.29897754000536
 31
0.0
  0
LINE
  5
104
330
1F
100
AcDbEntity
  8
0
100
AcDbLine
 10
-43.75438240084298
 20
26.22625027860068
 30
0.0
 11
-43.7543824871464
 21
30.29897754000536
 31
0.0
  0
LINE
  5
105
330
1F
100
AcDbEntity
  8
0
100
AcDbLine
 10
-45.55438240084296
 20
26.22625024045766
 30
0.0
 11
-43.75438240084298
 21
26.22625027860068
 31
0.0
  0
LINE
  5
106
330
1F
100
AcDbEntity
  8
0
100
AcDbLine
 10
-45.55438224672968
 20
18.95352296773038
 30
0.0
 11
-45.55438240084296
 21
26.22625024045766
 31
0.0
  0
LINE
  5
107
330
1F
100
AcDbEntity
  8
0
100
AcDbLine
 10
-45.55438224672968
 20
18.95352296773038
 30
0.0
 11
-43.7543822467297
 21
18.9535230058734
 31
0.0
  0
LINE
  5
108
330
1F
100
AcDbEntity
  8
0
100
AcDbLine
 10
-43.75438209261642
 20
11.68079573314616
 30
0.0
 11
-43.7543822467297
 21
18.9535230058734
 31
0.0
  0
LINE
  5
109
330
1F
100
AcDbEntity
  8
0
100
AcDbLine
 10
-45.55438209261641
 20
11.68079569500311
 30
0.0
 11
-43.75438209261642
 21
11.68079573314616
 31
0.0
  0
LINE
  5
10A
330
1F
100
AcDbEntity
  8
0
100
AcDbLine
 10
-45.55438193850314
 20
4.40806842227583
 30
0.0
 11
-45.55438209261641
 21
11.68079569500311
 31
0.0
  0
LINE
  5
10B
330
1F
100
AcDbEntity
  8
0
100
AcDbLine
 10
-45.55438193850314
 20
4.40806842227583
 30
0.0
 11
-43.75438193850315
 21
4.408068460418887
 31
0.0
  0
LINE
  5
10C
330
1F
100
AcDbEntity
  8
0
100
AcDbLine
 10
-43.75438178438986
 20
-2.864658812308389
 30
0.0
 11
-43.75438193850315
 21
4.408068460418887
 31
0.0
  0
LINE
  5
10D
330
1F
100
AcDbEntity
  8
0
100
AcDbLine
 10
-45.55438178438984
 20
-2.864658850451427
 30
0.0
 11
-43.75438178438986
 21
-2.864658812308389
 31
0.0
  0
LINE
  5
10E
330
1F
100
AcDbEntity
  8
0
100
AcDbLine
 10
-45.55438163027657
 20
-10.1373861231787
 30
0.0
 11
-45.55438178438984
 21
-2.864658850451427
 31
0.0
  0
LINE
  5
10F
330
1F
100
AcDbEntity
  8
0
100
AcDbLine
 10
-45.55438163027657
 20
-10.1373861231787
 30
0.0
 11
-43.75438163027658
 21
-10.13738608503566
 31
0.0
  0
LINE
  5
110
330
1F
100
AcDbEntity
  8
0
100
AcDbLine
 10
-43.7543814761633
 20
-17.41011335776294
 30
0.0
 11
-43.75438163027658
 21
-10.13738608503566
 31
0.0
  0
LINE
  5
111
330
1F
100
AcDbEntity
  8
0
100
AcDbLine
 10
-45.55438147616327
 20
-17.41011339590598
 30
0.0
 11
-43.7543814761633
 21
-17.41011335776294
 31
0.0
  0
LINE
  5
112
330
1F
100
AcDbEntity
  8
0
100
AcDbLine
 10
-45.55438132205001
 20
-24.68284066863324
 30
0.0
 11
-45.55438147616327
 21
-17.41011339590598
 31
0.0
  0
LINE
  5
113
330
1F
100
AcDbEntity
  8
0
100
AcDbLine
 10
-45.55438132205001
 20
-24.68284066863324
 30
0.0
 11
-43.75438132205002
 21
-24.68284063049022
 31
0.0
  0
LINE
  5
114
330
1F
100
AcDbEntity
  8
0
100
AcDbLine
 10
-43.75438116793674
 20
-31.9555679032175
 30
0.0
 11
-43.75438132205002
 21
-24.68284063049022
 31
0.0
  0
LINE
  5
115
330
1F
100
AcDbEntity
  8
0
100
AcDbLine
 10
-45.55438116793673
 20
-31.95556794136051
 30
0.0
 11
-43.75438116793674
 21
-31.9555679032175
 31
0.0
  0
LINE
  5
116
330
1F
100
AcDbEntity
  8
0
100
AcDbLine
 10
-45.55438101382345
 20
-39.22829521408779
 30
0.0
 11
-45.55438116793673
 21
-31.95556794136051
 31
0.0
  0
LINE
  5
117
330
1F
100
AcDbEntity
  8
0
100
AcDbLine
 10
-45.55438101382345
 20
-39.22829521408779
 30
0.0
 11
-43.75438101382346
 21
-39.22829517594475
 31
0.0
  0
LINE
  5
118
330
1F
100
AcDbEntity
  8
0
100
AcDbLine
 10
-43.7543808597102
 20
-46.50102244867203
 30
0.0
 11
-43.75438101382346
 21
-39.22829517594475
 31
0.0
  0
LINE
  5
119
330
1F
100
AcDbEntity
  8
0
100
AcDbLine
 10
-36.55438085971019
 20
-46.50102234327765
 30
0.0
 11
-36.55438088605879
 21
-44.70102234327766
 31
0.0
  0
LINE
  5
11A
330
1F
100
AcDbEntity
  8
0
100
AcDbLine
 10
-36.55438088605879
 20
-44.70102234327766
 30
0.0
 11
-29.35438088605878
 21
-44.70102223788329
 31
0.0
  0
LINE
  5
11B
330
1F
100
AcDbEntity
  8
0
100
AcDbLine
 10
-29.35438085971018
 20
-46.50102223788328
 30
0.0
 11
-29.35438088605878
 21
-44.70102223788329
 31
0.0
  0
LINE
  5
11C
330
1F
100
AcDbEntity
  8
0
100
AcDbLine
 10
-29.35438085971018
 20
-46.50102223788328
 30
0.0
 11
-22.15438085971019
 21
-46.50102213248891
 31
0.0
  0
LINE
  5
11D
330
1F
100
AcDbEntity
  8
0
100
AcDbLine
 10
-22.15438085971019
 20
-46.50102213248891
 30
0.0
 11
-22.15438088605877
 21
-44.70102213248892
 31
0.0
  0
LINE
  5
11E
330
1F
100
AcDbEntity
  8
0
100
AcDbLine
 10
-22.15438088605877
 20
-44.70102213248892
 30
0.0
 11
-14.95438088605877
 21
-44.70102202709456
 31
0.0
  0
LINE
  5
11F
330
1F
100
AcDbEntity
  8
0
100
AcDbLine
 10
-14.95438085971019
 20
-46.50102202709455
 30
0.0
 11
-14.95438088605877
 21
-44.70102202709456
 31
0.0
  0
LINE
  5
120
330
1F
100
AcDbEntity
  8
0
100
AcDbLine
 10
-14.95438085971019
 20
-46.50102202709455
 30
0.0
 11
-7.754380859710185
 21
-46.50102192170017
 31
0.0
  0
LINE
  5
121
330
1F
100
AcDbEntity
  8
0
100
AcDbLine
 10
-7.754380859710185
 20
-46.50102192170017
 30
0.0
 11
-7.754380886058779
 21
-44.70102192170019
 31
0.0
  0
LINE
  5
122
330
1F
100
AcDbEntity
  8
0
100
AcDbLine
 10
44.03311847691904
 20
30.1656454727359
 30
0.0
 11
42.23311957227483
 21
30.16564542579736
 31
0.0
  0
LINE
  5
123
330
1F
100
AcDbEntity
  8
0
100
AcDbLine
 10
44.03311847691904
 20
30.1656454727359
 30
0.0
 11
44.03311853783369
 21
28.49897880606918
 31
0.0
  0
LINE
  5
124
330
1F
100
AcDbEntity
  8
0
100
AcDbLine
 10
44.03311853783369
 20
28.49897880606918
 30
0.0
 11
55.43311835138648
 21
28.49897898860737
 31
0.0
  0
LINE
  5
125
330
1F
100
AcDbEntity
  8
0
100
AcDbLine
 10
57.23311821614876
 20
30.16564568656635
 30
0.0
 11
55.43311828858495
 21
30.16564563962782
 31
0.0
  0
LINE
  5
126
330
1F
100
AcDbEntity
  8
0
100
AcDbLine
 10
44.03311842127771
 20
33.49897879326776
 30
0.0
 11
55.43311822157453
 21
33.49897898860739
 31
0.0
  0
LINE
  5
127
330
1F
100
AcDbEntity
  8
0
100
AcDbLine
 10
44.03311842127771
 20
33.49897879326776
 30
0.0
 11
44.03311847691919
 21
31.83231213940253
 31
0.0
  0
LINE
  5
128
330
1F
100
AcDbEntity
  8
0
100
AcDbLine
 10
44.03311847691919
 20
31.83231213940253
 30
0.0
 11
42.23311957727616
 21
31.83231209246407
 31
0.0
  0
LINE
  5
129
330
1F
100
AcDbEntity
  8
0
100
AcDbLine
 10
42.23311957727616
 20
31.83231209246407
 30
0.0
 11
42.23311824512351
 21
33.49897875913074
 31
0.0
  0
LINE
  5
12A
330
1F
100
AcDbEntity
  8
0
100
AcDbLine
 10
42.23311764906958
 20
-46.50102124086929
 30
0.0
 11
42.23311788086557
 21
-44.8343545742026
 31
0.0
  0
LINE
  5
12B
330
1F
100
AcDbEntity
  8
0
100
AcDbLine
 10
44.03311788086557
 20
-44.8343545272641
 30
0.0
 11
42.23311788086557
 21
-44.8343545742026
 31
0.0
  0
LINE
  5
12C
330
1F
100
AcDbEntity
  8
0
100
AcDbLine
 10
44.03311788086557
 20
-44.8343545272641
 30
0.0
 11
44.0331179208032
 21
-46.50102119393078
 31
0.0
  0
LINE
  5
12D
330
1F
100
AcDbEntity
  8
0
100
AcDbLine
 10
57.23311830306516
 20
-44.83435431343366
 30
0.0
 11
57.23311827409081
 21
-43.16768764676702
 31
0.0
  0
LINE
  5
12E
330
1F
100
AcDbEntity
  8
0
100
AcDbLine
 10
44.03311782522425
 20
-41.50102120957699
 30
0.0
 11
44.03311788086572
 21
-43.16768786059743
 31
0.0
  0
LINE
  5
12F
330
1F
100
AcDbEntity
  8
0
100
AcDbLine
 10
44.03311788086572
 20
-43.16768786059743
 30
0.0
 11
42.23311882181048
 21
-43.16768790753597
 31
0.0
  0
LINE
  5
130
330
1F
100
AcDbEntity
  8
0
100
AcDbLine
 10
42.23311882181048
 20
-43.16768790753597
 30
0.0
 11
42.23311772357586
 21
-41.50102124086926
 31
0.0
  0
LINE
  5
131
330
1F
100
AcDbEntity
  8
0
100
AcDbLine
 10
24.73311786872742
 20
-36.81191015601438
 30
0.0
 11
28.83919769072798
 21
-38.83680470412622
 31
0.0
  0
LINE
  5
132
330
1F
100
AcDbEntity
  8
0
100
AcDbLine
 10
42.23311824512305
 20
28.49897875913072
 30
0.0
 11
42.23311957227483
 21
30.16564542579736
 31
0.0
  0
LINE
  5
133
330
1F
100
AcDbEntity
  8
0
100
AcDbLine
 10
3.899784882512076
 20
-4.701020980871436
 30
0.0
 11
5.566451530800647
 21
-4.701020980871599
 31
0.0
  0
LINE
  5
134
330
1F
100
AcDbEntity
  8
0
100
AcDbLine
 10
16.40015065752457
 20
21.87753110034818
 30
0.0
 11
15.12735845138865
 21
20.60473889421249
 31
0.0
  0
LINE
  5
135
330
1F
100
AcDbEntity
  8
0
100
AcDbLine
 10
16.40015031380288
 20
-34.87957324310708
 30
0.0
 11
17.57866160041454
 21
-33.70106195649564
 31
0.0
  0
LINE
  5
136
330
1F
100
AcDbEntity
  8
0
100
AcDbLine
 10
71.43311801332055
 20
-43.1676874329374
 30
0.0
 11
73.23311691796481
 21
-43.16768738599902
 31
0.0
  0
LINE
  5
137
330
1F
100
AcDbEntity
  8
0
100
AcDbLine
 10
71.43311801332055
 20
-43.1676874329374
 30
0.0
 11
71.43311795240602
 21
-41.50102076627071
 31
0.0
  0
LINE
  5
138
330
1F
100
AcDbEntity
  8
0
100
AcDbLine
 10
71.43311795240602
 20
-41.50102076627071
 30
0.0
 11
60.03311813885321
 21
-41.5010209488082
 31
0.0
  0
LINE
  5
139
330
1F
100
AcDbEntity
  8
0
100
AcDbLine
 10
71.43311806896172
 20
-46.50102075346929
 30
0.0
 11
60.03311826866487
 21
-46.5010209488082
 31
0.0
  0
LINE
  5
13A
330
1F
100
AcDbEntity
  8
0
100
AcDbLine
 10
71.43311806896172
 20
-46.50102075346929
 30
0.0
 11
71.43311801332032
 21
-44.83435409960406
 31
0.0
  0
LINE
  5
13B
330
1F
100
AcDbEntity
  8
0
100
AcDbLine
 10
71.43311801332032
 20
-44.83435409960406
 30
0.0
 11
73.23311691296334
 21
-44.83435405266569
 31
0.0
  0
LINE
  5
13C
330
1F
100
AcDbEntity
  8
0
100
AcDbLine
 10
73.23311691296334
 20
-44.83435405266569
 30
0.0
 11
73.23311824511593
 21
-46.50102071933236
 31
0.0
  0
LINE
  5
13D
330
1F
100
AcDbEntity
  8
0
100
AcDbLine
 10
73.2331188411748
 20
33.49897928066763
 30
0.0
 11
73.23311860937872
 21
31.83231261400096
 31
0.0
  0
LINE
  5
13E
330
1F
100
AcDbEntity
  8
0
100
AcDbLine
 10
71.4331186093787
 20
31.83231256706257
 30
0.0
 11
73.23311860937872
 21
31.83231261400096
 31
0.0
  0
LINE
  5
13F
330
1F
100
AcDbEntity
  8
0
100
AcDbLine
 10
71.4331186093787
 20
31.83231256706257
 30
0.0
 11
71.43311856944118
 21
33.49897923372931
 31
0.0
  0
LINE
  5
140
330
1F
100
AcDbEntity
  8
0
100
AcDbLine
 10
71.43311866501988
 20
28.49897924937549
 30
0.0
 11
71.43311860937848
 21
30.16564590039594
 31
0.0
  0
LINE
  5
141
330
1F
100
AcDbEntity
  8
0
100
AcDbLine
 10
71.43311860937848
 20
30.16564590039594
 30
0.0
 11
73.23311766843375
 21
30.16564594733433
 31
0.0
  0
LINE
  5
142
330
1F
100
AcDbEntity
  8
0
100
AcDbLine
 10
73.23311766843375
 20
30.16564594733433
 30
0.0
 11
73.23311876666827
 21
28.49897928066761
 31
0.0
  0
LINE
  5
143
330
1F
100
AcDbEntity
  8
0
100
AcDbLine
 10
90.73311862151635
 20
23.80986819581166
 30
0.0
 11
86.62703879951597
 21
25.83476274392375
 31
0.0
  0
LINE
  5
144
330
1F
100
AcDbEntity
  8
0
100
AcDbLine
 10
73.23311824511666
 20
-41.50102071933236
 30
0.0
 11
73.23311691796481
 21
-43.16768738599902
 31
0.0
  0
LINE
  5
145
330
1F
100
AcDbEntity
  8
0
100
AcDbLine
 10
105.1331182885776
 20
33.49897905119177
 30
0.0
 11
112.5331182885773
 21
33.49897905119177
 31
0.0
  0
LINE
  5
146
330
1F
100
AcDbEntity
  8
0
100
AcDbLine
 10
105.1331182885776
 20
28.49897905119182
 30
0.0
 11
105.1331182885776
 21
30.16564571785847
 31
0.0
  0
LINE
  5
147
330
1F
100
AcDbEntity
  8
0
100
AcDbLine
 10
112.5331182885773
 20
30.16564571785847
 30
0.0
 11
112.5331182885773
 21
28.49897905119182
 31
0.0
  0
LINE
  5
148
330
1F
100
AcDbEntity
  8
0
100
AcDbLine
 10
110.7331182885776
 20
30.16564571785847
 30
0.0
 11
112.5331182885773
 21
30.16564571785847
 31
0.0
  0
LINE
  5
149
330
1F
100
AcDbEntity
  8
0
100
AcDbLine
 10
112.5331182885773
 20
33.49897905119177
 30
0.0
 11
112.5331182885773
 21
31.8323123845251
 31
0.0
  0
LINE
  5
14A
330
1F
100
AcDbEntity
  8
0
100
AcDbLine
 10
110.7331182885776
 20
31.8323123845251
 30
0.0
 11
112.5331182885773
 21
31.8323123845251
 31
0.0
  0
LINE
  5
14B
330
1F
100
AcDbEntity
  8
0
100
AcDbLine
 10
105.1331182885776
 20
31.8323123845251
 30
0.0
 11
105.1331182885776
 21
33.49897905119177
 31
0.0
  0
LINE
  5
14C
330
1F
100
AcDbEntity
  8
0
100
AcDbLine
 10
105.1331182885776
 20
31.8323123845251
 30
0.0
 11
106.9331182885776
 21
31.8323123845251
 31
0.0
  0
LINE
  5
14D
330
1F
100
AcDbEntity
  8
0
100
AcDbLine
 10
-36.56688249910443
 20
30.29897763057138
 30
0.0
 11
-42.75438248716073
 21
30.29897753999691
 31
0.0
  0
LINE
  5
14E
330
1F
100
AcDbEntity
  8
0
100
AcDbLine
 10
-42.75438248716073
 20
30.29897753999691
 30
0.0
 11
-0.5668808980024704
 21
-44.70102183112723
 31
0.0
  0
LINE
  5
14F
330
1F
100
AcDbEntity
  8
0
100
AcDbLine
 10
-0.5668809843066738
 20
-40.62829456972258
 30
0.0
 11
-0.5668808980024704
 21
-44.70102183112723
 31
0.0
  0
LINE
  5
150
330
1F
100
AcDbEntity
  8
0
100
AcDbLine
 10
1.233119015693314
 20
-40.62829453157921
 30
0.0
 11
-0.5668809843066738
 21
-40.62829456972258
 31
0.0
  0
LINE
  5
151
330
1F
100
AcDbEntity
  8
0
100
AcDbLine
 10
1.233118861578653
 20
-33.35556725885195
 30
0.0
 11
1.233119015693314
 21
-40.62829453157921
 31
0.0
  0
LINE
  5
152
330
1F
100
AcDbEntity
  8
0
100
AcDbLine
 10
1.233118861578653
 20
-33.35556725885195
 30
0.0
 11
-0.5668811384213344
 21
-33.35556729699533
 31
0.0
  0
LINE
  5
153
330
1F
100
AcDbEntity
  8
0
100
AcDbLine
 10
-0.5668812925360129
 20
-26.08284002426805
 30
0.0
 11
-0.5668811384213344
 21
-33.35556729699533
 31
0.0
  0
LINE
  5
154
330
1F
100
AcDbEntity
  8
0
100
AcDbLine
 10
1.233118707463975
 20
-26.08283998612467
 30
0.0
 11
-0.5668812925360129
 21
-26.08284002426805
 31
0.0
  0
LINE
  5
155
330
1F
100
AcDbEntity
  8
0
100
AcDbLine
 10
1.233118553349314
 20
-18.81011271339739
 30
0.0
 11
1.233118707463975
 21
-26.08283998612467
 31
0.0
  0
LINE
  5
156
330
1F
100
AcDbEntity
  8
0
100
AcDbLine
 10
1.233118553349314
 20
-18.81011271339739
 30
0.0
 11
-0.5668814466506734
 21
-18.81011275154077
 31
0.0
  0
LINE
  5
157
330
1F
100
AcDbEntity
  8
0
100
AcDbLine
 10
-0.566881600765352
 20
-11.53738547881352
 30
0.0
 11
-0.5668814466506734
 21
-18.81011275154077
 31
0.0
  0
LINE
  5
158
330
1F
100
AcDbEntity
  8
0
100
AcDbLine
 10
1.233118399234636
 20
-11.53738544067014
 30
0.0
 11
-0.566881600765352
 21
-11.53738547881352
 31
0.0
  0
LINE
  5
159
330
1F
100
AcDbEntity
  8
0
100
AcDbLine
 10
1.233118245119957
 20
-4.26465816794286
 30
0.0
 11
1.233118399234636
 21
-11.53738544067014
 31
0.0
  0
LINE
  5
15A
330
1F
100
AcDbEntity
  8
0
100
AcDbLine
 10
1.233118245119957
 20
-4.26465816794286
 30
0.0
 11
-0.5668817548800306
 21
-4.264658206086241
 31
0.0
  0
LINE
  5
15B
330
1F
100
AcDbEntity
  8
0
100
AcDbLine
 10
-0.566881908994691
 20
3.008069066641035
 30
0.0
 11
-0.5668817548800306
 21
-4.264658206086241
 31
0.0
  0
LINE
  5
15C
330
1F
100
AcDbEntity
  8
0
100
AcDbLine
 10
1.233118091005297
 20
3.008069104784416
 30
0.0
 11
-0.566881908994691
 21
3.008069066641035
 31
0.0
  0
LINE
  5
15D
330
1F
100
AcDbEntity
  8
0
100
AcDbLine
 10
1.233117936890618
 20
10.28079637751169
 30
0.0
 11
1.233118091005297
 21
3.008069104784416
 31
0.0
  0
LINE
  5
15E
330
1F
100
AcDbEntity
  8
0
100
AcDbLine
 10
1.233117936890618
 20
10.28079637751169
 30
0.0
 11
-0.5668820631093696
 21
10.28079633936831
 31
0.0
  0
LINE
  5
15F
330
1F
100
AcDbEntity
  8
0
100
AcDbLine
 10
-0.5668822172240482
 20
17.55352361209559
 30
0.0
 11
-0.5668820631093696
 21
10.28079633936831
 31
0.0
  0
LINE
  5
160
330
1F
100
AcDbEntity
  8
0
100
AcDbLine
 10
1.23311778277594
 20
17.55352365023897
 30
0.0
 11
-0.5668822172240482
 21
17.55352361209559
 31
0.0
  0
LINE
  5
161
330
1F
100
AcDbEntity
  8
0
100
AcDbLine
 10
1.233117628661279
 20
24.82625092296625
 30
0.0
 11
1.23311778277594
 21
17.55352365023897
 31
0.0
  0
LINE
  5
162
330
1F
100
AcDbEntity
  8
0
100
AcDbLine
 10
1.233117628661279
 20
24.82625092296625
 30
0.0
 11
-0.5668823713387087
 21
24.82625088482287
 31
0.0
  0
LINE
  5
163
330
1F
100
AcDbEntity
  8
0
100
AcDbLine
 10
-0.5668825254533693
 20
32.09897815755012
 30
0.0
 11
-0.5668823713387087
 21
24.82625088482287
 31
0.0
  0
LINE
  5
164
330
1F
100
AcDbEntity
  8
0
100
AcDbLine
 10
-0.5668825254533693
 20
32.09897815755012
 30
0.0
 11
-7.766882525453375
 21
32.09897805215438
 31
0.0
  0
LINE
  5
165
330
1F
100
AcDbEntity
  8
0
100
AcDbLine
 10
-7.766882525453375
 20
32.09897805215438
 30
0.0
 11
-7.76688249910442
 21
30.29897805215437
 31
0.0
  0
LINE
  5
166
330
1F
100
AcDbEntity
  8
0
100
AcDbLine
 10
-7.76688249910442
 20
30.29897805215437
 30
0.0
 11
-14.96688249910444
 21
30.29897794675862
 31
0.0
  0
LINE
  5
167
330
1F
100
AcDbEntity
  8
0
100
AcDbLine
 10
-14.96688252545338
 20
32.09897794675863
 30
0.0
 11
-14.96688249910444
 21
30.29897794675862
 31
0.0
  0
LINE
  5
168
330
1F
100
AcDbEntity
  8
0
100
AcDbLine
 10
-14.96688252545338
 20
32.09897794675863
 30
0.0
 11
-22.16688252545337
 21
32.09897784136288
 31
0.0
  0
LINE
  5
169
330
1F
100
AcDbEntity
  8
0
100
AcDbLine
 10
-22.16688252545337
 20
32.09897784136288
 30
0.0
 11
-22.16688249910443
 21
30.29897784136288
 31
0.0
  0
LINE
  5
16A
330
1F
100
AcDbEntity
  8
0
100
AcDbLine
 10
-22.16688249910443
 20
30.29897784136288
 30
0.0
 11
-29.36688249910445
 21
30.29897773596713
 31
0.0
  0
LINE
  5
16B
330
1F
100
AcDbEntity
  8
0
100
AcDbLine
 10
-29.36688252545337
 20
32.09897773596714
 30
0.0
 11
-29.36688249910445
 21
30.29897773596713
 31
0.0
  0
LINE
  5
16C
330
1F
100
AcDbEntity
  8
0
100
AcDbLine
 10
-29.36688252545337
 20
32.09897773596714
 30
0.0
 11
-36.56688252545338
 21
32.09897763057139
 31
0.0
  0
LINE
  5
16D
330
1F
100
AcDbEntity
  8
0
100
AcDbLine
 10
-36.56688252545338
 20
32.09897763057139
 30
0.0
 11
-36.56688249910443
 21
30.29897763057138
 31
0.0
  0
LINE
  5
16E
330
1F
100
AcDbEntity
  8
0
100
AcDbLine
 10
106.9331182885776
 20
30.16564571785847
 30
0.0
 11
106.9331182885776
 21
31.8323123845251
 31
0.0
  0
LINE
  5
16F
330
1F
100
AcDbEntity
  8
0
100
AcDbLine
 10
110.7331182885776
 20
31.8323123845251
 30
0.0
 11
110.7331182885776
 21
30.16564571785847
 31
0.0
  0
LINE
  5
170
330
1F
100
AcDbEntity
  8
0
100
AcDbLine
 10
105.1331182885776
 20
30.16564571785847
 30
0.0
 11
106.9331182885776
 21
30.16564571785847
 31
0.0
  0
LINE
  5
171
330
1F
100
AcDbEntity
  8
0
100
AcDbLine
 10
112.5331182885773
 20
28.49897905119182
 30
0.0
 11
105.1331182885776
 21
28.49897905119182
 31
0.0
  0
LINE
  5
172
330
1F
100
AcDbEntity
  8
0
100
AcDbLine
 10
10.14178087609794
 20
-46.41401353910874
 30
0.0
 11
10.14178090795134
 21
-44.61401355381286
 31
0.0
  0
LINE
  5
173
330
1F
100
AcDbEntity
  8
0
100
AcDbLine
 10
10.14178090795134
 20
-44.61401355381286
 30
0.0
 11
8.475114261339193
 21
-44.61401353228418
 31
0.0
  0
LINE
  5
174
330
1F
100
AcDbEntity
  8
0
100
AcDbLine
 10
11.80844760700171
 20
-40.81401353923382
 30
0.0
 11
13.47511425193752
 21
-40.81401356407115
 31
0.0
  0
LINE
  5
175
330
1F
100
AcDbEntity
  8
0
100
AcDbLine
 10
10.14178098637565
 20
-39.01401352910062
 30
0.0
 11
10.14178095452223
 21
-40.81401351439642
 31
0.0
  0
LINE
  5
176
330
1F
100
AcDbEntity
  8
0
100
AcDbLine
 10
8.475114261339193
 20
-44.61401353228418
 30
0.0
 11
8.475114240131765
 21
-46.41401350747932
 31
0.0
  0
LINE
  5
177
330
1F
100
AcDbEntity
  8
0
100
AcDbLine
 10
3.475114330793858
 20
-39.01401343936813
 30
0.0
 11
8.47511432911749
 21
-39.01401350395418
 31
0.0
  0
LINE
  5
178
330
1F
100
AcDbEntity
  8
0
100
AcDbLine
 10
8.47511430791006
 20
-40.81401349286778
 30
0.0
 11
8.47511432911749
 21
-39.01401350395418
 31
0.0
  0
LINE
  5
179
330
1F
100
AcDbEntity
  8
0
100
AcDbLine
 10
10.14178098637565
 20
-39.01401352910062
 30
0.0
 11
11.80844763131145
 21
-39.01401355393794
 31
0.0
  0
LINE
  5
17A
330
1F
100
AcDbEntity
  8
0
100
AcDbLine
 10
11.80844752103374
 20
-46.4140135639461
 30
0.0
 11
10.14178087609794
 21
-46.41401353910874
 31
0.0
  0
LINE
  5
17B
330
1F
100
AcDbEntity
  8
0
100
AcDbLine
 10
8.47511430791006
 20
-40.81401349286778
 30
0.0
 11
10.14178095452223
 21
-40.81401351439642
 31
0.0
  0
LINE
  5
17C
330
1F
100
AcDbEntity
  8
0
100
AcDbLine
 10
11.80844752103374
 20
-46.4140135639461
 30
0.0
 11
11.80844754534347
 21
-44.61401357865022
 31
0.0
  0
LINE
  5
17D
330
1F
100
AcDbEntity
  8
0
100
AcDbLine
 10
13.47511425547186
 20
-44.61401360348755
 30
0.0
 11
11.80844754534347
 21
-44.61401357865022
 31
0.0
  0
LINE
  5
17E
330
1F
100
AcDbEntity
  8
0
100
AcDbLine
 10
13.47511425193752
 20
-40.81401356407115
 30
0.0
 11
13.47511425547186
 21
-44.61401360348755
 31
0.0
  0
LINE
  5
17F
330
1F
100
AcDbEntity
  8
0
100
AcDbLine
 10
11.80844763131145
 20
-39.01401355393794
 30
0.0
 11
11.80844760700171
 21
-40.81401353923382
 31
0.0
  0
LINE
  5
180
330
1F
100
AcDbEntity
  8
0
100
AcDbLine
 10
3.475114241808132
 20
-46.41401344289327
 30
0.0
 11
3.475114330793858
 21
-39.01401343936813
 31
0.0
  0
LINE
  5
181
330
1F
100
AcDbEntity
  8
0
100
AcDbLine
 10
8.475114240131765
 20
-46.41401350747932
 30
0.0
 11
3.475114241808132
 21
-46.41401344289327
 31
0.0
  0
LINE
  5
182
330
1F
100
AcDbEntity
  8
0
100
AcDbLine
 10
95.63311828857763
 20
-46.50102071933237
 30
0.0
 11
95.63311828857763
 21
-44.83435405266569
 31
0.0
  0
LINE
  5
183
330
1F
100
AcDbEntity
  8
0
100
AcDbLine
 10
103.0331182885773
 20
-41.5010207193324
 30
0.0
 11
103.0331182885773
 21
-43.16768738599905
 31
0.0
  0
LINE
  5
184
330
1F
100
AcDbEntity
  8
0
100
AcDbLine
 10
95.63311828857763
 20
-43.16768738599905
 30
0.0
 11
95.63311828857763
 21
-41.5010207193324
 31
0.0
  0
LINE
  5
185
330
1F
100
AcDbEntity
  8
0
100
AcDbLine
 10
95.63311828857763
 20
-43.16768738599905
 30
0.0
 11
97.43311828857759
 21
-43.16768738599905
 31
0.0
  0
LINE
  5
186
330
1F
100
AcDbEntity
  8
0
100
AcDbLine
 10
103.0331182885773
 20
-44.83435405266569
 30
0.0
 11
103.0331182885773
 21
-46.50102071933237
 31
0.0
  0
LINE
  5
187
330
1F
100
AcDbEntity
  8
0
100
AcDbLine
 10
101.2331182885776
 20
-44.83435405266572
 30
0.0
 11
103.0331182885773
 21
-44.83435405266569
 31
0.0
  0
LINE
  5
188
330
1F
100
AcDbEntity
  8
0
100
AcDbLine
 10
101.2331182885776
 20
-43.16768738599905
 30
0.0
 11
101.2331182885776
 21
-44.83435405266572
 31
0.0
  0
LINE
  5
189
330
1F
100
AcDbEntity
  8
0
100
AcDbLine
 10
101.2331182885776
 20
-43.16768738599905
 30
0.0
 11
103.0331182885773
 21
-43.16768738599905
 31
0.0
  0
LINE
  5
18A
330
1F
100
AcDbEntity
  8
0
100
AcDbLine
 10
95.63311828857763
 20
-41.5010207193324
 30
0.0
 11
103.0331182885773
 21
-41.5010207193324
 31
0.0
  0
LINE
  5
18B
330
1F
100
AcDbEntity
  8
0
100
AcDbLine
 10
97.43311828857759
 20
-44.83435405266569
 30
0.0
 11
97.43311828857759
 21
-43.16768738599905
 31
0.0
  0
LINE
  5
18C
330
1F
100
AcDbEntity
  8
0
100
AcDbLine
 10
95.63311828857763
 20
-44.83435405266569
 30
0.0
 11
97.43311828857759
 21
-44.83435405266569
 31
0.0
  0
LINE
  5
18D
330
1F
100
AcDbEntity
  8
0
100
AcDbLine
 10
103.0331182885773
 20
-46.50102071933237
 30
0.0
 11
95.63311828857763
 21
-46.50102071933237
 31
0.0
  0
LINE
  5
18E
330
1F
100
AcDbEntity
  8
0
100
AcDbLine
 10
14.13311742251423
 20
29.29897814196356
 30
0.0
 11
14.13311748267687
 21
25.49897810254712
 31
0.0
  0
LINE
  5
18F
330
1F
100
AcDbEntity
  8
0
100
AcDbLine
 10
4.133117495837076
 20
23.69897811411951
 30
0.0
 11
4.133117474546627
 21
31.09897811764467
 31
0.0
  0
LINE
  5
190
330
1F
100
AcDbEntity
  8
0
100
AcDbLine
 10
9.133117488544201
 20
25.49897809923957
 30
0.0
 11
9.133117494160707
 21
23.69897812404442
 31
0.0
  0
LINE
  5
191
330
1F
100
AcDbEntity
  8
0
100
AcDbLine
 10
9.133117478486747
 20
29.29897813865597
 30
0.0
 11
10.79978412509891
 21
29.29897814196428
 31
0.0
  0
LINE
  5
192
330
1F
100
AcDbEntity
  8
0
100
AcDbLine
 10
10.7997841301284
 20
31.0989781272601
 30
0.0
 11
12.46645077506421
 21
31.09897812725974
 31
0.0
  0
LINE
  5
193
330
1F
100
AcDbEntity
  8
0
100
AcDbLine
 10
4.133117474546627
 20
31.09897811764467
 30
0.0
 11
9.133117472870259
 21
31.09897812756951
 31
0.0
  0
LINE
  5
194
330
1F
100
AcDbEntity
  8
0
100
AcDbLine
 10
12.46645077506268
 20
23.69897811725156
 30
0.0
 11
12.46645077254848
 21
25.49897810254748
 31
0.0
  0
LINE
  5
195
330
1F
100
AcDbEntity
  8
0
100
AcDbLine
 10
12.46645077506421
 20
31.09897812725974
 30
0.0
 11
12.46645077757841
 21
29.29897814196384
 31
0.0
  0
LINE
  5
196
330
1F
100
AcDbEntity
  8
0
100
AcDbLine
 10
9.133117494160707
 20
23.69897812404442
 30
0.0
 11
4.133117495837076
 21
23.69897811411951
 31
0.0
  0
LINE
  5
197
330
1F
100
AcDbEntity
  8
0
100
AcDbLine
 10
12.46645077757841
 20
29.29897814196384
 30
0.0
 11
14.13311742251423
 21
29.29897814196356
 31
0.0
  0
LINE
  5
198
330
1F
100
AcDbEntity
  8
0
100
AcDbLine
 10
10.7997841301284
 20
31.0989781272601
 30
0.0
 11
10.79978412509891
 21
29.29897814196428
 31
0.0
  0
LINE
  5
199
330
1F
100
AcDbEntity
  8
0
100
AcDbLine
 10
9.133117478486747
 20
29.29897813865597
 30
0.0
 11
9.133117472870259
 21
31.09897812756951
 31
0.0
  0
LINE
  5
19A
330
1F
100
AcDbEntity
  8
0
100
AcDbLine
 10
10.79978413515635
 20
25.49897810254784
 30
0.0
 11
9.133117488544201
 21
25.49897809923957
 31
0.0
  0
LINE
  5
19B
330
1F
100
AcDbEntity
  8
0
100
AcDbLine
 10
10.79978413012688
 20
23.69897811725196
 30
0.0
 11
10.79978413515635
 21
25.49897810254784
 31
0.0
  0
LINE
  5
19C
330
1F
100
AcDbEntity
  8
0
100
AcDbLine
 10
12.46645077506268
 20
23.69897811725156
 30
0.0
 11
10.79978413012688
 21
23.69897811725196
 31
0.0
  0
LINE
  5
19D
330
1F
100
AcDbEntity
  8
0
100
AcDbLine
 10
14.13311748267687
 20
25.49897810254712
 30
0.0
 11
12.46645077254848
 21
25.49897810254748
 31
0.0
  0
LINE
  5
19E
330
1F
100
AcDbEntity
  8
0
100
AcDbLine
 10
8.233117783521058
 20
16.64975912136621
 30
0.0
 11
6.56645113858526
 21
16.6497590965308
 31
0.0
  0
LINE
  5
19F
330
1F
100
AcDbEntity
  8
0
100
AcDbLine
 10
8.233117716838297
 20
20.44975916078262
 30
0.0
 11
8.233117783521058
 21
16.64975912136621
 31
0.0
  0
LINE
  5
1A0
330
1F
100
AcDbEntity
  8
0
100
AcDbLine
 10
6.566451050109438
 20
22.24975912124312
 30
0.0
 11
6.566451071902501
 21
20.44975913594724
 31
0.0
  0
LINE
  5
1A1
330
1F
100
AcDbEntity
  8
0
100
AcDbLine
 10
4.899784405173641
 20
22.24975909640781
 30
0.0
 11
4.899784434510353
 21
20.44975911111197
 31
0.0
  0
LINE
  5
1A2
330
1F
100
AcDbEntity
  8
0
100
AcDbLine
 10
6.566451160378286
 20
14.84975911123499
 30
0.0
 11
6.56645113858526
 21
16.6497590965308
 31
0.0
  0
LINE
  5
1A3
330
1F
100
AcDbEntity
  8
0
100
AcDbLine
 10
3.233117841169943
 20
16.64975904686023
 30
0.0
 11
3.233117724381965
 21
20.44975908627663
 31
0.0
  0
LINE
  5
1A4
330
1F
100
AcDbEntity
  8
0
100
AcDbLine
 10
4.899784486105759
 20
16.64975907169553
 30
0.0
 11
3.233117841169943
 21
16.64975904686023
 31
0.0
  0
LINE
  5
1A5
330
1F
100
AcDbEntity
  8
0
100
AcDbLine
 10
4.899784515442488
 20
14.84975908639967
 30
0.0
 11
4.899784486105759
 21
16.64975907169553
 31
0.0
  0
LINE
  5
1A6
330
1F
100
AcDbEntity
  8
0
100
AcDbLine
 10
6.566451160378286
 20
14.84975911123499
 30
0.0
 11
4.899784515442488
 21
14.84975908639967
 31
0.0
  0
LINE
  5
1A7
330
1F
100
AcDbEntity
  8
0
100
AcDbLine
 10
6.566451071902501
 20
20.44975913594724
 30
0.0
 11
8.233117716838297
 21
20.44975916078262
 31
0.0
  0
LINE
  5
1A8
330
1F
100
AcDbEntity
  8
0
100
AcDbLine
 10
4.899784405173641
 20
22.24975909640781
 30
0.0
 11
6.566451050109438
 21
22.24975912124312
 31
0.0
  0
LINE
  5
1A9
330
1F
100
AcDbEntity
  8
0
100
AcDbLine
 10
3.233117724381965
 20
20.44975908627663
 30
0.0
 11
4.899784434510353
 21
20.44975911111197
 31
0.0
  0
LINE
  5
1AA
330
1F
100
AcDbEntity
  8
0
100
AcDbLine
 10
112.5331182885773
 20
-46.50102071933237
 30
0.0
 11
105.1331182885776
 21
-46.50102071933237
 31
0.0
  0
LINE
  5
1AB
330
1F
100
AcDbEntity
  8
0
100
AcDbLine
 10
105.1331182885776
 20
-44.83435405266569
 30
0.0
 11
106.9331182885776
 21
-44.83435405266569
 31
0.0
  0
LINE
  5
1AC
330
1F
100
AcDbEntity
  8
0
100
AcDbLine
 10
105.1331182885776
 20
-41.5010207193324
 30
0.0
 11
112.5331182885773
 21
-41.5010207193324
 31
0.0
  0
LINE
  5
1AD
330
1F
100
AcDbEntity
  8
0
100
AcDbLine
 10
106.9331182885776
 20
-44.83435405266569
 30
0.0
 11
106.9331182885776
 21
-43.16768738599905
 31
0.0
  0
LINE
  5
1AE
330
1F
100
AcDbEntity
  8
0
100
AcDbLine
 10
112.5331182885773
 20
-44.83435405266569
 30
0.0
 11
112.5331182885773
 21
-46.50102071933237
 31
0.0
  0
LINE
  5
1AF
330
1F
100
AcDbEntity
  8
0
100
AcDbLine
 10
110.7331182885776
 20
-44.83435405266572
 30
0.0
 11
112.5331182885773
 21
-44.83435405266569
 31
0.0
  0
LINE
  5
1B0
330
1F
100
AcDbEntity
  8
0
100
AcDbLine
 10
110.7331182885776
 20
-43.16768738599905
 30
0.0
 11
110.7331182885776
 21
-44.83435405266572
 31
0.0
  0
LINE
  5
1B1
330
1F
100
AcDbEntity
  8
0
100
AcDbLine
 10
110.7331182885776
 20
-43.16768738599905
 30
0.0
 11
112.5331182885773
 21
-43.16768738599905
 31
0.0
  0
LINE
  5
1B2
330
1F
100
AcDbEntity
  8
0
100
AcDbLine
 10
112.5331182885773
 20
-41.5010207193324
 30
0.0
 11
112.5331182885773
 21
-43.16768738599905
 31
0.0
  0
LINE
  5
1B3
330
1F
100
AcDbEntity
  8
0
100
AcDbLine
 10
105.1331182885776
 20
-43.16768738599905
 30
0.0
 11
105.1331182885776
 21
-41.5010207193324
 31
0.0
  0
LINE
  5
1B4
330
1F
100
AcDbEntity
  8
0
100
AcDbLine
 10
105.1331182885776
 20
-43.16768738599905
 30
0.0
 11
106.9331182885776
 21
-43.16768738599905
 31
0.0
  0
LINE
  5
1B5
330
1F
100
AcDbEntity
  8
0
100
AcDbLine
 10
105.1331182885776
 20
-46.50102071933237
 30
0.0
 11
105.1331182885776
 21
-44.83435405266569
 31
0.0
  0
LINE
  5
1B6
330
1F
100
AcDbEntity
  8
0
100
AcDbLine
 10
-106.554381013959
 20
28.49897755120781
 30
0.0
 11
-46.55438101395902
 21
28.49897755132794
 31
0.0
  0
LINE
  5
1B7
330
1F
100
AcDbEntity
  8
0
100
AcDbLine
 10
-46.55438101380881
 20
-46.50102244867201
 30
0.0
 11
-106.5543810138088
 21
-46.50102244879217
 31
0.0
  0
LINE
  5
1B8
330
1F
100
AcDbEntity
  8
0
100
AcDbLine
 10
-46.55438101395902
 20
28.49897755132794
 30
0.0
 11
-46.5543811387157
 21
-6.501022443638302
 31
0.0
  0
LINE
  5
1B9
330
1F
100
AcDbEntity
  8
0
100
AcDbLine
 10
-46.55438101387891
 20
-11.50102243860454
 30
0.0
 11
-46.55438101380881
 21
-46.50102244867201
 31
0.0
  0
LINE
  5
1BA
330
1F
100
AcDbEntity
  8
0
100
AcDbLine
 10
-106.5543810138088
 20
-46.50102244879217
 30
0.0
 11
-106.554381013959
 21
28.49897755120781
 31
0.0
  0
LINE
  5
1BB
330
1F
100
AcDbEntity
  8
0
100
AcDbLine
 10
-69.95438100430607
 20
-14.70102243361764
 30
0.0
 11
-69.95438100430246
 21
-16.50102243361767
 31
0.0
  0
LINE
  5
1BC
330
1F
100
AcDbEntity
  8
0
100
AcDbLine
 10
-77.15438100430607
 20
-14.70102243363208
 30
0.0
 11
-77.15438100430246
 21
-16.50102243363211
 31
0.0
  0
LINE
  5
1BD
330
1F
100
AcDbEntity
  8
0
100
AcDbLine
 10
-55.55438100430609
 20
-14.7010224335888
 30
0.0
 11
-55.55438100430248
 21
-16.50102243358883
 31
0.0
  0
LINE
  5
1BE
330
1F
100
AcDbEntity
  8
0
100
AcDbLine
 10
-84.35438101437065
 20
-1.501022448747756
 30
0.0
 11
-77.15438101437064
 21
-1.501022448733336
 31
0.0
  0
LINE
  5
1BF
330
1F
100
AcDbEntity
  8
0
100
AcDbLine
 10
-69.95438101437064
 20
-1.501022448718916
 30
0.0
 11
-69.95438101436703
 21
-3.301022448718903
 31
0.0
  0
LINE
  5
1C0
330
1F
100
AcDbEntity
  8
0
100
AcDbLine
 10
-62.7543810043061
 20
-14.70102243360324
 30
0.0
 11
-62.75438100430249
 21
-16.50102243360326
 31
0.0
  0
LINE
  5
1C1
330
1F
100
AcDbEntity
  8
0
100
AcDbLine
 10
-48.3543809936482
 20
-6.50102244582369
 30
0.0
 11
-46.5543811387157
 21
-6.501022443638302
 31
0.0
  0
LINE
  5
1C2
330
1F
100
AcDbEntity
  8
0
100
AcDbLine
 10
-69.95438101437064
 20
-1.501022448718916
 30
0.0
 11
-62.75438101437065
 21
-1.501022448704495
 31
0.0
  0
LINE
  5
1C3
330
1F
100
AcDbEntity
  8
0
100
AcDbLine
 10
-48.3543810025762
 20
-1.501022448675655
 30
0.0
 11
-48.35438100257259
 21
-3.301022448675643
 31
0.0
  0
LINE
  5
1C4
330
1F
100
AcDbEntity
  8
0
100
AcDbLine
 10
-55.55438101437064
 20
-1.501022448690075
 30
0.0
 11
-55.55438101436705
 21
-3.301022448690063
 31
0.0
  0
LINE
  5
1C5
330
1F
100
AcDbEntity
  8
0
100
AcDbLine
 10
-62.75438101436705
 20
-3.301022448704483
 30
0.0
 11
-69.95438101436703
 21
-3.301022448718903
 31
0.0
  0
LINE
  5
1C6
330
1F
100
AcDbEntity
  8
0
100
AcDbLine
 10
-62.75438101437065
 20
-1.501022448704495
 30
0.0
 11
-62.75438101436705
 21
-3.301022448704483
 31
0.0
  0
LINE
  5
1C7
330
1F
100
AcDbEntity
  8
0
100
AcDbLine
 10
-48.35438099251164
 20
-14.70102243357438
 30
0.0
 11
-48.35438099250803
 21
-16.50102243357441
 31
0.0
  0
LINE
  5
1C8
330
1F
100
AcDbEntity
  8
0
100
AcDbLine
 10
-48.35438100257259
 20
-3.301022448675643
 30
0.0
 11
-55.55438101436705
 21
-3.301022448690063
 31
0.0
  0
LINE
  5
1C9
330
1F
100
AcDbEntity
  8
0
100
AcDbLine
 10
-55.55438101437064
 20
-1.501022448690075
 30
0.0
 11
-48.3543810025762
 21
-1.501022448675655
 31
0.0
  0
LINE
  5
1CA
330
1F
100
AcDbEntity
  8
0
100
AcDbLine
 10
-77.15438101437064
 20
-1.501022448733336
 30
0.0
 11
-77.15438101436705
 21
-3.301022448733324
 31
0.0
  0
LINE
  5
1CB
330
1F
100
AcDbEntity
  8
0
100
AcDbLine
 10
-77.15438101436705
 20
-3.301022448733324
 30
0.0
 11
-84.35438101436705
 21
-3.301022448747744
 31
0.0
  0
LINE
  5
1CC
330
1F
100
AcDbEntity
  8
0
100
AcDbLine
 10
-84.35438101437065
 20
-1.501022448747756
 30
0.0
 11
-84.35438101436705
 21
-3.301022448747744
 31
0.0
  0
LINE
  5
1CD
330
1F
100
AcDbEntity
  8
0
100
AcDbLine
 10
-48.35438098458776
 20
-11.50102244078989
 30
0.0
 11
-48.3543809936482
 21
-6.50102244582369
 31
0.0
  0
LINE
  5
1CE
330
1F
100
AcDbEntity
  8
0
100
AcDbLine
 10
-48.35438098458776
 20
-11.50102244078989
 30
0.0
 11
-46.55438101387891
 21
-11.50102243860454
 31
0.0
  0
LINE
  5
1CF
330
1F
100
AcDbEntity
  8
0
100
AcDbLine
 10
-84.35438100430608
 20
-14.70102243364648
 30
0.0
 11
-84.35438100430247
 21
-16.50102243364651
 31
0.0
  0
LINE
  5
1D0
330
1F
100
AcDbEntity
  8
0
100
AcDbLine
 10
-28.19074454065637
 20
33.09897768327555
 30
0.0
 11
-35.46347181338364
 21
33.09897768327303
 31
0.0
  0
LINE
  5
1D1
330
1F
100
AcDbEntity
  8
0
100
AcDbLine
 10
-69.95438100430607
 20
-14.70102243361764
 30
0.0
 11
-62.7543810043061
 21
-14.70102243360324
 31
0.0
  0
LINE
  5
1D2
330
1F
100
AcDbEntity
  8
0
100
AcDbLine
 10
-106.5543810139682
 20
33.09897768324841
 30
0.0
 11
-57.28165363156546
 21
33.09897768326545
 31
0.0
  0
LINE
  5
1D3
330
1F
100
AcDbEntity
  8
0
100
AcDbLine
 10
-77.15438100430246
 20
-16.50102243363211
 30
0.0
 11
-84.35438100430247
 21
-16.50102243364651
 31
0.0
  0
LINE
  5
1D4
330
1F
100
AcDbEntity
  8
0
100
AcDbLine
 10
-13.64528999520184
 20
33.09897768328053
 30
0.0
 11
-20.91801726792909
 21
33.09897768327808
 31
0.0
  0
LINE
  5
1D5
330
1F
100
AcDbEntity
  8
0
100
AcDbLine
 10
-48.35438099250803
 20
-16.50102243357441
 30
0.0
 11
-55.55438100430248
 21
-16.50102243358883
 31
0.0
  0
LINE
  5
1D6
330
1F
100
AcDbEntity
  8
0
100
AcDbLine
 10
-106.5543810139734
 20
48.09897766814723
 30
0.0
 11
-106.5543810139682
 21
33.09897768324841
 31
0.0
  0
LINE
  5
1D7
330
1F
100
AcDbEntity
  8
0
100
AcDbLine
 10
-84.35438100430608
 20
-14.70102243364648
 30
0.0
 11
-77.15438100430607
 21
-14.70102243363208
 31
0.0
  0
LINE
  5
1D8
330
1F
100
AcDbEntity
  8
0
100
AcDbLine
 10
-62.75438100430249
 20
-16.50102243360326
 30
0.0
 11
-69.95438100430246
 21
-16.50102243361767
 31
0.0
  0
LINE
  5
1D9
330
1F
100
AcDbEntity
  8
0
100
AcDbLine
 10
-55.55438100430609
 20
-14.7010224335888
 30
0.0
 11
-48.35438099251164
 21
-14.70102243357438
 31
0.0
  0
LINE
  5
1DA
330
1F
100
AcDbEntity
  8
0
100
AcDbLine
 10
-13.64528999520184
 20
33.09897768328053
 30
0.0
 11
-13.64528999520245
 21
34.89897768109874
 31
0.0
  0
LINE
  5
1DB
330
1F
100
AcDbEntity
  8
0
100
AcDbLine
 10
-57.28165363156608
 20
34.89897768108365
 30
0.0
 11
-50.00892635883881
 21
34.89897768108618
 31
0.0
  0
LINE
  5
1DC
330
1F
100
AcDbEntity
  8
0
100
AcDbLine
 10
-57.28165363156546
 20
33.09897768326545
 30
0.0
 11
-57.28165363156608
 21
34.89897768108365
 31
0.0
  0
LINE
  5
1DD
330
1F
100
AcDbEntity
  8
0
100
AcDbLine
 10
0.9001645502521015
 20
34.89897768110379
 30
0.0
 11
8.172891822979377
 21
34.89897768110632
 31
0.0
  0
LINE
  5
1DE
330
1F
100
AcDbEntity
  8
0
100
AcDbLine
 10
-6.372562722474561
 20
33.09897768328306
 30
0.0
 11
-6.372562722475175
 21
34.89897768110126
 31
0.0
  0
LINE
  5
1DF
330
1F
100
AcDbEntity
  8
0
100
AcDbLine
 10
-42.73619908611091
 20
33.0989776832705
 30
0.0
 11
-42.73619908611154
 21
34.89897768108871
 31
0.0
  0
LINE
  5
1E0
330
1F
100
AcDbEntity
  8
0
100
AcDbLine
 10
13.64561909583616
 20
43.09897767322254
 30
0.0
 11
13.64561909583443
 21
48.09897766818881
 31
0.0
  0
LINE
  5
1E1
330
1F
100
AcDbEntity
  8
0
100
AcDbLine
 10
15.44561909583788
 20
38.09897767825689
 30
0.0
 11
13.64561909583789
 21
38.09897767825625
 31
0.0
  0
LINE
  5
1E2
330
1F
100
AcDbEntity
  8
0
100
AcDbLine
 10
13.64561909583962
 20
33.09897768328999
 30
0.0
 11
8.172891822979992
 21
33.09897768328811
 31
0.0
  0
LINE
  5
1E3
330
1F
100
AcDbEntity
  8
0
100
AcDbLine
 10
-20.91801726792909
 20
33.09897768327808
 30
0.0
 11
-20.91801726792973
 21
34.89897768109628
 31
0.0
  0
LINE
  5
1E4
330
1F
100
AcDbEntity
  8
0
100
AcDbLine
 10
8.172891822979992
 20
33.09897768328811
 30
0.0
 11
8.172891822979377
 21
34.89897768110632
 31
0.0
  0
LINE
  5
1E5
330
1F
100
AcDbEntity
  8
0
100
AcDbLine
 10
0.9001645502527151
 20
33.09897768328558
 30
0.0
 11
-6.372562722474561
 21
33.09897768328306
 31
0.0
  0
LINE
  5
1E6
330
1F
100
AcDbEntity
  8
0
100
AcDbLine
 10
0.9001645502527151
 20
33.09897768328558
 30
0.0
 11
0.9001645502521015
 21
34.89897768110379
 31
0.0
  0
LINE
  5
1E7
330
1F
100
AcDbEntity
  8
0
100
AcDbLine
 10
-50.0089263588382
 20
33.09897768326797
 30
0.0
 11
-50.00892635883881
 21
34.89897768108618
 31
0.0
  0
LINE
  5
1E8
330
1F
100
AcDbEntity
  8
0
100
AcDbLine
 10
15.44561909583788
 20
38.09897767825689
 30
0.0
 11
15.44561909583616
 21
43.09897767322319
 31
0.0
  0
LINE
  5
1E9
330
1F
100
AcDbEntity
  8
0
100
AcDbLine
 10
-35.46347181338364
 20
33.09897768327303
 30
0.0
 11
-35.46347181338427
 21
34.89897768109123
 31
0.0
  0
LINE
  5
1EA
330
1F
100
AcDbEntity
  8
0
100
AcDbLine
 10
-42.73619908611091
 20
33.0989776832705
 30
0.0
 11
-50.0089263588382
 21
33.09897768326797
 31
0.0
  0
LINE
  5
1EB
330
1F
100
AcDbEntity
  8
0
100
AcDbLine
 10
13.64561909583962
 20
33.09897768328999
 30
0.0
 11
13.64561909583789
 21
38.09897767825625
 31
0.0
  0
LINE
  5
1EC
330
1F
100
AcDbEntity
  8
0
100
AcDbLine
 10
-28.19074454065637
 20
33.09897768327555
 30
0.0
 11
-28.190744540657
 21
34.89897768109376
 31
0.0
  0
LINE
  5
1ED
330
1F
100
AcDbEntity
  8
0
100
AcDbLine
 10
-42.73619908611154
 20
34.89897768108871
 30
0.0
 11
-35.46347181338427
 21
34.89897768109123
 31
0.0
  0
LINE
  5
1EE
330
1F
100
AcDbEntity
  8
0
100
AcDbLine
 10
-28.190744540657
 20
34.89897768109376
 30
0.0
 11
-20.91801726792973
 21
34.89897768109628
 31
0.0
  0
LINE
  5
1EF
330
1F
100
AcDbEntity
  8
0
100
AcDbLine
 10
-13.64528999520245
 20
34.89897768109874
 30
0.0
 11
-6.372562722475175
 21
34.89897768110126
 31
0.0
  0
LINE
  5
1F0
330
1F
100
AcDbEntity
  8
0
100
AcDbLine
 10
15.44561909583616
 20
43.09897767322319
 30
0.0
 11
13.64561909583616
 21
43.09897767322254
 31
0.0
  0
LINE
  5
1F1
330
1F
100
AcDbEntity
  8
0
100
AcDbLine
 10
-50.00892635884338
 20
48.09897766816673
 30
0.0
 11
-42.7361990861161
 21
48.09897766816925
 31
0.0
  0
LINE
  5
1F2
330
1F
100
AcDbEntity
  8
0
100
AcDbLine
 10
-50.00892635884276
 20
46.29897766598501
 30
0.0
 11
-50.00892635884338
 21
48.09897766816673
 31
0.0
  0
LINE
  5
1F3
330
1F
100
AcDbEntity
  8
0
100
AcDbLine
 10
-6.372562722479741
 20
48.09897766818181
 30
0.0
 11
0.9001645502475354
 21
48.09897766818434
 31
0.0
  0
LINE
  5
1F4
330
1F
100
AcDbEntity
  8
0
100
AcDbLine
 10
0.900164550248149
 20
46.29897766600262
 30
0.0
 11
0.9001645502475354
 21
48.09897766818434
 31
0.0
  0
LINE
  5
1F5
330
1F
100
AcDbEntity
  8
0
100
AcDbLine
 10
-20.91801726793429
 20
48.09897766817683
 30
0.0
 11
-13.64528999520702
 21
48.09897766817928
 31
0.0
  0
LINE
  5
1F6
330
1F
100
AcDbEntity
  8
0
100
AcDbLine
 10
-57.28165363157065
 20
48.0989776681642
 30
0.0
 11
-106.5543810139734
 21
48.09897766814723
 31
0.0
  0
LINE
  5
1F7
330
1F
100
AcDbEntity
  8
0
100
AcDbLine
 10
-57.28165363157002
 20
46.29897766598248
 30
0.0
 11
-57.28165363157065
 21
48.0989776681642
 31
0.0
  0
LINE
  5
1F8
330
1F
100
AcDbEntity
  8
0
100
AcDbLine
 10
8.172891822974812
 20
48.09897766818686
 30
0.0
 11
13.64561909583443
 21
48.09897766818881
 31
0.0
  0
LINE
  5
1F9
330
1F
100
AcDbEntity
  8
0
100
AcDbLine
 10
-20.91801726793366
 20
46.29897766599512
 30
0.0
 11
-28.19074454066094
 21
46.29897766599259
 31
0.0
  0
LINE
  5
1FA
330
1F
100
AcDbEntity
  8
0
100
AcDbLine
 10
-35.4634718133882
 20
46.29897766599007
 30
0.0
 11
-42.73619908611548
 21
46.29897766598754
 31
0.0
  0
LINE
  5
1FB
330
1F
100
AcDbEntity
  8
0
100
AcDbLine
 10
-50.00892635884276
 20
46.29897766598501
 30
0.0
 11
-57.28165363157002
 21
46.29897766598248
 31
0.0
  0
LINE
  5
1FC
330
1F
100
AcDbEntity
  8
0
100
AcDbLine
 10
8.172891822975425
 20
46.29897766600515
 30
0.0
 11
0.900164550248149
 21
46.29897766600262
 31
0.0
  0
LINE
  5
1FD
330
1F
100
AcDbEntity
  8
0
100
AcDbLine
 10
-28.19074454066094
 20
46.29897766599259
 30
0.0
 11
-28.19074454066157
 21
48.0989776681743
 31
0.0
  0
LINE
  5
1FE
330
1F
100
AcDbEntity
  8
0
100
AcDbLine
 10
-42.73619908611548
 20
46.29897766598754
 30
0.0
 11
-42.7361990861161
 21
48.09897766816925
 31
0.0
  0
LINE
  5
1FF
330
1F
100
AcDbEntity
  8
0
100
AcDbLine
 10
-6.372562722479127
 20
46.2989776660001
 30
0.0
 11
-13.6452899952064
 21
46.29897766599757
 31
0.0
  0
LINE
  5
200
330
1F
100
AcDbEntity
  8
0
100
AcDbLine
 10
8.172891822975425
 20
46.29897766600515
 30
0.0
 11
8.172891822974812
 21
48.09897766818686
 31
0.0
  0
LINE
  5
201
330
1F
100
AcDbEntity
  8
0
100
AcDbLine
 10
-6.372562722479127
 20
46.2989776660001
 30
0.0
 11
-6.372562722479741
 21
48.09897766818181
 31
0.0
  0
LINE
  5
202
330
1F
100
AcDbEntity
  8
0
100
AcDbLine
 10
-13.6452899952064
 20
46.29897766599757
 30
0.0
 11
-13.64528999520702
 21
48.09897766817928
 31
0.0
  0
LINE
  5
203
330
1F
100
AcDbEntity
  8
0
100
AcDbLine
 10
-20.91801726793366
 20
46.29897766599512
 30
0.0
 11
-20.91801726793429
 21
48.09897766817683
 31
0.0
  0
LINE
  5
204
330
1F
100
AcDbEntity
  8
0
100
AcDbLine
 10
-35.46347181338883
 20
48.09897766817178
 30
0.0
 11
-28.19074454066157
 21
48.0989776681743
 31
0.0
  0
LINE
  5
205
330
1F
100
AcDbEntity
  8
0
100
AcDbLine
 10
-35.4634718133882
 20
46.29897766599007
 30
0.0
 11
-35.46347181338883
 21
48.09897766817178
 31
0.0
  0
ENDSEC
  0
SECTION
  2
OBJECTS
  0
DICTIONARY
  5
C
330
0
100
AcDbDictionary
  3
ACAD_GROUP
350
D
  3
ACAD_LAYOUT
350
1A
  3
ACAD_MATERIAL
350
43
  3
ACAD_MLEADERSTYLE
350
5B
  3
ACAD_MLINESTYLE
350
17
  3
ACAD_PLOTSETTINGS
350
19
  3
ACAD_SCALELIST
350
47
  3
ACAD_VISUALSTYLE
350
2A
  3
ACDBHEADERROUNDTRIPXREC
350
206
  3
ACDBVARIABLEDICTIONARY
350
227
  3
DWGPROPS
350
22E
  0
DICTIONARY
  5
22F
330
8
100
AcDbDictionary
280
     1
  3
ACAD_XREC_ROUNDTRIP
360
230
  0
DICTIONARY
  5
D
102
{ACAD_REACTORS
330
C
102
}
330
C
100
AcDbDictionary
  0
DICTIONARY
  5
1A
102
{ACAD_REACTORS
330
C
102
}
330
C
100
AcDbDictionary
  0
DICTIONARY
  5
43
102
{ACAD_REACTORS
330
C
102
}
330
C
100
AcDbDictionary
  3
BYBLOCK
350
45
  3
BYLAYER
350
44
  3
GLOBAL
350
46
  0
DICTIONARY
  5
5B
102
{ACAD_REACTORS
330
C
102
}
330
C
100
AcDbDictionary
  3
STANDARD
350
5C
  0
DICTIONARY
  5
17
102
{ACAD_REACTORS
330
C
102
}
330
C
100
AcDbDictionary
  3
STANDARD
350
18
  0
DICTIONARY
  5
19
102
{ACAD_REACTORS
330
C
102
}
330
C
100
AcDbDictionary
  0
DICTIONARY
  5
47
102
{ACAD_REACTORS
330
C
102
}
330
C
100
AcDbDictionary
  3
A0
350
48
  3
A1
350
49
  3
A2
350
4A
  3
A3
350
4B
  3
A4
350
4C
  3
A5
350
4D
  3
A6
350
4E
  3
A7
350
4F
  3
A8
350
50
  3
A9
350
51
  3
B1
350
52
  3
B2
350
53
  3
B3
350
54
  3
B4
350
55
  3
B5
350
56
  3
B6
350
57
  3
B7
350
58
  0
DICTIONARY
  5
2A
102
{ACAD_REACTORS
330
C
102
}
330
C
100
AcDbDictionary
  3
2DWIREFRAME
350
2F
  3
BASIC
350
32
  3
BRIGHTEN
350
36
  3
COLORCHANGE
350
3A
  3
CONCEPTUAL
350
34
  3
DIM
350
35
  3
EDGECOLOROFF
350
3D
  3
FACEPATTERN
350
39
  3
FLAT
350
2B
  3
FLATWITHEDGES
350
2C
  3
GOURAUD
350
2D
  3
GOURAUDWITHEDGES
350
2E
  3
HIDDEN
350
31
  3
JITTEROFF
350
3B
  3
LINEPATTERN
350
38
  3
OVERHANGOFF
350
3C
  3
REALISTIC
350
33
  3
SHADED
350
42
  3
SHADED_WITH_EDGES
350
41
  3
SHADES_OF_GRAY
350
3E
  3
SKETCHY
350
3F
  3
THICKEN
350
37
  3
WIREFRAME
350
30
  3
X-RAY
350
40
  0
DICTIONARY
  5
206
102
{ACAD_REACTORS
330
C
102
}
330
C
100
AcDbDictionary
  3
CEPSNID
350
210
  3
CEPSNTYPE
350
20F
  3
DIMSTYLEDATA
350
226
  3
FINGERPRINTGUID
350
211
  3
HYPERLINKBASE
350
209
  3
INSUNITS
350
20E
  3
LAYOUTDICT
350
20B
  3
LWETCUNION
350
20D
  3
PLOTSETDICT
350
20C
  3
PSVPSCALE
350
213
  3
PUCSBASE
350
216
  3
PUCSORGBACK
350
21C
  3
PUCSORGBOTTOM
350
218
  3
PUCSORGFRONT
350
21B
  3
PUCSORGLEFT
350
219
  3
PUCSORGRIGHT
350
21A
  3
PUCSORGTOP
350
217
  3
PUCSORTHOREF
350
214
  3
PUCSORTHOVIEW
350
215
  3
STYLESHEET
350
20A
  3
TSTACKALIGN
350
207
  3
TSTACKSIZE
350
208
  3
UCSBASE
350
21F
  3
UCSORGBACK
350
225
  3
UCSORGBOTTOM
350
221
  3
UCSORGFRONT
350
224
  3
UCSORGLEFT
350
222
  3
UCSORGRIGHT
350
223
  3
UCSORGTOP
350
220
  3
UCSORTHOREF
350
21D
  3
UCSORTHOVIEW
350
21E
  3
VERSIONGUID
350
212
  0
DICTIONARY
  5
227
102
{ACAD_REACTORS
330
C
102
}
330
C
100
AcDbDictionary
  3
CANNOSCALE
350
231
  3
CMLEADERSTYLE
350
229
  3
CTABLESTYLE
350
228
  3
DIMASSOC
350
22C
  3
HIDETEXT
350
22D
  3
MSLTSCALE
350
232
  0
XRECORD
  5
22E
102
{ACAD_REACTORS
330
C
102
}
330
C
100
AcDbXrecord
  1
DWGPROPS COOKIE
  2

  3

  4

  6

  7

  8
Naim
  9

300
=
301
=
302
=
303
=
304
=
305
=
306
=
307
=
308
=
309
=
 40
0.0
 41
2460382.393543218
 42
2460382.393543333
  1

 90
        0
  0
XRECORD
  5
230
102
{ACAD_REACTORS
330
22F
102
}
330
22F
100
AcDbXrecord
102
VTR_0.000_0.000_1.000_1.000_VISUALSTYLE
340
2F
102
VTR_0.000_0.000_1.000_1.000_GRIDDISPLAY
 70
     3
102
VTR_0.000_0.000_1.000_1.000_GRIDMAJOR
 70
     5
102
VTR_0.000_0.000_1.000_1.000_DEFAULTLIGHTING
280
     1
102
VTR_0.000_0.000_1.000_1.000_DEFAULTLIGHTINGTYPE
 70
     1
102
VTR_0.000_0.000_1.000_1.000_BRIGHTNESS
141
0.0
102
VTR_0.000_0.000_1.000_1.000_CONTRAST
142
0.0
  0
MATERIAL
  5
45
102
{ACAD_REACTORS
330
43
102
}
102
{ACAD_XDICTIONARY
360
235
102
}
330
43
100
AcDbMaterial
  1
BYBLOCK
  0
MATERIAL
  5
44
102
{ACAD_REACTORS
330
43
102
}
102
{ACAD_XDICTIONARY
360
233
102
}
330
43
100
AcDbMaterial
  1
BYLAYER
  0
MATERIAL
  5
46
102
{ACAD_REACTORS
330
43
102
}
102
{ACAD_XDICTIONARY
360
237
102
}
330
43
100
AcDbMaterial
  1
GLOBAL
  0
ACAD_PROXY_OBJECT
  5
5C
102
{ACAD_REACTORS
330
5B
102
}
330
5B
100
AcDbProxyObject
 90
      499
 91
      505
 93
      610
310
40901902A4063FBFFFFFE056BD1B81E855B9FC0AD7A3703D0AD73F4214DD185B99185C9900AD7A3703D0AC73F90141901A02B5E8DC0F42B1CFC02B5E8DC0F42B1CFE5764000000000000300FC0
340
14
340
0
340
11
340
0
 94
        0
1001
ACAD_MLEADERVER
1070
     2
  0
MLINESTYLE
  5
18
102
{ACAD_REACTORS
330
17
102
}
330
17
100
AcDbMlineStyle
  2
Standard
 70
     0
  3

 62
   256
 51
90.0
 52
90.0
 71
     2
 49
0.5
 62
   256
  6
BYLAYER
 49
-0.5
 62
   256
  6
BYLAYER
  0
ACAD_PROXY_OBJECT
  5
48
102
{ACAD_REACTORS
330
47
102
}
330
47
100
AcDbProxyObject
 90
      499
 91
      503
 93
       41
310
903313A31580
  0
ACAD_PROXY_OBJECT
  5
49
102
{ACAD_REACTORS
330
47
102
}
330
47
100
AcDbProxyObject
 90
      499
 91
      503
 93
      257
310
90E312F31323822203D2031272D3022000000000000200FC000000000000284000
  0
ACAD_PROXY_OBJECT
  5
4A
102
{ACAD_REACTORS
330
47
102
}
330
47
100
AcDbProxyObject
 90
      499
 91
      503
 93
      249
310
90D312F363422203D2031272D3022000000000000240FC000000000000284000
  0
ACAD_PROXY_OBJECT
  5
4B
102
{ACAD_REACTORS
330
47
102
}
330
47
100
AcDbProxyObject
 90
      499
 91
      503
 93
      249
310
90D312F333222203D2031272D3022000000000000280FC000000000000284000
  0
ACAD_PROXY_OBJECT
  5
4C
102
{ACAD_REACTORS
330
47
102
}
330
47
100
AcDbProxyObject
 90
      499
 91
      503
 93
      249
310
90D312F313622203D2031272D30220000000000002C0FC000000000000284000
  0
ACAD_PROXY_OBJECT
  5
4D
102
{ACAD_REACTORS
330
47
102
}
330
47
100
AcDbProxyObject
 90
      499
 91
      503
 93
      249
310
90D332F333222203D2031272D30220000000000002E0FC000000000000284000
  0
ACAD_PROXY_OBJECT
  5
4E
102
{ACAD_REACTORS
330
47
102
}
330
47
100
AcDbProxyObject
 90
      499
 91
      503
 93
      241
310
90C312F3822203D2031272D3022000000000000300FC000000000000284000
  0
ACAD_PROXY_OBJECT
  5
4F
102
{ACAD_REACTORS
330
47
102
}
330
47
100
AcDbProxyObject
 90
      499
 91
      503
 93
      249
310
90D332F313622203D2031272D3022000000000000320FC000000000000284000
  0
ACAD_PROXY_OBJECT
  5
50
102
{ACAD_REACTORS
330
47
102
}
330
47
100
AcDbProxyObject
 90
      499
 91
      503
 93
      241
310
90C312F3422203D2031272D3022000000000000340FC000000000000284000
  0
ACAD_PROXY_OBJECT
  5
51
102
{ACAD_REACTORS
330
47
102
}
330
47
100
AcDbProxyObject
 90
      499
 91
      503
 93
      241
310
90C332F3822203D2031272D3022000000000000360FC000000000000284000
  0
ACAD_PROXY_OBJECT
  5
52
102
{ACAD_REACTORS
330
47
102
}
330
47
100
AcDbProxyObject
 90
      499
 91
      503
 93
      241
310
90C312F3222203D2031272D3022000000000000380FC000000000000284000
  0
ACAD_PROXY_OBJECT
  5
53
102
{ACAD_REACTORS
330
47
102
}
330
47
100
AcDbProxyObject
 90
      499
 91
      503
 93
      241
310
90C332F3422203D2031272D30220000000000003A0FC000000000000284000
  0
ACAD_PROXY_OBJECT
  5
54
102
{ACAD_REACTORS
330
47
102
}
330
47
100
AcDbProxyObject
 90
      499
 91
      503
 93
      161
310
90A3122203D2031272D30224000000000000284000
  0
ACAD_PROXY_OBJECT
  5
55
102
{ACAD_REACTORS
330
47
102
}
330
47
100
AcDbProxyObject
 90
      499
 91
      503
 93
      257
310
90E312D312F3222203D2031272D30220000000000003E0FC000000000000284000
  0
ACAD_PROXY_OBJECT
  5
56
102
{ACAD_REACTORS
330
47
102
}
330
47
100
AcDbProxyObject
 90
      499
 91
      503
 93
      225
310
90A3322203D2031272D302200000000000002100000000000000284000
  0
ACAD_PROXY_OBJECT
  5
57
102
{ACAD_REACTORS
330
47
102
}
330
47
100
AcDbProxyObject
 90
      499
 91
      503
 93
      225
310
90A3622203D2031272D302200000000000006100000000000000284000
  0
ACAD_PROXY_OBJECT
  5
58
102
{ACAD_REACTORS
330
47
102
}
330
47
100
AcDbProxyObject
 90
      499
 91
      503
 93
      249
310
90D31272D3022203D2031272D30220000000000000A100000000000000284000
  0
ACAD_PROXY_OBJECT
  5
2F
102
{ACAD_REACTORS
330
2A
102
}
330
2A
100
AcDbProxyObject
 90
      499
 91
      501
 93
      436
310
42CC9915DA5C99599C985B595049028333333333333E33F0000000000000F90107901411070040501600405405064090741402480A0340
1001
ACAD
1000
AcDbSavedByObjectVersion
1070
     0
  0
ACAD_PROXY_OBJECT
  5
32
102
{ACAD_REACTORS
330
2A
102
}
330
2A
100
AcDbProxyObject
 90
      499
 91
      501
 93
      388
310
4150985CDA58D07406404333333333333E33F0000000000000F90107A41107004050150841D405064090741402480A0350
1001
ACAD
1000
AcDbSavedByObjectVersion
1070
     0
  0
ACAD_PROXY_OBJECT
  5
36
102
{ACAD_REACTORS
330
2A
102
}
330
2A
100
AcDbProxyObject
 90
      499
 91
      501
 93
      428
310
42109C9A59DA1D195B90C409028333333333333E33F0000000000000F9010790141107004050150841D405064090741402480A029950
1001
ACAD
1000
AcDbSavedByObjectVersion
1070
     0
  0
ACAD_PROXY_OBJECT
  5
3A
102
{ACAD_REACTORS
330
2A
102
}
330
2A
100
AcDbProxyObject
 90
      499
 91
      501
 93
      452
310
42D0DBDB1BDC90DA185B99D95104090240C333333333333E33F0000000000000F90108901411070040501508421405064090741402480A0350
1001
ACAD
1000
AcDbSavedByObjectVersion
1070
     0
  0
ACAD_PROXY_OBJECT
  5
34
102
{ACAD_REACTORS
330
2A
102
}
330
2A
100
AcDbProxyObject
 90
      499
 91
      501
 93
      500
310
4290DBDB98D95C1D1D585B10940D028333333333333E33F0000000000000F90107902409070040501000000000018199010841D405064090740C02480A0340
1001
ACAD
1000
AcDbSavedByObjectVersion
1070
     0
  0
ACAD_PROXY_OBJECT
  5
35
102
{ACAD_REACTORS
330
2A
102
}
330
2A
100
AcDbProxyObject
 90
      499
 91
      501
 93
      412
310
40D11A5B50B409028333333333333E33F0000000000000F9010790141107004050150841D405064090741402480A02677FFFFFD0
1001
ACAD
1000
AcDbSavedByObjectVersion
1070
     0
  0
ACAD_PROXY_OBJECT
  5
3D
102
{ACAD_REACTORS
330
2A
102
}
330
2A
100
AcDbProxyObject
 90
      499
 91
      501
 93
      452
310
43115919D950DBDB1BDC93D999916409028333333333333E33F0000000000000F9010790141107004050150841D405064090741402480A0350
1001
ACAD
1000
AcDbSavedByObjectVersion
1070
     0
  0
ACAD_PROXY_OBJECT
  5
39
102
{ACAD_REACTORS
330
2A
102
}
330
2A
100
AcDbProxyObject
 90
      499
 91
      501
 93
      444
310
42D19858D95C185D1D195C9B90F409028333333333333E33F0000000000000F9010790141107004050150841D405064090741402480A0350
1001
ACAD
1000
AcDbSavedByObjectVersion
1070
     0
  0
ACAD_PROXY_OBJECT
  5
2B
102
{ACAD_REACTORS
330
2A
102
}
330
2A
100
AcDbProxyObject
 90
      499
 91
      501
 93
      380
310
41119B185D240901404333333333333E33F0000000000000F9010740A907004050150841D405064090741402480A1B50
1001
ACAD
1000
AcDbSavedByObjectVersion
1070
     0
  0
ACAD_PROXY_OBJECT
  5
2C
102
{ACAD_REACTORS
330
2A
102
}
330
2A
100
AcDbProxyObject
 90
      499
 91
      501
 93
      468
310
43519B185D15DA5D1A115919D95CD0140901404333333333333E33F0000000000000F90107409019070040501600405405064090741402480A1B50
1001
ACAD
1000
AcDbSavedByObjectVersion
1070
     0
  0
ACAD_PROXY_OBJECT
  5
2D
102
{ACAD_REACTORS
330
2A
102
}
330
2A
100
AcDbProxyObject
 90
      499
 91
      501
 93
      404
310
41D1DBDD5C985D5910240902404333333333333E33F0000000000000F9010740A9070040501641D405064090741402480A1B50
1001
ACAD
1000
AcDbSavedByObjectVersion
1070
     0
  0
ACAD_PROXY_OBJECT
  5
2E
102
{ACAD_REACTORS
330
2A
102
}
330
2A
100
AcDbProxyObject
 90
      499
 91
      501
 93
      492
310
4411DBDD5C985D5915DA5D1A115919D95CD0340902404333333333333E33F0000000000000F90107409019070040501600405405064090741402480A1B50
1001
ACAD
1000
AcDbSavedByObjectVersion
1070
     0
  0
ACAD_PROXY_OBJECT
  5
31
102
{ACAD_REACTORS
330
2A
102
}
330
2A
100
AcDbProxyObject
 90
      499
 91
      501
 93
      476
310
41921A5919195B90640502408333333333333E33F0000000000000F901079024090700405020000000000001110200405405064090740C02480A0340
1001
ACAD
1000
AcDbSavedByObjectVersion
1070
     0
  0
ACAD_PROXY_OBJECT
  5
3B
102
{ACAD_REACTORS
330
2A
102
}
330
2A
100
AcDbProxyObject
 90
      499
 91
      501
 93
      428
310
42529A5D1D195C93D999914409028333333333333E33F0000000000000F9010790141107004050150A41D405064090741402480A0350
1001
ACAD
1000
AcDbSavedByObjectVersion
1070
     0
  0
ACAD_PROXY_OBJECT
  5
38
102
{ACAD_REACTORS
330
2A
102
}
330
2A
100
AcDbProxyObject
 90
      499
 91
      501
 93
      444
310
42D31A5B995C185D1D195C9B90E409028333333333333E33F0000000000000F9010790141107004050750841D405064090741402483A0350
1001
ACAD
1000
AcDbSavedByObjectVersion
1070
     0
  0
ACAD_PROXY_OBJECT
  5
3C
102
{ACAD_REACTORS
330
2A
102
}
330
2A
100
AcDbProxyObject
 90
      499
 91
      501
 93
      444
310
42D3DD995C9A185B99D3D999915409028333333333333E33F0000000000000F9010790141107004050150941D405064090741402480A0350
1001
ACAD
1000
AcDbSavedByObjectVersion
1070
     0
  0
ACAD_PROXY_OBJECT
  5
33
102
{ACAD_REACTORS
330
2A
102
}
330
2A
100
AcDbProxyObject
 90
      499
 91
      501
 93
      428
310
425499585B1A5CDD1A58D08409038333333333333E33F0000000000000F9010740A907004050150800405405064090740C02480A1B40
1001
ACAD
1000
AcDbSavedByObjectVersion
1070
     0
  0
ACAD_PROXY_OBJECT
  5
42
102
{ACAD_REACTORS
330
2A
102
}
330
2A
100
AcDbProxyObject
 90
      499
 91
      501
 93
      420
310
4194DA1859195911B40902404333333333333E33F0000000000000F9010740A41107004050150800405405064090840C02480A0B40
1001
ACAD
1000
AcDbSavedByObjectVersion
1070
     0
  0
ACAD_PROXY_OBJECT
  5
41
102
{ACAD_REACTORS
330
2A
102
}
330
2A
100
AcDbProxyObject
 90
      499
 91
      501
 93
      516
310
4454DA18591959081DDA5D1A08195919D95CD1A40902404333333333333E33F0000000000000F901074090142907004050250800405405064090740C02480A0B40
1001
ACAD
1000
AcDbSavedByObjectVersion
1070
     0
  0
ACAD_PROXY_OBJECT
  5
3E
102
{ACAD_REACTORS
330
2A
102
}
330
2A
100
AcDbProxyObject
 90
      499
 91
      501
 93
      532
310
4394DA1859195CC81BD98811DC985E5174090240C333333333333E33F0000000000000F901079024090741D01000000000000111010841D405064090740C02480A0340
1001
ACAD
1000
AcDbSavedByObjectVersion
1070
     0
  0
ACAD_PROXY_OBJECT
  5
3F
102
{ACAD_REACTORS
330
2A
102
}
330
2A
100
AcDbProxyObject
 90
      499
 91
      501
 93
      476
310
41D4DAD95D18DA1E51840502408333333333333E33F0000000000000F901079024090741D01000000000000111010B41D405064090741802480A0340
1001
ACAD
1000
AcDbSavedByObjectVersion
1070
     0
  0
ACAD_PROXY_OBJECT
  5
37
102
{ACAD_REACTORS
330
2A
102
}
330
2A
100
AcDbProxyObject
 90
      499
 91
      501
 93
      412
310
41D51A1A58DAD95B90D409028333333333333E33F0000000000000F9010790141107004050150C41D405064090741402480A0350
1001
ACAD
1000
AcDbSavedByObjectVersion
1070
     0
  0
ACAD_PROXY_OBJECT
  5
30
102
{ACAD_REACTORS
330
2A
102
}
330
2A
100
AcDbProxyObject
 90
      499
 91
      501
 93
      420
310
4255DA5C99599C985B595059028333333333333E33F0000000000000F90107901411070040501600405405064090740C02480A0340
1001
ACAD
1000
AcDbSavedByObjectVersion
1070
     0
  0
ACAD_PROXY_OBJECT
  5
40
102
{ACAD_REACTORS
330
2A
102
}
330
2A
100
AcDbProxyObject
 90
      499
 91
      501
 93
      404
310
41560B54985E51940902404000000000000E03F0000000000000F9010740501907004050150841D405064090740C02480A1B40
1001
ACAD
1000
AcDbSavedByObjectVersion
1070
     0
  0
XRECORD
  5
210
102
{ACAD_REACTORS
330
206
102
}
330
206
100
AcDbXrecord
340
0
  0
XRECORD
  5
20F
102
{ACAD_REACTORS
330
206
102
}
330
206
100
AcDbXrecord
 90
        0
  0
XRECORD
  5
226
102
{ACAD_REACTORS
330
206
102
}
330
206
100
AcDbXrecord
1000
DSTYLE
1002
{
1070
   171
 70
     2
1070
   143
 40
25.4
1070
   274
 70
     2
1070
    41
 40
0.18
1070
   141
 40
0.09
1070
   271
 70
     4
1070
    43
 40
0.38
1070
   278
 70
    46
1070
    44
 40
0.18
1070
    42
 40
0.0625
1070
   147
 40
0.09
1070
    77
 70
     0
1070
   272
 70
     4
1070
    73
 70
     1
1070
   172
 70
     0
1070
    74
 70
     1
1070
   283
 70
     1
1070
   340
340
11
1070
   140
 40
0.18
1070
   284
 70
     0
1070
    78
 70
     0
1002
}
  0
XRECORD
  5
211
102
{ACAD_REACTORS
330
206
102
}
330
206
100
AcDbXrecord
  1
{cb24b785-52a5-4638-b722-f18e5a8a117c}
  0
XRECORD
  5
209
102
{ACAD_REACTORS
330
206
102
}
330
206
100
AcDbXrecord
  1

  0
XRECORD
  5
20E
102
{ACAD_REACTORS
330
206
102
}
330
206
100
AcDbXrecord
 90
        5
  0
XRECORD
  5
20B
102
{ACAD_REACTORS
330
206
102
}
330
206
100
AcDbXrecord
340
1A
  0
XRECORD
  5
20D
102
{ACAD_REACTORS
330
206
102
}
330
206
100
AcDbXrecord
 90
    10781
  0
XRECORD
  5
20C
102
{ACAD_REACTORS
330
206
102
}
330
206
100
AcDbXrecord
340
19
  0
XRECORD
  5
213
102
{ACAD_REACTORS
330
206
102
}
330
206
100
AcDbXrecord
 40
0.0
  0
XRECORD
  5
216
102
{ACAD_REACTORS
330
206
102
}
330
206
100
AcDbXrecord
340
0
  0
XRECORD
  5
21C
102
{ACAD_REACTORS
330
206
102
}
330
206
100
AcDbXrecord
 10
0.0
 20
0.0
 30
0.0
  0
XRECORD
  5
218
102
{ACAD_REACTORS
330
206
102
}
330
206
100
AcDbXrecord
 10
0.0
 20
0.0
 30
0.0
  0
XRECORD
  5
21B
102
{ACAD_REACTORS
330
206
102
}
330
206
100
AcDbXrecord
 10
0.0
 20
0.0
 30
0.0
  0
XRECORD
  5
219
102
{ACAD_REACTORS
330
206
102
}
330
206
100
AcDbXrecord
 10
0.0
 20
0.0
 30
0.0
  0
XRECORD
  5
21A
102
{ACAD_REACTORS
330
206
102
}
330
206
100
AcDbXrecord
 10
0.0
 20
0.0
 30
0.0
  0
XRECORD
  5
217
102
{ACAD_REACTORS
330
206
102
}
330
206
100
AcDbXrecord
 10
0.0
 20
0.0
 30
0.0
  0
XRECORD
  5
214
102
{ACAD_REACTORS
330
206
102
}
330
206
100
AcDbXrecord
340
0
  0
XRECORD
  5
215
102
{ACAD_REACTORS
330
206
102
}
330
206
100
AcDbXrecord
 70
     0
  0
XRECORD
  5
20A
102
{ACAD_REACTORS
330
206
102
}
330
206
100
AcDbXrecord
  1

  0
XRECORD
  5
207
102
{ACAD_REACTORS
330
206
102
}
330
206
100
AcDbXrecord
 90
        1
  0
XRECORD
  5
208
102
{ACAD_REACTORS
330
206
102
}
330
206
100
AcDbXrecord
 90
       70
  0
XRECORD
  5
21F
102
{ACAD_REACTORS
330
206
102
}
330
206
100
AcDbXrecord
340
0
  0
XRECORD
  5
225
102
{ACAD_REACTORS
330
206
102
}
330
206
100
AcDbXrecord
 10
0.0
 20
0.0
 30
0.0
  0
XRECORD
  5
221
102
{ACAD_REACTORS
330
206
102
}
330
206
100
AcDbXrecord
 10
0.0
 20
0.0
 30
0.0
  0
XRECORD
  5
224
102
{ACAD_REACTORS
330
206
102
}
330
206
100
AcDbXrecord
 10
0.0
 20
0.0
 30
0.0
  0
XRECORD
  5
222
102
{ACAD_REACTORS
330
206
102
}
330
206
100
AcDbXrecord
 10
0.0
 20
0.0
 30
0.0
  0
XRECORD
  5
223
102
{ACAD_REACTORS
330
206
102
}
330
206
100
AcDbXrecord
 10
0.0
 20
0.0
 30
0.0
  0
XRECORD
  5
220
102
{ACAD_REACTORS
330
206
102
}
330
206
100
AcDbXrecord
 10
0.0
 20
0.0
 30
0.0
  0
XRECORD
  5
21D
102
{ACAD_REACTORS
330
206
102
}
330
206
100
AcDbXrecord
340
0
  0
XRECORD
  5
21E
102
{ACAD_REACTORS
330
206
102
}
330
206
100
AcDbXrecord
 70
     0
  0
XRECORD
  5
212
102
{ACAD_REACTORS
330
206
102
}
330
206
100
AcDbXrecord
  1
{FAEB1C32-E019-11D5-929B-00C0DF256EC4}
  0
DICTIONARYVAR
  5
231
102
{ACAD_REACTORS
330
227
102
}
330
227
100
DictionaryVariables
280
     0
  1
1:1
  0
DICTIONARYVAR
  5
229
102
{ACAD_REACTORS
330
227
102
}
330
227
100
DictionaryVariables
280
     0
  1
Standard
  0
DICTIONARYVAR
  5
228
102
{ACAD_REACTORS
330
227
102
}
330
227
100
DictionaryVariables
280
     0
  1
Standard
  0
DICTIONARYVAR
  5
22C
102
{ACAD_REACTORS
330
227
102
}
330
227
100
DictionaryVariables
280
     0
  1
2
  0
DICTIONARYVAR
  5
22D
102
{ACAD_REACTORS
330
227
102
}
330
227
100
DictionaryVariables
280
     0
  1
1
  0
DICTIONARYVAR
  5
232
102
{ACAD_REACTORS
330
227
102
}
330
227
100
DictionaryVariables
280
     0
  1
1
  0
DICTIONARY
  5
235
330
45
100
AcDbDictionary
280
     1
  3
ACAD_XREC_ROUNDTRIP
360
236
  0
DICTIONARY
  5
233
330
44
100
AcDbDictionary
280
     1
  3
ACAD_XREC_ROUNDTRIP
360
234
  0
DICTIONARY
  5
237
330
46
100
AcDbDictionary
280
     1
  3
ACAD_XREC_ROUNDTRIP
360
238
  0
XRECORD
  5
236
102
{ACAD_REACTORS
330
235
102
}
330
235
100
AcDbXrecord
102
MATERIAL
148
0.0
149
0.0
149
0.0
 93
        0
 94
      127
282
     0
 72
     1
 77
     1
171
     1
175
     1
179
     1
273
     0
  0
XRECORD
  5
234
102
{ACAD_REACTORS
330
233
102
}
330
233
100
AcDbXrecord
102
MATERIAL
148
0.0
149
0.0
149
0.0
 93
        0
 94
      127
282
     0
 72
     1
 77
     1
171
     1
175
     1
179
     1
273
     0
  0
XRECORD
  5
238
102
{ACAD_REACTORS
330
237
102
}
330
237
100
AcDbXrecord
102
MATERIAL
148
0.0
149
0.0
149
0.0
 93
        0
 94
      127
282
     0
 72
     1
 77
     1
171
     1
175
     1
179
     1
273
     0
  0
ENDSEC
  0
EOF
