  0
SECTION
  2
HEADER
  9
$ACADVER
  1
AC1021
  9
$ACADMAINTVER
 70
    25
  9
$DWGCODEPAGE
  3
ANSI_1252
  9
$LASTSAVEDBY
  1
Naim
  9
$INSBASE
 10
0.0
 20
0.0
 30
0.0
  9
$EXTMIN
 10
-1625.687257651252
 20
-918.0054792759072
 30
0.0
  9
$EXTMAX
 10
2027.927441997731
 20
261.9945207240927
 30
0.0
  9
$LIMMIN
 10
0.0
 20
0.0
  9
$LIMMAX
 10
12.0
 20
9.0
  9
$ORTHOMODE
 70
     0
  9
$REGENMODE
 70
     1
  9
$FILLMODE
 70
     1
  9
$QTEXTMODE
 70
     0
  9
$MIRRTEXT
 70
     1
  9
$LTSCALE
 40
1.0
  9
$ATTMODE
 70
     1
  9
$TEXTSIZE
 40
0.2
  9
$TRACEWID
 40
0.05
  9
$TEXTSTYLE
  7
Standard
  9
$CLAYER
  8
0
  9
$CELTYPE
  6
ByLayer
  9
$CECOLOR
 62
   256
  9
$CELTSCALE
 40
1.0
  9
$DISPSILH
 70
     0
  9
$DIMSCALE
 40
1.0
  9
$DIMASZ
 40
0.18
  9
$DIMEXO
 40
0.0625
  9
$DIMDLI
 40
0.38
  9
$DIMRND
 40
0.0
  9
$DIMDLE
 40
0.0
  9
$DIMEXE
 40
0.18
  9
$DIMTP
 40
0.0
  9
$DIMTM
 40
0.0
  9
$DIMTXT
 40
0.18
  9
$DIMCEN
 40
0.09
  9
$DIMTSZ
 40
0.0
  9
$DIMTOL
 70
     0
  9
$DIMLIM
 70
     0
  9
$DIMTIH
 70
     1
  9
$DIMTOH
 70
     1
  9
$DIMSE1
 70
     0
  9
$DIMSE2
 70
     0
  9
$DIMTAD
 70
     0
  9
$DIMZIN
 70
     0
  9
$DIMBLK
  1

  9
$DIMASO
 70
     1
  9
$DIMSHO
 70
     1
  9
$DIMPOST
  1

  9
$DIMAPOST
  1

  9
$DIMALT
 70
     0
  9
$DIMALTD
 70
     2
  9
$DIMALTF
 40
25.4
  9
$DIMLFAC
 40
1.0
  9
$DIMTOFL
 70
     0
  9
$DIMTVP
 40
0.0
  9
$DIMTIX
 70
     0
  9
$DIMSOXD
 70
     0
  9
$DIMSAH
 70
     0
  9
$DIMBLK1
  1

  9
$DIMBLK2
  1

  9
$DIMSTYLE
  2
STANDARD_ACAD
  9
$DIMCLRD
 70
     0
  9
$DIMCLRE
 70
     0
  9
$DIMCLRT
 70
     0
  9
$DIMTFAC
 40
1.0
  9
$DIMGAP
 40
0.09
  9
$DIMJUST
 70
     0
  9
$DIMSD1
 70
     0
  9
$DIMSD2
 70
     0
  9
$DIMTOLJ
 70
     1
  9
$DIMTZIN
 70
     0
  9
$DIMALTZ
 70
     0
  9
$DIMALTTZ
 70
     0
  9
$DIMUPT
 70
     0
  9
$DIMDEC
 70
     4
  9
$DIMTDEC
 70
     4
  9
$DIMALTU
 70
     2
  9
$DIMALTTD
 70
     2
  9
$DIMTXSTY
  7
Standard
  9
$DIMAUNIT
 70
     0
  9
$DIMADEC
 70
     0
  9
$DIMALTRND
 40
0.0
  9
$DIMAZIN
 70
     0
  9
$DIMDSEP
 70
    46
  9
$DIMATFIT
 70
     3
  9
$DIMFRAC
 70
     0
  9
$DIMLDRBLK
  1

  9
$DIMLUNIT
 70
     2
  9
$DIMLWD
 70
    -2
  9
$DIMLWE
 70
    -2
  9
$DIMTMOVE
 70
     2
  9
$DIMFXL
 40
1.0
  9
$DIMFXLON
 70
     0
  9
$DIMJOGANG
 40
0.7853981633974483
  9
$DIMTFILL
 70
     0
  9
$DIMTFILLCLR
 70
     0
  9
$DIMARCSYM
 70
     0
  9
$DIMLTYPE
  6

  9
$DIMLTEX1
  6

  9
$DIMLTEX2
  6

  9
$LUNITS
 70
     2
  9
$LUPREC
 70
     3
  9
$SKETCHINC
 40
0.1
  9
$FILLETRAD
 40
0.0
  9
$AUNITS
 70
     0
  9
$AUPREC
 70
     0
  9
$MENU
  1
.
  9
$ELEVATION
 40
0.0
  9
$PELEVATION
 40
0.0
  9
$THICKNESS
 40
0.0
  9
$LIMCHECK
 70
     0
  9
$CHAMFERA
 40
0.0
  9
$CHAMFERB
 40
0.0
  9
$CHAMFERC
 40
0.0
  9
$CHAMFERD
 40
0.0
  9
$SKPOLY
 70
     0
  9
$TDCREATE
 40
2460460.689382095
  9
$TDUCREATE
 40
2460460.564382095
  9
$TDUPDATE
 40
2460460.689488403
  9
$TDUUPDATE
 40
2460460.564488403
  9
$TDINDWG
 40
0.0000000116
  9
$TDUSRTIMER
 40
0.0000000116
  9
$USRTIMER
 70
     1
  9
$ANGBASE
 50
0.0
  9
$ANGDIR
 70
     0
  9
$PDMODE
 70
     0
  9
$PDSIZE
 40
0.0
  9
$PLINEWID
 40
0.0
  9
$SPLFRAME
 70
     0
  9
$SPLINETYPE
 70
     6
  9
$SPLINESEGS
 70
     8
  9
$HANDSEED
  5
6C2
  9
$SURFTAB1
 70
     6
  9
$SURFTAB2
 70
     6
  9
$SURFTYPE
 70
     6
  9
$SURFU
 70
     6
  9
$SURFV
 70
     6
  9
$UCSBASE
  2

  9
$UCSNAME
  2

  9
$UCSORG
 10
0.0
 20
0.0
 30
0.0
  9
$UCSXDIR
 10
1.0
 20
0.0
 30
0.0
  9
$UCSYDIR
 10
0.0
 20
1.0
 30
0.0
  9
$UCSORTHOREF
  2

  9
$UCSORTHOVIEW
 70
     0
  9
$UCSORGTOP
 10
0.0
 20
0.0
 30
0.0
  9
$UCSORGBOTTOM
 10
0.0
 20
0.0
 30
0.0
  9
$UCSORGLEFT
 10
0.0
 20
0.0
 30
0.0
  9
$UCSORGRIGHT
 10
0.0
 20
0.0
 30
0.0
  9
$UCSORGFRONT
 10
0.0
 20
0.0
 30
0.0
  9
$UCSORGBACK
 10
0.0
 20
0.0
 30
0.0
  9
$PUCSBASE
  2

  9
$PUCSNAME
  2

  9
$PUCSORG
 10
0.0
 20
0.0
 30
0.0
  9
$PUCSXDIR
 10
1.0
 20
0.0
 30
0.0
  9
$PUCSYDIR
 10
0.0
 20
1.0
 30
0.0
  9
$PUCSORTHOREF
  2

  9
$PUCSORTHOVIEW
 70
     0
  9
$PUCSORGTOP
 10
0.0
 20
0.0
 30
0.0
  9
$PUCSORGBOTTOM
 10
0.0
 20
0.0
 30
0.0
  9
$PUCSORGLEFT
 10
0.0
 20
0.0
 30
0.0
  9
$PUCSORGRIGHT
 10
0.0
 20
0.0
 30
0.0
  9
$PUCSORGFRONT
 10
0.0
 20
0.0
 30
0.0
  9
$PUCSORGBACK
 10
0.0
 20
0.0
 30
0.0
  9
$USERI1
 70
     0
  9
$USERI2
 70
     0
  9
$USERI3
 70
     0
  9
$USERI4
 70
     0
  9
$USERI5
 70
     0
  9
$USERR1
 40
0.0
  9
$USERR2
 40
0.0
  9
$USERR3
 40
0.0
  9
$USERR4
 40
0.0
  9
$USERR5
 40
0.0
  9
$WORLDVIEW
 70
     1
  9
$SHADEDGE
 70
     3
  9
$SHADEDIF
 70
    70
  9
$TILEMODE
 70
     1
  9
$MAXACTVP
 70
    64
  9
$PINSBASE
 10
0.0
 20
0.0
 30
0.0
  9
$PLIMCHECK
 70
     0
  9
$PEXTMIN
 10
1.000000000000000E+20
 20
1.000000000000000E+20
 30
1.000000000000000E+20
  9
$PEXTMAX
 10
-1.000000000000000E+20
 20
-1.000000000000000E+20
 30
-1.000000000000000E+20
  9
$PLIMMIN
 10
0.0
 20
0.0
  9
$PLIMMAX
 10
12.0
 20
9.0
  9
$UNITMODE
 70
     0
  9
$VISRETAIN
 70
     1
  9
$PLINEGEN
 70
     0
  9
$PSLTSCALE
 70
     1
  9
$TREEDEPTH
 70
  3020
  9
$CMLSTYLE
  2
Standard
  9
$CMLJUST
 70
     0
  9
$CMLSCALE
 40
1.0
  9
$PROXYGRAPHICS
 70
     1
  9
$MEASUREMENT
 70
     1
  9
$CELWEIGHT
370
    -1
  9
$ENDCAPS
280
     0
  9
$JOINSTYLE
280
     0
  9
$LWDISPLAY
290
     0
  9
$INSUNITS
 70
     4
  9
$HYPERLINKBASE
  1

  9
$STYLESHEET
  1

  9
$XEDIT
290
     1
  9
$CEPSNTYPE
380
     0
  9
$PSTYLEMODE
290
     1
  9
$FINGERPRINTGUID
  2
{f333e7fd-600b-47ba-a282-85e9eb89703a}
  9
$VERSIONGUID
  2
{FAEB1C32-E019-11D5-929B-00C0DF256EC4}
  9
$EXTNAMES
290
     1
  9
$PSVPSCALE
 40
0.0
  9
$OLESTARTUP
290
     0
  9
$SORTENTS
280
   127
  9
$INDEXCTL
280
     0
  9
$HIDETEXT
280
     1
  9
$XCLIPFRAME
290
     0
  9
$HALOGAP
280
     0
  9
$OBSCOLOR
 70
   257
  9
$OBSLTYPE
280
     0
  9
$INTERSECTIONDISPLAY
280
     0
  9
$INTERSECTIONCOLOR
 70
   257
  9
$DIMASSOC
280
     2
  9
$PROJECTNAME
  1

  9
$CAMERADISPLAY
290
     0
  9
$LENSLENGTH
 40
50.0
  9
$CAMERAHEIGHT
 40
0.0
  9
$STEPSPERSEC
 40
2.0
  9
$STEPSIZE
 40
6.0
  9
$3DDWFPREC
 40
2.0
  9
$PSOLWIDTH
 40
0.25
  9
$PSOLHEIGHT
 40
4.0
  9
$LOFTANG1
 40
1.570796326794897
  9
$LOFTANG2
 40
1.570796326794897
  9
$LOFTMAG1
 40
0.0
  9
$LOFTMAG2
 40
0.0
  9
$LOFTPARAM
 70
     7
  9
$LOFTNORMALS
280
     1
  9
$LATITUDE
 40
37.795
  9
$LONGITUDE
 40
-122.394
  9
$NORTHDIRECTION
 40
0.0
  9
$TIMEZONE
 70
 -8000
  9
$LIGHTGLYPHDISPLAY
280
     1
  9
$TILEMODELIGHTSYNCH
280
     1
  9
$CMATERIAL
347
44
  9
$SOLIDHIST
280
     0
  9
$SHOWHIST
280
     1
  9
$DWFFRAME
280
     2
  9
$DGNFRAME
280
     2
  9
$REALWORLDSCALE
290
     1
  9
$INTERFERECOLOR
 62
   256
  9
$CSHADOW
280
     0
  9
$SHADOWPLANELOCATION
 40
0.0
  0
ENDSEC
  0
SECTION
  2
CLASSES
  0
CLASS
  1
ACDBDICTIONARYWDFLT
  2
AcDbDictionaryWithDefault
  3
ObjectDBX Classes
 90
        0
 91
        3
280
     0
281
     0
  0
CLASS
  1
VISUALSTYLE
  2
AcDbVisualStyle
  3
ObjectDBX Classes
 90
     4095
 91
        3
280
     0
281
     0
  0
CLASS
  1
MATERIAL
  2
AcDbMaterial
  3
ObjectDBX Classes
 90
     1153
 91
        3
280
     0
281
     0
  0
CLASS
  1
SCALE
  2
AcDbScale
  3
ObjectDBX Classes
 90
     1153
 91
        3
280
     0
281
     0
  0
CLASS
  1
TABLESTYLE
  2
AcDbTableStyle
  3
ObjectDBX Classes
 90
     4095
 91
        3
280
     0
281
     0
  0
CLASS
  1
MLEADERSTYLE
  2
AcDbMLeaderStyle
  3
ACDB_MLEADERSTYLE_CLASS
 90
     4095
 91
        3
280
     0
281
     0
  0
CLASS
  1
SUN
  2
AcDbSun
  3
SCENEOE
 90
     1153
 91
        3
280
     0
281
     0
  0
CLASS
  1
DICTIONARYVAR
  2
AcDbDictionaryVar
  3
ObjectDBX Classes
 90
        0
 91
        3
280
     0
281
     0
  0
CLASS
  1
CELLSTYLEMAP
  2
AcDbCellStyleMap
  3
ObjectDBX Classes
 90
     1152
 91
        3
280
     0
281
     0
  0
ENDSEC
  0
SECTION
  2
TABLES
  0
TABLE
  2
VPORT
  5
8
330
0
100
AcDbSymbolTable
 70
     1
  0
VPORT
  5
29
330
8
100
AcDbSymbolTableRecord
100
AcDbViewportTableRecord
  2
*Active
 70
     0
 10
0.0
 20
0.0
 11
1.0
 21
1.0
 12
10.42990654205607
 22
4.5
 13
0.0
 23
0.0
 14
0.5
 24
0.5
 15
0.5
 25
0.5
 16
0.0
 26
0.0
 36
1.0
 17
0.0
 27
0.0
 37
0.0
 40
9.0
 41
1.972972972850329
 42
50.0
 43
0.0
 44
0.0
 50
0.0
 51
0.0
 71
     0
 72
   100
 73
     1
 74
     3
 75
     0
 76
     0
 77
     0
 78
     0
281
     0
 65
     1
110
0.0
120
0.0
130
0.0
111
1.0
121
0.0
131
0.0
112
0.0
122
1.0
132
0.0
 79
     0
146
0.0
348
2F
 60
     3
 61
     5
292
     1
282
     1
141
0.0
142
0.0
 63
   250
361
5D
  0
ENDTAB
  0
TABLE
  2
LTYPE
  5
5
330
0
100
AcDbSymbolTable
 70
     1
  0
LTYPE
  5
14
330
5
100
AcDbSymbolTableRecord
100
AcDbLinetypeTableRecord
  2
ByBlock
 70
     0
  3

 72
    65
 73
     0
 40
0.0
  0
LTYPE
  5
15
330
5
100
AcDbSymbolTableRecord
100
AcDbLinetypeTableRecord
  2
ByLayer
 70
     0
  3

 72
    65
 73
     0
 40
0.0
  0
LTYPE
  5
16
330
5
100
AcDbSymbolTableRecord
100
AcDbLinetypeTableRecord
  2
Continuous
 70
     0
  3
Solid line
 72
    65
 73
     0
 40
0.0
  0
ENDTAB
  0
TABLE
  2
LAYER
  5
2
330
0
100
AcDbSymbolTable
 70
     1
  0
LAYER
  5
10
330
2
100
AcDbSymbolTableRecord
100
AcDbLayerTableRecord
  2
0
 70
     0
 62
    18
420
        0
  6
Continuous
370
    -3
390
F
347
46
  0
ENDTAB
  0
TABLE
  2
STYLE
  5
3
330
0
100
AcDbSymbolTable
 70
     1
  0
STYLE
  5
11
330
3
100
AcDbSymbolTableRecord
100
AcDbTextStyleTableRecord
  2
Standard
 70
     0
 40
0.0
 41
1.0
 50
0.0
 71
     0
 42
0.2
  3
txt
  4

  0
ENDTAB
  0
TABLE
  2
VIEW
  5
6
330
0
100
AcDbSymbolTable
 70
     0
  0
ENDTAB
  0
TABLE
  2
UCS
  5
7
330
0
100
AcDbSymbolTable
 70
     0
  0
ENDTAB
  0
TABLE
  2
APPID
  5
9
330
0
100
AcDbSymbolTable
 70
     3
  0
APPID
  5
12
330
9
100
AcDbSymbolTableRecord
100
AcDbRegAppTableRecord
  2
ACAD
 70
     0
  0
APPID
  5
5E
330
9
100
AcDbSymbolTableRecord
100
AcDbRegAppTableRecord
  2
Rhino
 70
     0
  0
APPID
  5
6BA
330
9
100
AcDbSymbolTableRecord
100
AcDbRegAppTableRecord
  2
ACAD_MLEADERVER
 70
     0
  0
ENDTAB
  0
TABLE
  2
DIMSTYLE
  5
A
330
0
100
AcDbSymbolTable
 70
     1
100
AcDbDimStyleTable
  0
DIMSTYLE
105
27
330
A
100
AcDbSymbolTableRecord
100
AcDbDimStyleTableRecord
  2
STANDARD_ACAD
 70
     0
178
     0
340
11
  0
ENDTAB
  0
TABLE
  2
BLOCK_RECORD
  5
1
330
0
100
AcDbSymbolTable
 70
     1
  0
BLOCK_RECORD
  5
1F
330
1
100
AcDbSymbolTableRecord
100
AcDbBlockTableRecord
  2
*Model_Space
340
22
 70
     0
280
     1
281
     0
  0
BLOCK_RECORD
  5
1B
330
1
100
AcDbSymbolTableRecord
100
AcDbBlockTableRecord
  2
*Paper_Space
340
1E
 70
     0
280
     1
281
     0
  0
BLOCK_RECORD
  5
23
330
1
100
AcDbSymbolTableRecord
100
AcDbBlockTableRecord
  2
*Paper_Space0
340
26
 70
     0
280
     1
281
     0
  0
ENDTAB
  0
ENDSEC
  0
SECTION
  2
BLOCKS
  0
BLOCK
  5
20
330
1F
100
AcDbEntity
  8
0
100
AcDbBlockBegin
  2
*Model_Space
 70
     0
 10
0.0
 20
0.0
 30
0.0
  3
*Model_Space
  1

  0
ENDBLK
  5
21
330
1F
100
AcDbEntity
  8
0
100
AcDbBlockEnd
  0
BLOCK
  5
1C
330
1B
100
AcDbEntity
 67
     1
  8
0
100
AcDbBlockBegin
  2
*Paper_Space
 70
     0
 10
0.0
 20
0.0
 30
0.0
  3
*Paper_Space
  1

  0
ENDBLK
  5
1D
330
1B
100
AcDbEntity
 67
     1
  8
0
100
AcDbBlockEnd
  0
BLOCK
  5
24
330
23
100
AcDbEntity
  8
0
100
AcDbBlockBegin
  2
*Paper_Space0
 70
     0
 10
0.0
 20
0.0
 30
0.0
  3
*Paper_Space0
  1

  0
ENDBLK
  5
25
330
23
100
AcDbEntity
  8
0
100
AcDbBlockEnd
  0
ENDSEC
  0
SECTION
  2
ENTITIES
  0
POLYLINE
  5
5F
330
1F
100
AcDbEntity
  8
0
100
AcDb2dPolyline
 66
     1
 10
0.0
 20
0.0
 30
0.0
 70
     1
  0
VERTEX
  5
60
330
5F
100
AcDbEntity
  8
0
100
AcDbVertex
100
AcDb2dVertex
 10
915.1582070908034
 20
-710.3522564306569
 30
0.0
  0
VERTEX
  5
61
330
5F
100
AcDbEntity
  8
0
100
AcDbVertex
100
AcDb2dVertex
 10
928.2608268058798
 20
-697.2496367156133
 30
0.0
  0
VERTEX
  5
62
330
5F
100
AcDbEntity
  8
0
100
AcDbVertex
100
AcDb2dVertex
 10
946.7384174562367
 20
-704.9033053629308
 30
0.0
  0
VERTEX
  5
63
330
5F
100
AcDbEntity
  8
0
100
AcDbVertex
100
AcDb2dVertex
 10
958.8015212624907
 20
-692.8402015565225
 30
0.0
  0
VERTEX
  5
64
330
5F
100
AcDbEntity
  8
0
100
AcDbVertex
100
AcDb2dVertex
 10
940.3239306122659
 20
-685.1865329092242
 30
0.0
  0
VERTEX
  5
65
330
5F
100
AcDbEntity
  8
0
100
AcDbVertex
100
AcDb2dVertex
 10
953.4265503273106
 20
-672.0839131941489
 30
0.0
  0
VERTEX
  5
66
330
5F
100
AcDbEntity
  8
0
100
AcDbVertex
100
AcDb2dVertex
 10
1066.331599467938
 20
-718.850715808589
 30
0.0
  0
VERTEX
  5
67
330
5F
100
AcDbEntity
  8
0
100
AcDbVertex
100
AcDb2dVertex
 10
1158.71955271908
 20
-757.1190590450956
 30
0.0
  0
VERTEX
  5
68
330
5F
100
AcDbEntity
  8
0
100
AcDbVertex
100
AcDb2dVertex
 10
1271.624601861268
 20
-803.8858616601827
 30
0.0
  0
VERTEX
  5
69
330
5F
100
AcDbEntity
  8
0
100
AcDbVertex
100
AcDb2dVertex
 10
1589.822653395204
 20
-672.0839131941041
 30
0.0
  0
VERTEX
  5
6A
330
5F
100
AcDbEntity
  8
0
100
AcDbVertex
100
AcDb2dVertex
 10
1602.925273110397
 20
-685.1865329091798
 30
0.0
  0
VERTEX
  5
6B
330
5F
100
AcDbEntity
  8
0
100
AcDbVertex
100
AcDb2dVertex
 10
1610.578941757567
 20
-666.7089422589369
 30
0.0
  0
VERTEX
  5
6C
330
5F
100
AcDbEntity
  8
0
100
AcDbVertex
100
AcDb2dVertex
 10
1622.642045563955
 20
-678.7720460653231
 30
0.0
  0
VERTEX
  5
6D
330
5F
100
AcDbEntity
  8
0
100
AcDbVertex
100
AcDb2dVertex
 10
1614.988376916668
 20
-697.249636715519
 30
0.0
  0
VERTEX
  5
6E
330
5F
100
AcDbEntity
  8
0
100
AcDbVertex
100
AcDb2dVertex
 10
1628.090996631847
 20
-710.3522564306254
 30
0.0
  0
VERTEX
  5
6F
330
5F
100
AcDbEntity
  8
0
100
AcDbVertex
100
AcDb2dVertex
 10
1271.624601861402
 20
-858.0054716748166
 30
0.0
  0
VERTEX
  5
70
330
5F
100
AcDbEntity
  8
0
100
AcDbVertex
100
AcDb2dVertex
 10
1139.585381100856
 20
-803.3130356706299
 30
0.0
  0
VERTEX
  5
71
330
5F
100
AcDbEntity
  8
0
100
AcDbVertex
100
AcDb2dVertex
 10
1047.197427849714
 20
-765.0446924341235
 30
0.0
  0
SEQEND
  5
72
330
5F
100
AcDbEntity
  8
0
  0
POLYLINE
  5
73
330
1F
100
AcDbEntity
  8
0
100
AcDb2dPolyline
 66
     1
 10
0.0
 20
0.0
 30
0.0
 70
     1
  0
VERTEX
  5
74
330
73
100
AcDbEntity
  8
0
100
AcDbVertex
100
AcDb2dVertex
 10
1271.624601861369
 20
-738.0054716748166
 30
0.0
  0
VERTEX
  5
75
330
73
100
AcDbEntity
  8
0
100
AcDbVertex
100
AcDb2dVertex
 10
915.1582070908835
 20
-590.3522564307256
 30
0.0
  0
VERTEX
  5
76
330
73
100
AcDbEntity
  8
0
100
AcDbVertex
100
AcDb2dVertex
 10
928.2608268059413
 20
-577.2496367156639
 30
0.0
  0
VERTEX
  5
77
330
73
100
AcDbEntity
  8
0
100
AcDbVertex
100
AcDb2dVertex
 10
920.6071581586349
 20
-558.7720460654397
 30
0.0
  0
VERTEX
  5
78
330
73
100
AcDbEntity
  8
0
100
AcDbVertex
100
AcDb2dVertex
 10
932.6702619650199
 20
-546.7089422590499
 30
0.0
  0
VERTEX
  5
79
330
73
100
AcDbEntity
  8
0
100
AcDbVertex
100
AcDb2dVertex
 10
940.3239306123264
 20
-565.186532909273
 30
0.0
  0
VERTEX
  5
7A
330
73
100
AcDbEntity
  8
0
100
AcDbVertex
100
AcDb2dVertex
 10
953.4265503273842
 20
-552.0839131942113
 30
0.0
  0
VERTEX
  5
7B
330
73
100
AcDbEntity
  8
0
100
AcDbVertex
100
AcDb2dVertex
 10
1271.624601861356
 20
-683.8858616602004
 30
0.0
  0
VERTEX
  5
7C
330
73
100
AcDbEntity
  8
0
100
AcDbVertex
100
AcDb2dVertex
 10
1589.822653395277
 20
-552.0839131940769
 30
0.0
  0
VERTEX
  5
7D
330
73
100
AcDbEntity
  8
0
100
AcDbVertex
100
AcDb2dVertex
 10
1602.925273110326
 20
-565.1865329091486
 30
0.0
  0
VERTEX
  5
7E
330
73
100
AcDbEntity
  8
0
100
AcDbVertex
100
AcDb2dVertex
 10
1584.447682460103
 20
-572.8402015564528
 30
0.0
  0
VERTEX
  5
7F
330
73
100
AcDbEntity
  8
0
100
AcDbVertex
100
AcDb2dVertex
 10
1596.510786266491
 20
-584.9033053628401
 30
0.0
  0
VERTEX
  5
80
330
73
100
AcDbEntity
  8
0
100
AcDbVertex
100
AcDb2dVertex
 10
1614.988376916716
 20
-577.2496367155351
 30
0.0
  0
VERTEX
  5
81
330
73
100
AcDbEntity
  8
0
100
AcDbVertex
100
AcDb2dVertex
 10
1628.090996631796
 20
-590.3522564305749
 30
0.0
  0
SEQEND
  5
82
330
73
100
AcDbEntity
  8
0
  0
POLYLINE
  5
83
330
1F
100
AcDbEntity
  8
0
100
AcDb2dPolyline
 66
     1
 10
0.0
 20
0.0
 30
0.0
 70
     1
  0
VERTEX
  5
84
330
83
100
AcDbEntity
  8
0
100
AcDbVertex
100
AcDb2dVertex
 10
1271.624601861319
 20
-558.0054716748164
 30
0.0
  0
VERTEX
  5
85
330
83
100
AcDbEntity
  8
0
100
AcDbVertex
100
AcDb2dVertex
 10
915.1582070908332
 20
-410.3522564307255
 30
0.0
  0
VERTEX
  5
86
330
83
100
AcDbEntity
  8
0
100
AcDbVertex
100
AcDb2dVertex
 10
928.2608268058912
 20
-397.2496367156639
 30
0.0
  0
VERTEX
  5
87
330
83
100
AcDbEntity
  8
0
100
AcDbVertex
100
AcDb2dVertex
 10
920.6071581585848
 20
-378.7720460654394
 30
0.0
  0
VERTEX
  5
88
330
83
100
AcDbEntity
  8
0
100
AcDbVertex
100
AcDb2dVertex
 10
932.6702619649698
 20
-366.7089422590498
 30
0.0
  0
VERTEX
  5
89
330
83
100
AcDbEntity
  8
0
100
AcDbVertex
100
AcDb2dVertex
 10
940.3239306122762
 20
-385.1865329092728
 30
0.0
  0
VERTEX
  5
8A
330
83
100
AcDbEntity
  8
0
100
AcDbVertex
100
AcDb2dVertex
 10
953.4265503273341
 20
-372.0839131942112
 30
0.0
  0
VERTEX
  5
8B
330
83
100
AcDbEntity
  8
0
100
AcDbVertex
100
AcDb2dVertex
 10
1271.624601861306
 20
-503.8858616602001
 30
0.0
  0
VERTEX
  5
8C
330
83
100
AcDbEntity
  8
0
100
AcDbVertex
100
AcDb2dVertex
 10
1589.822653395227
 20
-372.0839131940767
 30
0.0
  0
VERTEX
  5
8D
330
83
100
AcDbEntity
  8
0
100
AcDbVertex
100
AcDb2dVertex
 10
1602.925273110276
 20
-385.1865329091484
 30
0.0
  0
VERTEX
  5
8E
330
83
100
AcDbEntity
  8
0
100
AcDbVertex
100
AcDb2dVertex
 10
1584.447682460053
 20
-392.8402015564527
 30
0.0
  0
VERTEX
  5
8F
330
83
100
AcDbEntity
  8
0
100
AcDbVertex
100
AcDb2dVertex
 10
1596.510786266441
 20
-404.9033053628399
 30
0.0
  0
VERTEX
  5
90
330
83
100
AcDbEntity
  8
0
100
AcDbVertex
100
AcDb2dVertex
 10
1614.988376916666
 20
-397.2496367155349
 30
0.0
  0
VERTEX
  5
91
330
83
100
AcDbEntity
  8
0
100
AcDbVertex
100
AcDb2dVertex
 10
1628.090996631746
 20
-410.3522564305748
 30
0.0
  0
SEQEND
  5
92
330
83
100
AcDbEntity
  8
0
  0
POLYLINE
  5
93
330
1F
100
AcDbEntity
  8
0
100
AcDb2dPolyline
 66
     1
 10
0.0
 20
0.0
 30
0.0
 70
     1
  0
VERTEX
  5
94
330
93
100
AcDbEntity
  8
0
100
AcDbVertex
100
AcDb2dVertex
 10
1271.624601861218
 20
-198.0054716748159
 30
0.0
  0
VERTEX
  5
95
330
93
100
AcDbEntity
  8
0
100
AcDbVertex
100
AcDb2dVertex
 10
915.1582070907324
 20
-50.35225643072494
 30
0.0
  0
VERTEX
  5
96
330
93
100
AcDbEntity
  8
0
100
AcDbVertex
100
AcDb2dVertex
 10
928.2608268057902
 20
-37.2496367156633
 30
0.0
  0
VERTEX
  5
97
330
93
100
AcDbEntity
  8
0
100
AcDbVertex
100
AcDb2dVertex
 10
920.6071581584838
 20
-18.77204606543887
 30
0.0
  0
VERTEX
  5
98
330
93
100
AcDbEntity
  8
0
100
AcDbVertex
100
AcDb2dVertex
 10
932.6702619648688
 20
-6.708942259049284
 30
0.0
  0
VERTEX
  5
99
330
93
100
AcDbEntity
  8
0
100
AcDbVertex
100
AcDb2dVertex
 10
940.3239306121753
 20
-25.18653290927227
 30
0.0
  0
VERTEX
  5
9A
330
93
100
AcDbEntity
  8
0
100
AcDbVertex
100
AcDb2dVertex
 10
953.4265503272331
 20
-12.08391319421064
 30
0.0
  0
VERTEX
  5
9B
330
93
100
AcDbEntity
  8
0
100
AcDbVertex
100
AcDb2dVertex
 10
1271.624601861205
 20
-143.8858616601996
 30
0.0
  0
VERTEX
  5
9C
330
93
100
AcDbEntity
  8
0
100
AcDbVertex
100
AcDb2dVertex
 10
1589.822653395127
 20
-12.08391319407627
 30
0.0
  0
VERTEX
  5
9D
330
93
100
AcDbEntity
  8
0
100
AcDbVertex
100
AcDb2dVertex
 10
1602.925273110175
 20
-25.18653290914788
 30
0.0
  0
VERTEX
  5
9E
330
93
100
AcDbEntity
  8
0
100
AcDbVertex
100
AcDb2dVertex
 10
1584.447682459952
 20
-32.84020155645218
 30
0.0
  0
VERTEX
  5
9F
330
93
100
AcDbEntity
  8
0
100
AcDbVertex
100
AcDb2dVertex
 10
1596.51078626634
 20
-44.90330536283935
 30
0.0
  0
VERTEX
  5
A0
330
93
100
AcDbEntity
  8
0
100
AcDbVertex
100
AcDb2dVertex
 10
1614.988376916565
 20
-37.24963671553434
 30
0.0
  0
VERTEX
  5
A1
330
93
100
AcDbEntity
  8
0
100
AcDbVertex
100
AcDb2dVertex
 10
1628.090996631645
 20
-50.35225643057422
 30
0.0
  0
SEQEND
  5
A2
330
93
100
AcDbEntity
  8
0
  0
POLYLINE
  5
A3
330
1F
100
AcDbEntity
  8
0
100
AcDb2dPolyline
 66
     1
 10
0.0
 20
0.0
 30
0.0
 70
     1
  0
VERTEX
  5
A4
330
A3
100
AcDbEntity
  8
0
100
AcDbVertex
100
AcDb2dVertex
 10
1271.624601861335
 20
-618.0054716748166
 30
0.0
  0
VERTEX
  5
A5
330
A3
100
AcDbEntity
  8
0
100
AcDbVertex
100
AcDb2dVertex
 10
915.1582070908499
 20
-470.3522564307256
 30
0.0
  0
VERTEX
  5
A6
330
A3
100
AcDbEntity
  8
0
100
AcDbVertex
100
AcDb2dVertex
 10
928.2608268059078
 20
-457.2496367156639
 30
0.0
  0
VERTEX
  5
A7
330
A3
100
AcDbEntity
  8
0
100
AcDbVertex
100
AcDb2dVertex
 10
920.6071581586014
 20
-438.7720460654395
 30
0.0
  0
VERTEX
  5
A8
330
A3
100
AcDbEntity
  8
0
100
AcDbVertex
100
AcDb2dVertex
 10
932.6702619649864
 20
-426.7089422590499
 30
0.0
  0
VERTEX
  5
A9
330
A3
100
AcDbEntity
  8
0
100
AcDbVertex
100
AcDb2dVertex
 10
940.3239306122929
 20
-445.1865329092729
 30
0.0
  0
VERTEX
  5
AA
330
A3
100
AcDbEntity
  8
0
100
AcDbVertex
100
AcDb2dVertex
 10
953.4265503273507
 20
-432.0839131942113
 30
0.0
  0
VERTEX
  5
AB
330
A3
100
AcDbEntity
  8
0
100
AcDbVertex
100
AcDb2dVertex
 10
1271.624601861323
 20
-563.8858616602001
 30
0.0
  0
VERTEX
  5
AC
330
A3
100
AcDbEntity
  8
0
100
AcDbVertex
100
AcDb2dVertex
 10
1589.822653395244
 20
-432.0839131940768
 30
0.0
  0
VERTEX
  5
AD
330
A3
100
AcDbEntity
  8
0
100
AcDbVertex
100
AcDb2dVertex
 10
1602.925273110292
 20
-445.1865329091486
 30
0.0
  0
VERTEX
  5
AE
330
A3
100
AcDbEntity
  8
0
100
AcDbVertex
100
AcDb2dVertex
 10
1584.447682460069
 20
-452.8402015564528
 30
0.0
  0
VERTEX
  5
AF
330
A3
100
AcDbEntity
  8
0
100
AcDbVertex
100
AcDb2dVertex
 10
1596.510786266458
 20
-464.9033053628399
 30
0.0
  0
VERTEX
  5
B0
330
A3
100
AcDbEntity
  8
0
100
AcDbVertex
100
AcDb2dVertex
 10
1614.988376916682
 20
-457.249636715535
 30
0.0
  0
VERTEX
  5
B1
330
A3
100
AcDbEntity
  8
0
100
AcDbVertex
100
AcDb2dVertex
 10
1628.090996631763
 20
-470.3522564305749
 30
0.0
  0
SEQEND
  5
B2
330
A3
100
AcDbEntity
  8
0
  0
POLYLINE
  5
B3
330
1F
100
AcDbEntity
  8
0
100
AcDb2dPolyline
 66
     1
 10
0.0
 20
0.0
 30
0.0
 70
     1
  0
VERTEX
  5
B4
330
B3
100
AcDbEntity
  8
0
100
AcDbVertex
100
AcDb2dVertex
 10
1271.624601861301
 20
-498.0054716748163
 30
0.0
  0
VERTEX
  5
B5
330
B3
100
AcDbEntity
  8
0
100
AcDbVertex
100
AcDb2dVertex
 10
915.1582070908162
 20
-350.3522564307254
 30
0.0
  0
VERTEX
  5
B6
330
B3
100
AcDbEntity
  8
0
100
AcDbVertex
100
AcDb2dVertex
 10
928.2608268058741
 20
-337.2496367156638
 30
0.0
  0
VERTEX
  5
B7
330
B3
100
AcDbEntity
  8
0
100
AcDbVertex
100
AcDb2dVertex
 10
920.6071581585677
 20
-318.7720460654393
 30
0.0
  0
VERTEX
  5
B8
330
B3
100
AcDbEntity
  8
0
100
AcDbVertex
100
AcDb2dVertex
 10
932.6702619649527
 20
-306.7089422590498
 30
0.0
  0
VERTEX
  5
B9
330
B3
100
AcDbEntity
  8
0
100
AcDbVertex
100
AcDb2dVertex
 10
940.3239306122591
 20
-325.1865329092728
 30
0.0
  0
VERTEX
  5
BA
330
B3
100
AcDbEntity
  8
0
100
AcDbVertex
100
AcDb2dVertex
 10
953.426550327317
 20
-312.0839131942111
 30
0.0
  0
VERTEX
  5
BB
330
B3
100
AcDbEntity
  8
0
100
AcDbVertex
100
AcDb2dVertex
 10
1271.624601861289
 20
-443.8858616602
 30
0.0
  0
VERTEX
  5
BC
330
B3
100
AcDbEntity
  8
0
100
AcDbVertex
100
AcDb2dVertex
 10
1589.82265339521
 20
-312.0839131940767
 30
0.0
  0
VERTEX
  5
BD
330
B3
100
AcDbEntity
  8
0
100
AcDbVertex
100
AcDb2dVertex
 10
1602.925273110259
 20
-325.1865329091482
 30
0.0
  0
VERTEX
  5
BE
330
B3
100
AcDbEntity
  8
0
100
AcDbVertex
100
AcDb2dVertex
 10
1584.447682460036
 20
-332.8402015564527
 30
0.0
  0
VERTEX
  5
BF
330
B3
100
AcDbEntity
  8
0
100
AcDbVertex
100
AcDb2dVertex
 10
1596.510786266424
 20
-344.9033053628398
 30
0.0
  0
VERTEX
  5
C0
330
B3
100
AcDbEntity
  8
0
100
AcDbVertex
100
AcDb2dVertex
 10
1614.988376916648
 20
-337.2496367155348
 30
0.0
  0
VERTEX
  5
C1
330
B3
100
AcDbEntity
  8
0
100
AcDbVertex
100
AcDb2dVertex
 10
1628.090996631729
 20
-350.3522564305747
 30
0.0
  0
SEQEND
  5
C2
330
B3
100
AcDbEntity
  8
0
  0
POLYLINE
  5
C3
330
1F
100
AcDbEntity
  8
0
100
AcDb2dPolyline
 66
     1
 10
0.0
 20
0.0
 30
0.0
 70
     1
  0
VERTEX
  5
C4
330
C3
100
AcDbEntity
  8
0
100
AcDbVertex
100
AcDb2dVertex
 10
1271.624601861385
 20
-798.0054716748166
 30
0.0
  0
VERTEX
  5
C5
330
C3
100
AcDbEntity
  8
0
100
AcDbVertex
100
AcDb2dVertex
 10
915.1582070909
 20
-650.3522564307257
 30
0.0
  0
VERTEX
  5
C6
330
C3
100
AcDbEntity
  8
0
100
AcDbVertex
100
AcDb2dVertex
 10
928.2608268059578
 20
-637.249636715664
 30
0.0
  0
VERTEX
  5
C7
330
C3
100
AcDbEntity
  8
0
100
AcDbVertex
100
AcDb2dVertex
 10
920.6071581586514
 20
-618.7720460654397
 30
0.0
  0
VERTEX
  5
C8
330
C3
100
AcDbEntity
  8
0
100
AcDbVertex
100
AcDb2dVertex
 10
932.6702619650364
 20
-606.70894225905
 30
0.0
  0
VERTEX
  5
C9
330
C3
100
AcDbEntity
  8
0
100
AcDbVertex
100
AcDb2dVertex
 10
940.3239306123429
 20
-625.186532909273
 30
0.0
  0
VERTEX
  5
CA
330
C3
100
AcDbEntity
  8
0
100
AcDbVertex
100
AcDb2dVertex
 10
953.4265503274007
 20
-612.0839131942115
 30
0.0
  0
VERTEX
  5
CB
330
C3
100
AcDbEntity
  8
0
100
AcDbVertex
100
AcDb2dVertex
 10
1271.624601861373
 20
-743.8858616602004
 30
0.0
  0
VERTEX
  5
CC
330
C3
100
AcDbEntity
  8
0
100
AcDbVertex
100
AcDb2dVertex
 10
1589.822653395294
 20
-612.083913194077
 30
0.0
  0
VERTEX
  5
CD
330
C3
100
AcDbEntity
  8
0
100
AcDbVertex
100
AcDb2dVertex
 10
1602.925273110343
 20
-625.1865329091486
 30
0.0
  0
VERTEX
  5
CE
330
C3
100
AcDbEntity
  8
0
100
AcDbVertex
100
AcDb2dVertex
 10
1584.44768246012
 20
-632.8402015564528
 30
0.0
  0
VERTEX
  5
CF
330
C3
100
AcDbEntity
  8
0
100
AcDbVertex
100
AcDb2dVertex
 10
1596.510786266508
 20
-644.9033053628402
 30
0.0
  0
VERTEX
  5
D0
330
C3
100
AcDbEntity
  8
0
100
AcDbVertex
100
AcDb2dVertex
 10
1614.988376916732
 20
-637.2496367155351
 30
0.0
  0
VERTEX
  5
D1
330
C3
100
AcDbEntity
  8
0
100
AcDbVertex
100
AcDb2dVertex
 10
1628.090996631812
 20
-650.352256430575
 30
0.0
  0
SEQEND
  5
D2
330
C3
100
AcDbEntity
  8
0
  0
POLYLINE
  5
D3
330
1F
100
AcDbEntity
  8
0
100
AcDb2dPolyline
 66
     1
 10
0.0
 20
0.0
 30
0.0
 70
     1
  0
VERTEX
  5
D4
330
D3
100
AcDbEntity
  8
0
100
AcDbVertex
100
AcDb2dVertex
 10
1271.624601861201
 20
-138.0054716748158
 30
0.0
  0
VERTEX
  5
D5
330
D3
100
AcDbEntity
  8
0
100
AcDbVertex
100
AcDb2dVertex
 10
915.158207090716
 20
9.64774356927514
 30
0.0
  0
VERTEX
  5
D6
330
D3
100
AcDbEntity
  8
0
100
AcDbVertex
100
AcDb2dVertex
 10
928.2608268057738
 20
22.75036328433677
 30
0.0
  0
VERTEX
  5
D7
330
D3
100
AcDbEntity
  8
0
100
AcDbVertex
100
AcDb2dVertex
 10
920.6071581584674
 20
41.2279539345612
 30
0.0
  0
VERTEX
  5
D8
330
D3
100
AcDbEntity
  8
0
100
AcDbVertex
100
AcDb2dVertex
 10
932.6702619648524
 20
53.2910577409508
 30
0.0
  0
VERTEX
  5
D9
330
D3
100
AcDbEntity
  8
0
100
AcDbVertex
100
AcDb2dVertex
 10
940.323930612159
 20
34.8134670907278
 30
0.0
  0
VERTEX
  5
DA
330
D3
100
AcDbEntity
  8
0
100
AcDbVertex
100
AcDb2dVertex
 10
953.4265503272168
 20
47.91608680578945
 30
0.0
  0
VERTEX
  5
DB
330
D3
100
AcDbEntity
  8
0
100
AcDbVertex
100
AcDb2dVertex
 10
1271.624601861189
 20
-83.88586166019954
 30
0.0
  0
VERTEX
  5
DC
330
D3
100
AcDbEntity
  8
0
100
AcDbVertex
100
AcDb2dVertex
 10
1589.82265339511
 20
47.91608680592383
 30
0.0
  0
VERTEX
  5
DD
330
D3
100
AcDbEntity
  8
0
100
AcDbVertex
100
AcDb2dVertex
 10
1602.925273110158
 20
34.8134670908522
 30
0.0
  0
VERTEX
  5
DE
330
D3
100
AcDbEntity
  8
0
100
AcDbVertex
100
AcDb2dVertex
 10
1584.447682459935
 20
27.1597984435479
 30
0.0
  0
VERTEX
  5
DF
330
D3
100
AcDbEntity
  8
0
100
AcDbVertex
100
AcDb2dVertex
 10
1596.510786266324
 20
15.09669463716072
 30
0.0
  0
VERTEX
  5
E0
330
D3
100
AcDbEntity
  8
0
100
AcDbVertex
100
AcDb2dVertex
 10
1614.988376916548
 20
22.75036328446574
 30
0.0
  0
VERTEX
  5
E1
330
D3
100
AcDbEntity
  8
0
100
AcDbVertex
100
AcDb2dVertex
 10
1628.090996631629
 20
9.647743569425856
 30
0.0
  0
SEQEND
  5
E2
330
D3
100
AcDbEntity
  8
0
  0
POLYLINE
  5
E3
330
1F
100
AcDbEntity
  8
0
100
AcDb2dPolyline
 66
     1
 10
0.0
 20
0.0
 30
0.0
 70
     1
  0
VERTEX
  5
E4
330
E3
100
AcDbEntity
  8
0
100
AcDbVertex
100
AcDb2dVertex
 10
1271.624601861251
 20
-318.0054716748161
 30
0.0
  0
VERTEX
  5
E5
330
E3
100
AcDbEntity
  8
0
100
AcDbVertex
100
AcDb2dVertex
 10
915.1582070907662
 20
-170.3522564307252
 30
0.0
  0
VERTEX
  5
E6
330
E3
100
AcDbEntity
  8
0
100
AcDbVertex
100
AcDb2dVertex
 10
928.2608268058241
 20
-157.2496367156636
 30
0.0
  0
VERTEX
  5
E7
330
E3
100
AcDbEntity
  8
0
100
AcDbVertex
100
AcDb2dVertex
 10
920.6071581585177
 20
-138.7720460654391
 30
0.0
  0
VERTEX
  5
E8
330
E3
100
AcDbEntity
  8
0
100
AcDbVertex
100
AcDb2dVertex
 10
932.6702619649027
 20
-126.7089422590495
 30
0.0
  0
VERTEX
  5
E9
330
E3
100
AcDbEntity
  8
0
100
AcDbVertex
100
AcDb2dVertex
 10
940.3239306122091
 20
-145.1865329092725
 30
0.0
  0
VERTEX
  5
EA
330
E3
100
AcDbEntity
  8
0
100
AcDbVertex
100
AcDb2dVertex
 10
953.426550327267
 20
-132.0839131942109
 30
0.0
  0
VERTEX
  5
EB
330
E3
100
AcDbEntity
  8
0
100
AcDbVertex
100
AcDb2dVertex
 10
1271.624601861239
 20
-263.8858616601998
 30
0.0
  0
VERTEX
  5
EC
330
E3
100
AcDbEntity
  8
0
100
AcDbVertex
100
AcDb2dVertex
 10
1589.82265339516
 20
-132.0839131940765
 30
0.0
  0
VERTEX
  5
ED
330
E3
100
AcDbEntity
  8
0
100
AcDbVertex
100
AcDb2dVertex
 10
1602.925273110209
 20
-145.1865329091481
 30
0.0
  0
VERTEX
  5
EE
330
E3
100
AcDbEntity
  8
0
100
AcDbVertex
100
AcDb2dVertex
 10
1584.447682459986
 20
-152.8402015564524
 30
0.0
  0
VERTEX
  5
EF
330
E3
100
AcDbEntity
  8
0
100
AcDbVertex
100
AcDb2dVertex
 10
1596.510786266374
 20
-164.9033053628396
 30
0.0
  0
VERTEX
  5
F0
330
E3
100
AcDbEntity
  8
0
100
AcDbVertex
100
AcDb2dVertex
 10
1614.988376916598
 20
-157.2496367155346
 30
0.0
  0
VERTEX
  5
F1
330
E3
100
AcDbEntity
  8
0
100
AcDbVertex
100
AcDb2dVertex
 10
1628.090996631679
 20
-170.3522564305744
 30
0.0
  0
SEQEND
  5
F2
330
E3
100
AcDbEntity
  8
0
  0
POLYLINE
  5
F3
330
1F
100
AcDbEntity
  8
0
100
AcDb2dPolyline
 66
     1
 10
0.0
 20
0.0
 30
0.0
 70
     1
  0
VERTEX
  5
F4
330
F3
100
AcDbEntity
  8
0
100
AcDbVertex
100
AcDb2dVertex
 10
1271.624601861184
 20
-78.00547167481574
 30
0.0
  0
VERTEX
  5
F5
330
F3
100
AcDbEntity
  8
0
100
AcDbVertex
100
AcDb2dVertex
 10
915.1582070906989
 20
69.64774356927522
 30
0.0
  0
VERTEX
  5
F6
330
F3
100
AcDbEntity
  8
0
100
AcDbVertex
100
AcDb2dVertex
 10
928.2608268057567
 20
82.75036328433684
 30
0.0
  0
VERTEX
  5
F7
330
F3
100
AcDbEntity
  8
0
100
AcDbVertex
100
AcDb2dVertex
 10
920.6071581584503
 20
101.2279539345613
 30
0.0
  0
VERTEX
  5
F8
330
F3
100
AcDbEntity
  8
0
100
AcDbVertex
100
AcDb2dVertex
 10
932.6702619648353
 20
113.2910577409509
 30
0.0
  0
VERTEX
  5
F9
330
F3
100
AcDbEntity
  8
0
100
AcDbVertex
100
AcDb2dVertex
 10
940.3239306121418
 20
94.81346709072788
 30
0.0
  0
VERTEX
  5
FA
330
F3
100
AcDbEntity
  8
0
100
AcDbVertex
100
AcDb2dVertex
 10
953.4265503271996
 20
107.9160868057895
 30
0.0
  0
VERTEX
  5
FB
330
F3
100
AcDbEntity
  8
0
100
AcDbVertex
100
AcDb2dVertex
 10
1271.624601861172
 20
-23.88586166019946
 30
0.0
  0
VERTEX
  5
FC
330
F3
100
AcDbEntity
  8
0
100
AcDbVertex
100
AcDb2dVertex
 10
1589.822653395093
 20
107.9160868059239
 30
0.0
  0
VERTEX
  5
FD
330
F3
100
AcDbEntity
  8
0
100
AcDbVertex
100
AcDb2dVertex
 10
1602.925273110141
 20
94.81346709085227
 30
0.0
  0
VERTEX
  5
FE
330
F3
100
AcDbEntity
  8
0
100
AcDbVertex
100
AcDb2dVertex
 10
1584.447682459919
 20
87.15979844354797
 30
0.0
  0
VERTEX
  5
FF
330
F3
100
AcDbEntity
  8
0
100
AcDbVertex
100
AcDb2dVertex
 10
1596.510786266307
 20
75.09669463716078
 30
0.0
  0
VERTEX
  5
100
330
F3
100
AcDbEntity
  8
0
100
AcDbVertex
100
AcDb2dVertex
 10
1614.988376916531
 20
82.75036328446582
 30
0.0
  0
VERTEX
  5
101
330
F3
100
AcDbEntity
  8
0
100
AcDbVertex
100
AcDb2dVertex
 10
1628.090996631611
 20
69.64774356942593
 30
0.0
  0
SEQEND
  5
102
330
F3
100
AcDbEntity
  8
0
  0
POLYLINE
  5
103
330
1F
100
AcDbEntity
  8
0
100
AcDb2dPolyline
 66
     1
 10
0.0
 20
0.0
 30
0.0
 70
     1
  0
VERTEX
  5
104
330
103
100
AcDbEntity
  8
0
100
AcDbVertex
100
AcDb2dVertex
 10
1271.624601861285
 20
-438.0054716748162
 30
0.0
  0
VERTEX
  5
105
330
103
100
AcDbEntity
  8
0
100
AcDbVertex
100
AcDb2dVertex
 10
915.1582070907998
 20
-290.3522564307253
 30
0.0
  0
VERTEX
  5
106
330
103
100
AcDbEntity
  8
0
100
AcDbVertex
100
AcDb2dVertex
 10
928.2608268058575
 20
-277.2496367156637
 30
0.0
  0
VERTEX
  5
107
330
103
100
AcDbEntity
  8
0
100
AcDbVertex
100
AcDb2dVertex
 10
920.6071581585512
 20
-258.7720460654392
 30
0.0
  0
VERTEX
  5
108
330
103
100
AcDbEntity
  8
0
100
AcDbVertex
100
AcDb2dVertex
 10
932.6702619649361
 20
-246.7089422590497
 30
0.0
  0
VERTEX
  5
109
330
103
100
AcDbEntity
  8
0
100
AcDbVertex
100
AcDb2dVertex
 10
940.3239306122427
 20
-265.1865329092726
 30
0.0
  0
VERTEX
  5
10A
330
103
100
AcDbEntity
  8
0
100
AcDbVertex
100
AcDb2dVertex
 10
953.4265503273004
 20
-252.083913194211
 30
0.0
  0
VERTEX
  5
10B
330
103
100
AcDbEntity
  8
0
100
AcDbVertex
100
AcDb2dVertex
 10
1271.624601861273
 20
-383.8858616602
 30
0.0
  0
VERTEX
  5
10C
330
103
100
AcDbEntity
  8
0
100
AcDbVertex
100
AcDb2dVertex
 10
1589.822653395194
 20
-252.0839131940766
 30
0.0
  0
VERTEX
  5
10D
330
103
100
AcDbEntity
  8
0
100
AcDbVertex
100
AcDb2dVertex
 10
1602.925273110242
 20
-265.1865329091483
 30
0.0
  0
VERTEX
  5
10E
330
103
100
AcDbEntity
  8
0
100
AcDbVertex
100
AcDb2dVertex
 10
1584.447682460019
 20
-272.8402015564526
 30
0.0
  0
VERTEX
  5
10F
330
103
100
AcDbEntity
  8
0
100
AcDbVertex
100
AcDb2dVertex
 10
1596.510786266408
 20
-284.9033053628397
 30
0.0
  0
VERTEX
  5
110
330
103
100
AcDbEntity
  8
0
100
AcDbVertex
100
AcDb2dVertex
 10
1614.988376916632
 20
-277.2496367155347
 30
0.0
  0
VERTEX
  5
111
330
103
100
AcDbEntity
  8
0
100
AcDbVertex
100
AcDb2dVertex
 10
1628.090996631713
 20
-290.3522564305746
 30
0.0
  0
SEQEND
  5
112
330
103
100
AcDbEntity
  8
0
  0
POLYLINE
  5
113
330
1F
100
AcDbEntity
  8
0
100
AcDb2dPolyline
 66
     1
 10
0.0
 20
0.0
 30
0.0
 70
     1
  0
VERTEX
  5
114
330
113
100
AcDbEntity
  8
0
100
AcDbVertex
100
AcDb2dVertex
 10
1271.624601861268
 20
-378.0054716748162
 30
0.0
  0
VERTEX
  5
115
330
113
100
AcDbEntity
  8
0
100
AcDbVertex
100
AcDb2dVertex
 10
915.158207090783
 20
-230.3522564307253
 30
0.0
  0
VERTEX
  5
116
330
113
100
AcDbEntity
  8
0
100
AcDbVertex
100
AcDb2dVertex
 10
928.2608268058408
 20
-217.2496367156636
 30
0.0
  0
VERTEX
  5
117
330
113
100
AcDbEntity
  8
0
100
AcDbVertex
100
AcDb2dVertex
 10
920.6071581585344
 20
-198.7720460654392
 30
0.0
  0
VERTEX
  5
118
330
113
100
AcDbEntity
  8
0
100
AcDbVertex
100
AcDb2dVertex
 10
932.6702619649194
 20
-186.7089422590496
 30
0.0
  0
VERTEX
  5
119
330
113
100
AcDbEntity
  8
0
100
AcDbVertex
100
AcDb2dVertex
 10
940.3239306122259
 20
-205.1865329092726
 30
0.0
  0
VERTEX
  5
11A
330
113
100
AcDbEntity
  8
0
100
AcDbVertex
100
AcDb2dVertex
 10
953.4265503272837
 20
-192.083913194211
 30
0.0
  0
VERTEX
  5
11B
330
113
100
AcDbEntity
  8
0
100
AcDbVertex
100
AcDb2dVertex
 10
1271.624601861256
 20
-323.8858616601999
 30
0.0
  0
VERTEX
  5
11C
330
113
100
AcDbEntity
  8
0
100
AcDbVertex
100
AcDb2dVertex
 10
1589.822653395177
 20
-192.0839131940766
 30
0.0
  0
VERTEX
  5
11D
330
113
100
AcDbEntity
  8
0
100
AcDbVertex
100
AcDb2dVertex
 10
1602.925273110226
 20
-205.1865329091482
 30
0.0
  0
VERTEX
  5
11E
330
113
100
AcDbEntity
  8
0
100
AcDbVertex
100
AcDb2dVertex
 10
1584.447682460003
 20
-212.8402015564525
 30
0.0
  0
VERTEX
  5
11F
330
113
100
AcDbEntity
  8
0
100
AcDbVertex
100
AcDb2dVertex
 10
1596.510786266391
 20
-224.9033053628397
 30
0.0
  0
VERTEX
  5
120
330
113
100
AcDbEntity
  8
0
100
AcDbVertex
100
AcDb2dVertex
 10
1614.988376916615
 20
-217.2496367155347
 30
0.0
  0
VERTEX
  5
121
330
113
100
AcDbEntity
  8
0
100
AcDbVertex
100
AcDb2dVertex
 10
1628.090996631695
 20
-230.3522564305745
 30
0.0
  0
SEQEND
  5
122
330
113
100
AcDbEntity
  8
0
  0
POLYLINE
  5
123
330
1F
100
AcDbEntity
  8
0
100
AcDb2dPolyline
 66
     1
 10
0.0
 20
0.0
 30
0.0
 70
     1
  0
VERTEX
  5
124
330
123
100
AcDbEntity
  8
0
100
AcDbVertex
100
AcDb2dVertex
 10
1271.624601861352
 20
-678.0054716748166
 30
0.0
  0
VERTEX
  5
125
330
123
100
AcDbEntity
  8
0
100
AcDbVertex
100
AcDb2dVertex
 10
915.1582070908667
 20
-530.3522564307256
 30
0.0
  0
VERTEX
  5
126
330
123
100
AcDbEntity
  8
0
100
AcDbVertex
100
AcDb2dVertex
 10
928.2608268059245
 20
-517.2496367156639
 30
0.0
  0
VERTEX
  5
127
330
123
100
AcDbEntity
  8
0
100
AcDbVertex
100
AcDb2dVertex
 10
920.6071581586182
 20
-498.7720460654396
 30
0.0
  0
VERTEX
  5
128
330
123
100
AcDbEntity
  8
0
100
AcDbVertex
100
AcDb2dVertex
 10
932.6702619650031
 20
-486.70894225905
 30
0.0
  0
VERTEX
  5
129
330
123
100
AcDbEntity
  8
0
100
AcDbVertex
100
AcDb2dVertex
 10
940.3239306123096
 20
-505.186532909273
 30
0.0
  0
VERTEX
  5
12A
330
123
100
AcDbEntity
  8
0
100
AcDbVertex
100
AcDb2dVertex
 10
953.4265503273674
 20
-492.0839131942114
 30
0.0
  0
VERTEX
  5
12B
330
123
100
AcDbEntity
  8
0
100
AcDbVertex
100
AcDb2dVertex
 10
1271.62460186134
 20
-623.8858616602004
 30
0.0
  0
VERTEX
  5
12C
330
123
100
AcDbEntity
  8
0
100
AcDbVertex
100
AcDb2dVertex
 10
1589.822653395261
 20
-492.0839131940769
 30
0.0
  0
VERTEX
  5
12D
330
123
100
AcDbEntity
  8
0
100
AcDbVertex
100
AcDb2dVertex
 10
1602.925273110309
 20
-505.1865329091486
 30
0.0
  0
VERTEX
  5
12E
330
123
100
AcDbEntity
  8
0
100
AcDbVertex
100
AcDb2dVertex
 10
1584.447682460086
 20
-512.8402015564528
 30
0.0
  0
VERTEX
  5
12F
330
123
100
AcDbEntity
  8
0
100
AcDbVertex
100
AcDb2dVertex
 10
1596.510786266474
 20
-524.90330536284
 30
0.0
  0
VERTEX
  5
130
330
123
100
AcDbEntity
  8
0
100
AcDbVertex
100
AcDb2dVertex
 10
1614.988376916699
 20
-517.2496367155351
 30
0.0
  0
VERTEX
  5
131
330
123
100
AcDbEntity
  8
0
100
AcDbVertex
100
AcDb2dVertex
 10
1628.090996631779
 20
-530.3522564305749
 30
0.0
  0
SEQEND
  5
132
330
123
100
AcDbEntity
  8
0
  0
POLYLINE
  5
133
330
1F
100
AcDbEntity
  8
0
100
AcDb2dPolyline
 66
     1
 10
0.0
 20
0.0
 30
0.0
 70
     1
  0
VERTEX
  5
134
330
133
100
AcDbEntity
  8
0
100
AcDbVertex
100
AcDb2dVertex
 10
1271.624601861235
 20
-258.0054716748159
 30
0.0
  0
VERTEX
  5
135
330
133
100
AcDbEntity
  8
0
100
AcDbVertex
100
AcDb2dVertex
 10
915.1582070907494
 20
-110.352256430725
 30
0.0
  0
VERTEX
  5
136
330
133
100
AcDbEntity
  8
0
100
AcDbVertex
100
AcDb2dVertex
 10
928.2608268058073
 20
-97.2496367156634
 30
0.0
  0
VERTEX
  5
137
330
133
100
AcDbEntity
  8
0
100
AcDbVertex
100
AcDb2dVertex
 10
920.6071581585009
 20
-78.77204606543896
 30
0.0
  0
VERTEX
  5
138
330
133
100
AcDbEntity
  8
0
100
AcDbVertex
100
AcDb2dVertex
 10
932.6702619648859
 20
-66.70894225904935
 30
0.0
  0
VERTEX
  5
139
330
133
100
AcDbEntity
  8
0
100
AcDbVertex
100
AcDb2dVertex
 10
940.3239306121924
 20
-85.18653290927234
 30
0.0
  0
VERTEX
  5
13A
330
133
100
AcDbEntity
  8
0
100
AcDbVertex
100
AcDb2dVertex
 10
953.4265503272502
 20
-72.08391319421071
 30
0.0
  0
VERTEX
  5
13B
330
133
100
AcDbEntity
  8
0
100
AcDbVertex
100
AcDb2dVertex
 10
1271.624601861222
 20
-203.8858616601997
 30
0.0
  0
VERTEX
  5
13C
330
133
100
AcDbEntity
  8
0
100
AcDbVertex
100
AcDb2dVertex
 10
1589.822653395144
 20
-72.08391319407635
 30
0.0
  0
VERTEX
  5
13D
330
133
100
AcDbEntity
  8
0
100
AcDbVertex
100
AcDb2dVertex
 10
1602.925273110192
 20
-85.18653290914796
 30
0.0
  0
VERTEX
  5
13E
330
133
100
AcDbEntity
  8
0
100
AcDbVertex
100
AcDb2dVertex
 10
1584.447682459969
 20
-92.84020155645224
 30
0.0
  0
VERTEX
  5
13F
330
133
100
AcDbEntity
  8
0
100
AcDbVertex
100
AcDb2dVertex
 10
1596.510786266357
 20
-104.9033053628394
 30
0.0
  0
VERTEX
  5
140
330
133
100
AcDbEntity
  8
0
100
AcDbVertex
100
AcDb2dVertex
 10
1614.988376916581
 20
-97.24963671553441
 30
0.0
  0
VERTEX
  5
141
330
133
100
AcDbEntity
  8
0
100
AcDbVertex
100
AcDb2dVertex
 10
1628.090996631662
 20
-110.3522564305743
 30
0.0
  0
SEQEND
  5
142
330
133
100
AcDbEntity
  8
0
  0
POLYLINE
  5
143
330
1F
100
AcDbEntity
  8
0
100
AcDb2dPolyline
 66
     1
 10
0.0
 20
0.0
 30
0.0
 70
     1
  0
VERTEX
  5
144
330
143
100
AcDbEntity
  8
0
100
AcDbVertex
100
AcDb2dVertex
 10
1271.624601861168
 20
-18.00547167481565
 30
0.0
  0
VERTEX
  5
145
330
143
100
AcDbEntity
  8
0
100
AcDbVertex
100
AcDb2dVertex
 10
915.1582070906825
 20
129.6477435692753
 30
0.0
  0
VERTEX
  5
146
330
143
100
AcDbEntity
  8
0
100
AcDbVertex
100
AcDb2dVertex
 10
928.2608268057403
 20
142.7503632843369
 30
0.0
  0
VERTEX
  5
147
330
143
100
AcDbEntity
  8
0
100
AcDbVertex
100
AcDb2dVertex
 10
920.607158158434
 20
161.2279539345613
 30
0.0
  0
VERTEX
  5
148
330
143
100
AcDbEntity
  8
0
100
AcDbVertex
100
AcDb2dVertex
 10
932.6702619648188
 20
173.2910577409509
 30
0.0
  0
VERTEX
  5
149
330
143
100
AcDbEntity
  8
0
100
AcDbVertex
100
AcDb2dVertex
 10
940.3239306121254
 20
154.813467090728
 30
0.0
  0
VERTEX
  5
14A
330
143
100
AcDbEntity
  8
0
100
AcDbVertex
100
AcDb2dVertex
 10
953.4265503271831
 20
167.9160868057896
 30
0.0
  0
VERTEX
  5
14B
330
143
100
AcDbEntity
  8
0
100
AcDbVertex
100
AcDb2dVertex
 10
1271.624601861155
 20
36.11413833980062
 30
0.0
  0
VERTEX
  5
14C
330
143
100
AcDbEntity
  8
0
100
AcDbVertex
100
AcDb2dVertex
 10
1589.822653395076
 20
167.916086805924
 30
0.0
  0
VERTEX
  5
14D
330
143
100
AcDbEntity
  8
0
100
AcDbVertex
100
AcDb2dVertex
 10
1602.925273110125
 20
154.8134670908523
 30
0.0
  0
VERTEX
  5
14E
330
143
100
AcDbEntity
  8
0
100
AcDbVertex
100
AcDb2dVertex
 10
1584.447682459902
 20
147.159798443548
 30
0.0
  0
VERTEX
  5
14F
330
143
100
AcDbEntity
  8
0
100
AcDbVertex
100
AcDb2dVertex
 10
1596.51078626629
 20
135.0966946371609
 30
0.0
  0
VERTEX
  5
150
330
143
100
AcDbEntity
  8
0
100
AcDbVertex
100
AcDb2dVertex
 10
1614.988376916515
 20
142.7503632844659
 30
0.0
  0
VERTEX
  5
151
330
143
100
AcDbEntity
  8
0
100
AcDbVertex
100
AcDb2dVertex
 10
1628.090996631595
 20
129.647743569426
 30
0.0
  0
SEQEND
  5
152
330
143
100
AcDbEntity
  8
0
  0
POLYLINE
  5
153
330
1F
100
AcDbEntity
  8
0
100
AcDb2dPolyline
 66
     1
 10
0.0
 20
0.0
 30
0.0
 70
     1
  0
VERTEX
  5
154
330
153
100
AcDbEntity
  8
0
100
AcDbVertex
100
AcDb2dVertex
 10
-13.68725660716203
 20
-890.6721459425733
 30
0.0
  0
VERTEX
  5
155
330
153
100
AcDbEntity
  8
0
100
AcDbVertex
100
AcDb2dVertex
 10
-13.68725660716203
 20
-863.3388126092398
 30
0.0
  0
VERTEX
  5
156
330
153
100
AcDbEntity
  8
0
100
AcDbVertex
100
AcDb2dVertex
 10
4.312743392838024
 20
-863.3388126092394
 30
0.0
  0
VERTEX
  5
157
330
153
100
AcDbEntity
  8
0
100
AcDbVertex
100
AcDb2dVertex
 10
4.312743392838024
 20
-818.0054792759064
 30
0.0
  0
VERTEX
  5
158
330
153
100
AcDbEntity
  8
0
100
AcDbVertex
100
AcDb2dVertex
 10
-69.08273888839865
 20
-818.0054792759064
 30
0.0
  0
VERTEX
  5
159
330
153
100
AcDbEntity
  8
0
100
AcDbVertex
100
AcDb2dVertex
 10
-69.08273915662276
 20
-836.0054792759064
 30
0.0
  0
VERTEX
  5
15A
330
153
100
AcDbEntity
  8
0
100
AcDbVertex
100
AcDb2dVertex
 10
-142.4782214378592
 20
-836.0054792759064
 30
0.0
  0
VERTEX
  5
15B
330
153
100
AcDbEntity
  8
0
100
AcDbVertex
100
AcDb2dVertex
 10
-142.4782214378592
 20
-818.0054792759064
 30
0.0
  0
VERTEX
  5
15C
330
153
100
AcDbEntity
  8
0
100
AcDbVertex
100
AcDb2dVertex
 10
-215.87370398732
 20
-818.0054792759064
 30
0.0
  0
VERTEX
  5
15D
330
153
100
AcDbEntity
  8
0
100
AcDbVertex
100
AcDb2dVertex
 10
-215.8737042555441
 20
-836.0054792759064
 30
0.0
  0
VERTEX
  5
15E
330
153
100
AcDbEntity
  8
0
100
AcDbVertex
100
AcDb2dVertex
 10
-289.2691865367808
 20
-836.0054792759064
 30
0.0
  0
VERTEX
  5
15F
330
153
100
AcDbEntity
  8
0
100
AcDbVertex
100
AcDb2dVertex
 10
-289.2691865367808
 20
-818.0054792759064
 30
0.0
  0
VERTEX
  5
160
330
153
100
AcDbEntity
  8
0
100
AcDbVertex
100
AcDb2dVertex
 10
-362.6646690862416
 20
-818.0054792759064
 30
0.0
  0
VERTEX
  5
161
330
153
100
AcDbEntity
  8
0
100
AcDbVertex
100
AcDb2dVertex
 10
-362.6646693544657
 20
-836.0054792759064
 30
0.0
  0
VERTEX
  5
162
330
153
100
AcDbEntity
  8
0
100
AcDbVertex
100
AcDb2dVertex
 10
-436.0601516357024
 20
-836.0054792759064
 30
0.0
  0
VERTEX
  5
163
330
153
100
AcDbEntity
  8
0
100
AcDbVertex
100
AcDb2dVertex
 10
-436.0601516357024
 20
-818.0054792759064
 30
0.0
  0
VERTEX
  5
164
330
153
100
AcDbEntity
  8
0
100
AcDbVertex
100
AcDb2dVertex
 10
-509.4556341851631
 20
-818.0054792759064
 30
0.0
  0
VERTEX
  5
165
330
153
100
AcDbEntity
  8
0
100
AcDbVertex
100
AcDb2dVertex
 10
-509.4556344533873
 20
-836.0054792759064
 30
0.0
  0
VERTEX
  5
166
330
153
100
AcDbEntity
  8
0
100
AcDbVertex
100
AcDb2dVertex
 10
-582.8511167346239
 20
-836.0054792759064
 30
0.0
  0
VERTEX
  5
167
330
153
100
AcDbEntity
  8
0
100
AcDbVertex
100
AcDb2dVertex
 10
-582.8511167346239
 20
-818.0054792759064
 30
0.0
  0
VERTEX
  5
168
330
153
100
AcDbEntity
  8
0
100
AcDbVertex
100
AcDb2dVertex
 10
-656.2465992840846
 20
-818.0054792759064
 30
0.0
  0
VERTEX
  5
169
330
153
100
AcDbEntity
  8
0
100
AcDbVertex
100
AcDb2dVertex
 10
-656.2465995523088
 20
-836.0054792759064
 30
0.0
  0
VERTEX
  5
16A
330
153
100
AcDbEntity
  8
0
100
AcDbVertex
100
AcDb2dVertex
 10
-729.6420818335455
 20
-836.0054792759064
 30
0.0
  0
VERTEX
  5
16B
330
153
100
AcDbEntity
  8
0
100
AcDbVertex
100
AcDb2dVertex
 10
-729.6420818335455
 20
-818.0054792759064
 30
0.0
  0
VERTEX
  5
16C
330
153
100
AcDbEntity
  8
0
100
AcDbVertex
100
AcDb2dVertex
 10
-803.0375643830062
 20
-818.0054792759064
 30
0.0
  0
VERTEX
  5
16D
330
153
100
AcDbEntity
  8
0
100
AcDbVertex
100
AcDb2dVertex
 10
-803.0375646512302
 20
-836.0054792759064
 30
0.0
  0
VERTEX
  5
16E
330
153
100
AcDbEntity
  8
0
100
AcDbVertex
100
AcDb2dVertex
 10
-876.4330469324668
 20
-836.0054792759064
 30
0.0
  0
VERTEX
  5
16F
330
153
100
AcDbEntity
  8
0
100
AcDbVertex
100
AcDb2dVertex
 10
-876.4330469324668
 20
-863.3388126092398
 30
0.0
  0
VERTEX
  5
170
330
153
100
AcDbEntity
  8
0
100
AcDbVertex
100
AcDb2dVertex
 10
-858.4330472006911
 20
-863.3388126092398
 30
0.0
  0
VERTEX
  5
171
330
153
100
AcDbEntity
  8
0
100
AcDbVertex
100
AcDb2dVertex
 10
-858.4330472006911
 20
-890.6721459425733
 30
0.0
  0
VERTEX
  5
172
330
153
100
AcDbEntity
  8
0
100
AcDbVertex
100
AcDb2dVertex
 10
-876.4330472006909
 20
-890.6721459425733
 30
0.0
  0
VERTEX
  5
173
330
153
100
AcDbEntity
  8
0
100
AcDbVertex
100
AcDb2dVertex
 10
-876.4330472006909
 20
-918.0054792759064
 30
0.0
  0
VERTEX
  5
174
330
153
100
AcDbEntity
  8
0
100
AcDbVertex
100
AcDb2dVertex
 10
-485.687255643704
 20
-918.0054792759064
 30
0.0
  0
VERTEX
  5
175
330
153
100
AcDbEntity
  8
0
100
AcDbVertex
100
AcDb2dVertex
 10
-485.687255643704
 20
-900.0054792759066
 30
0.0
  0
VERTEX
  5
176
330
153
100
AcDbEntity
  8
0
100
AcDbVertex
100
AcDb2dVertex
 10
-435.6872556437042
 20
-900.0054792759066
 30
0.0
  0
VERTEX
  5
177
330
153
100
AcDbEntity
  8
0
100
AcDbVertex
100
AcDb2dVertex
 10
-435.6872556437042
 20
-918.0054792759064
 30
0.0
  0
VERTEX
  5
178
330
153
100
AcDbEntity
  8
0
100
AcDbVertex
100
AcDb2dVertex
 10
4.312743392838024
 20
-918.0054792759064
 30
0.0
  0
VERTEX
  5
179
330
153
100
AcDbEntity
  8
0
100
AcDbVertex
100
AcDb2dVertex
 10
4.312743392838024
 20
-890.6721459425728
 30
0.0
  0
SEQEND
  5
17A
330
153
100
AcDbEntity
  8
0
  0
POLYLINE
  5
17B
330
1F
100
AcDbEntity
  8
0
100
AcDb2dPolyline
 66
     1
 10
0.0
 20
0.0
 30
0.0
 70
     1
  0
VERTEX
  5
17C
330
17B
100
AcDbEntity
  8
0
100
AcDbVertex
100
AcDb2dVertex
 10
-762.9414670577194
 20
189.3278540574261
 30
0.0
  0
VERTEX
  5
17D
330
17B
100
AcDbEntity
  8
0
100
AcDbVertex
100
AcDb2dVertex
 10
-762.9414670577204
 20
216.6611873907594
 30
0.0
  0
VERTEX
  5
17E
330
17B
100
AcDbEntity
  8
0
100
AcDbVertex
100
AcDb2dVertex
 10
-744.9414670577185
 20
216.6611873907598
 30
0.0
  0
VERTEX
  5
17F
330
17B
100
AcDbEntity
  8
0
100
AcDbVertex
100
AcDb2dVertex
 10
-744.9414670577185
 20
261.9945207240927
 30
0.0
  0
VERTEX
  5
180
330
17B
100
AcDbEntity
  8
0
100
AcDbVertex
100
AcDb2dVertex
 10
-818.336949607147
 20
261.9945207240927
 30
0.0
  0
VERTEX
  5
181
330
17B
100
AcDbEntity
  8
0
100
AcDbVertex
100
AcDb2dVertex
 10
-818.3369496071792
 20
243.9945207240928
 30
0.0
  0
VERTEX
  5
182
330
17B
100
AcDbEntity
  8
0
100
AcDbVertex
100
AcDb2dVertex
 10
-891.7324321566077
 20
243.9945207240928
 30
0.0
  0
VERTEX
  5
183
330
17B
100
AcDbEntity
  8
0
100
AcDbVertex
100
AcDb2dVertex
 10
-891.7324321566077
 20
261.9945207240927
 30
0.0
  0
VERTEX
  5
184
330
17B
100
AcDbEntity
  8
0
100
AcDbVertex
100
AcDb2dVertex
 10
-965.1279147060686
 20
261.9945207240927
 30
0.0
  0
VERTEX
  5
185
330
17B
100
AcDbEntity
  8
0
100
AcDbVertex
100
AcDb2dVertex
 10
-965.1279147061007
 20
243.9945207240928
 30
0.0
  0
VERTEX
  5
186
330
17B
100
AcDbEntity
  8
0
100
AcDbVertex
100
AcDb2dVertex
 10
-1038.523397255529
 20
243.9945207240928
 30
0.0
  0
VERTEX
  5
187
330
17B
100
AcDbEntity
  8
0
100
AcDbVertex
100
AcDb2dVertex
 10
-1038.523397255529
 20
261.9945207240927
 30
0.0
  0
VERTEX
  5
188
330
17B
100
AcDbEntity
  8
0
100
AcDbVertex
100
AcDb2dVertex
 10
-1111.91887980499
 20
261.9945207240927
 30
0.0
  0
VERTEX
  5
189
330
17B
100
AcDbEntity
  8
0
100
AcDbVertex
100
AcDb2dVertex
 10
-1111.918879805022
 20
243.9945207240928
 30
0.0
  0
VERTEX
  5
18A
330
17B
100
AcDbEntity
  8
0
100
AcDbVertex
100
AcDb2dVertex
 10
-1185.314362354451
 20
243.9945207240928
 30
0.0
  0
VERTEX
  5
18B
330
17B
100
AcDbEntity
  8
0
100
AcDbVertex
100
AcDb2dVertex
 10
-1185.314362354451
 20
261.9945207240927
 30
0.0
  0
VERTEX
  5
18C
330
17B
100
AcDbEntity
  8
0
100
AcDbVertex
100
AcDb2dVertex
 10
-1258.709844903911
 20
261.9945207240927
 30
0.0
  0
VERTEX
  5
18D
330
17B
100
AcDbEntity
  8
0
100
AcDbVertex
100
AcDb2dVertex
 10
-1258.709844903943
 20
243.9945207240928
 30
0.0
  0
VERTEX
  5
18E
330
17B
100
AcDbEntity
  8
0
100
AcDbVertex
100
AcDb2dVertex
 10
-1332.105327453372
 20
243.9945207240928
 30
0.0
  0
VERTEX
  5
18F
330
17B
100
AcDbEntity
  8
0
100
AcDbVertex
100
AcDb2dVertex
 10
-1332.105327453372
 20
261.9945207240927
 30
0.0
  0
VERTEX
  5
190
330
17B
100
AcDbEntity
  8
0
100
AcDbVertex
100
AcDb2dVertex
 10
-1405.500810002833
 20
261.9945207240927
 30
0.0
  0
VERTEX
  5
191
330
17B
100
AcDbEntity
  8
0
100
AcDbVertex
100
AcDb2dVertex
 10
-1405.500810002865
 20
243.9945207240928
 30
0.0
  0
VERTEX
  5
192
330
17B
100
AcDbEntity
  8
0
100
AcDbVertex
100
AcDb2dVertex
 10
-1478.896292552294
 20
243.9945207240928
 30
0.0
  0
VERTEX
  5
193
330
17B
100
AcDbEntity
  8
0
100
AcDbVertex
100
AcDb2dVertex
 10
-1478.896292552294
 20
261.9945207240927
 30
0.0
  0
VERTEX
  5
194
330
17B
100
AcDbEntity
  8
0
100
AcDbVertex
100
AcDb2dVertex
 10
-1552.291775101754
 20
261.9945207240927
 30
0.0
  0
VERTEX
  5
195
330
17B
100
AcDbEntity
  8
0
100
AcDbVertex
100
AcDb2dVertex
 10
-1552.291775101787
 20
243.9945207240928
 30
0.0
  0
VERTEX
  5
196
330
17B
100
AcDbEntity
  8
0
100
AcDbVertex
100
AcDb2dVertex
 10
-1625.687257651215
 20
243.9945207240928
 30
0.0
  0
VERTEX
  5
197
330
17B
100
AcDbEntity
  8
0
100
AcDbVertex
100
AcDb2dVertex
 10
-1625.687257651215
 20
216.6611873907594
 30
0.0
  0
VERTEX
  5
198
330
17B
100
AcDbEntity
  8
0
100
AcDbVertex
100
AcDb2dVertex
 10
-1607.687257651247
 20
216.6611873907594
 30
0.0
  0
VERTEX
  5
199
330
17B
100
AcDbEntity
  8
0
100
AcDbVertex
100
AcDb2dVertex
 10
-1607.687257651247
 20
189.3278540574261
 30
0.0
  0
VERTEX
  5
19A
330
17B
100
AcDbEntity
  8
0
100
AcDbVertex
100
AcDb2dVertex
 10
-1625.687257651248
 20
189.3278540574261
 30
0.0
  0
VERTEX
  5
19B
330
17B
100
AcDbEntity
  8
0
100
AcDbVertex
100
AcDb2dVertex
 10
-1625.687257651248
 20
161.9945207240927
 30
0.0
  0
VERTEX
  5
19C
330
17B
100
AcDbEntity
  8
0
100
AcDbVertex
100
AcDb2dVertex
 10
-1234.941466094261
 20
161.9945207240927
 30
0.0
  0
VERTEX
  5
19D
330
17B
100
AcDbEntity
  8
0
100
AcDbVertex
100
AcDb2dVertex
 10
-1234.941466094261
 20
179.9945207240927
 30
0.0
  0
VERTEX
  5
19E
330
17B
100
AcDbEntity
  8
0
100
AcDbVertex
100
AcDb2dVertex
 10
-1184.941466094229
 20
179.9945207240927
 30
0.0
  0
VERTEX
  5
19F
330
17B
100
AcDbEntity
  8
0
100
AcDbVertex
100
AcDb2dVertex
 10
-1184.941466094229
 20
161.9945207240927
 30
0.0
  0
VERTEX
  5
1A0
330
17B
100
AcDbEntity
  8
0
100
AcDbVertex
100
AcDb2dVertex
 10
-744.9414670576863
 20
161.9945207240927
 30
0.0
  0
VERTEX
  5
1A1
330
17B
100
AcDbEntity
  8
0
100
AcDbVertex
100
AcDb2dVertex
 10
-744.9414670576863
 20
189.3278540574264
 30
0.0
  0
SEQEND
  5
1A2
330
17B
100
AcDbEntity
  8
0
  0
POLYLINE
  5
1A3
330
1F
100
AcDbEntity
  8
0
100
AcDb2dPolyline
 66
     1
 10
0.0
 20
0.0
 30
0.0
 70
     1
  0
VERTEX
  5
1A4
330
1A3
100
AcDbEntity
  8
0
100
AcDbVertex
100
AcDb2dVertex
 10
-742.6420821017665
 20
-668.087256220489
 30
0.0
  0
VERTEX
  5
1A5
330
1A3
100
AcDbEntity
  8
0
100
AcDbVertex
100
AcDb2dVertex
 10
-816.0375646512272
 20
-668.087256220489
 30
0.0
  0
VERTEX
  5
1A6
330
1A3
100
AcDbEntity
  8
0
100
AcDbVertex
100
AcDb2dVertex
 10
-816.0375646511931
 20
-650.0872562204804
 30
0.0
  0
VERTEX
  5
1A7
330
1A3
100
AcDbEntity
  8
0
100
AcDbVertex
100
AcDb2dVertex
 10
-889.4330472006545
 20
-650.0872562204804
 30
0.0
  0
VERTEX
  5
1A8
330
1A3
100
AcDbEntity
  8
0
100
AcDbVertex
100
AcDb2dVertex
 10
-889.4330472006545
 20
-532.1690339100226
 30
0.0
  0
VERTEX
  5
1A9
330
1A3
100
AcDbEntity
  8
0
100
AcDbVertex
100
AcDb2dVertex
 10
-1008.058468245703
 20
-532.1690339100226
 30
0.0
  0
VERTEX
  5
1AA
330
1A3
100
AcDbEntity
  8
0
100
AcDbVertex
100
AcDb2dVertex
 10
-1008.058468245737
 20
-550.169033910034
 30
0.0
  0
VERTEX
  5
1AB
330
1A3
100
AcDbEntity
  8
0
100
AcDbVertex
100
AcDb2dVertex
 10
-1076.683889290759
 20
-550.1690339100243
 30
0.0
  0
VERTEX
  5
1AC
330
1A3
100
AcDbEntity
  8
0
100
AcDbVertex
100
AcDb2dVertex
 10
-1076.683889290758
 20
-532.1690339100226
 30
0.0
  0
VERTEX
  5
1AD
330
1A3
100
AcDbEntity
  8
0
100
AcDbVertex
100
AcDb2dVertex
 10
-1145.309310335814
 20
-532.1690339100226
 30
0.0
  0
VERTEX
  5
1AE
330
1A3
100
AcDbEntity
  8
0
100
AcDbVertex
100
AcDb2dVertex
 10
-1145.309310335848
 20
-550.1690339100326
 30
0.0
  0
VERTEX
  5
1AF
330
1A3
100
AcDbEntity
  8
0
100
AcDbVertex
100
AcDb2dVertex
 10
-1213.93473138087
 20
-550.1690339100243
 30
0.0
  0
VERTEX
  5
1B0
330
1A3
100
AcDbEntity
  8
0
100
AcDbVertex
100
AcDb2dVertex
 10
-1213.93473138087
 20
-532.1690339100239
 30
0.0
  0
VERTEX
  5
1B1
330
1A3
100
AcDbEntity
  8
0
100
AcDbVertex
100
AcDb2dVertex
 10
-1282.560152425959
 20
-532.1690339100267
 30
0.0
  0
VERTEX
  5
1B2
330
1A3
100
AcDbEntity
  8
0
100
AcDbVertex
100
AcDb2dVertex
 10
-1282.56015242596
 20
-550.1690339100311
 30
0.0
  0
VERTEX
  5
1B3
330
1A3
100
AcDbEntity
  8
0
100
AcDbVertex
100
AcDb2dVertex
 10
-1351.185573471015
 20
-550.1690339100326
 30
0.0
  0
VERTEX
  5
1B4
330
1A3
100
AcDbEntity
  8
0
100
AcDbVertex
100
AcDb2dVertex
 10
-1351.185573471015
 20
-532.1690339100267
 30
0.0
  0
VERTEX
  5
1B5
330
1A3
100
AcDbEntity
  8
0
100
AcDbVertex
100
AcDb2dVertex
 10
-1419.810994516071
 20
-532.1690339100267
 30
0.0
  0
VERTEX
  5
1B6
330
1A3
100
AcDbEntity
  8
0
100
AcDbVertex
100
AcDb2dVertex
 10
-1419.810994516071
 20
-550.1690339100289
 30
0.0
  0
VERTEX
  5
1B7
330
1A3
100
AcDbEntity
  8
0
100
AcDbVertex
100
AcDb2dVertex
 10
-1488.436415561127
 20
-550.1690339100282
 30
0.0
  0
VERTEX
  5
1B8
330
1A3
100
AcDbEntity
  8
0
100
AcDbVertex
100
AcDb2dVertex
 10
-1488.436415561126
 20
-532.1690339100267
 30
0.0
  0
VERTEX
  5
1B9
330
1A3
100
AcDbEntity
  8
0
100
AcDbVertex
100
AcDb2dVertex
 10
-1557.061836606182
 20
-532.1690339100325
 30
0.0
  0
VERTEX
  5
1BA
330
1A3
100
AcDbEntity
  8
0
100
AcDbVertex
100
AcDb2dVertex
 10
-1557.061836606182
 20
-550.1690339100276
 30
0.0
  0
VERTEX
  5
1BB
330
1A3
100
AcDbEntity
  8
0
100
AcDbVertex
100
AcDb2dVertex
 10
-1607.687257651238
 20
-550.1690339100334
 30
0.0
  0
VERTEX
  5
1BC
330
1A3
100
AcDbEntity
  8
0
100
AcDbVertex
100
AcDb2dVertex
 10
-1607.68725765124
 20
-620.1363229832077
 30
0.0
  0
VERTEX
  5
1BD
330
1A3
100
AcDbEntity
  8
0
100
AcDbVertex
100
AcDb2dVertex
 10
-1625.68725765124
 20
-620.136322983207
 30
0.0
  0
VERTEX
  5
1BE
330
1A3
100
AcDbEntity
  8
0
100
AcDbVertex
100
AcDb2dVertex
 10
-1625.687257651208
 20
-690.1036120563731
 30
0.0
  0
VERTEX
  5
1BF
330
1A3
100
AcDbEntity
  8
0
100
AcDbVertex
100
AcDb2dVertex
 10
-1607.687257651243
 20
-690.1036120563822
 30
0.0
  0
VERTEX
  5
1C0
330
1A3
100
AcDbEntity
  8
0
100
AcDbVertex
100
AcDb2dVertex
 10
-1607.687257651245
 20
-760.0709011295567
 30
0.0
  0
VERTEX
  5
1C1
330
1A3
100
AcDbEntity
  8
0
100
AcDbVertex
100
AcDb2dVertex
 10
-1625.687257651245
 20
-760.0709011295567
 30
0.0
  0
VERTEX
  5
1C2
330
1A3
100
AcDbEntity
  8
0
100
AcDbVertex
100
AcDb2dVertex
 10
-1625.687257651248
 20
-830.038190202731
 30
0.0
  0
VERTEX
  5
1C3
330
1A3
100
AcDbEntity
  8
0
100
AcDbVertex
100
AcDb2dVertex
 10
-1607.687257651247
 20
-830.0381902027234
 30
0.0
  0
VERTEX
  5
1C4
330
1A3
100
AcDbEntity
  8
0
100
AcDbVertex
100
AcDb2dVertex
 10
-1607.68725765125
 20
-900.0054792759062
 30
0.0
  0
VERTEX
  5
1C5
330
1A3
100
AcDbEntity
  8
0
100
AcDbVertex
100
AcDb2dVertex
 10
-1557.061836606194
 20
-900.0054792758998
 30
0.0
  0
VERTEX
  5
1C6
330
1A3
100
AcDbEntity
  8
0
100
AcDbVertex
100
AcDb2dVertex
 10
-1557.061836606194
 20
-918.0054792759007
 30
0.0
  0
VERTEX
  5
1C7
330
1A3
100
AcDbEntity
  8
0
100
AcDbVertex
100
AcDb2dVertex
 10
-1488.436415561139
 20
-918.0054792759015
 30
0.0
  0
VERTEX
  5
1C8
330
1A3
100
AcDbEntity
  8
0
100
AcDbVertex
100
AcDb2dVertex
 10
-1488.436415561138
 20
-900.0054792758998
 30
0.0
  0
VERTEX
  5
1C9
330
1A3
100
AcDbEntity
  8
0
100
AcDbVertex
100
AcDb2dVertex
 10
-1419.810994516083
 20
-900.0054792758998
 30
0.0
  0
VERTEX
  5
1CA
330
1A3
100
AcDbEntity
  8
0
100
AcDbVertex
100
AcDb2dVertex
 10
-1419.810994516083
 20
-918.0054792759022
 30
0.0
  0
VERTEX
  5
1CB
330
1A3
100
AcDbEntity
  8
0
100
AcDbVertex
100
AcDb2dVertex
 10
-1351.185573471028
 20
-918.0054792759036
 30
0.0
  0
VERTEX
  5
1CC
330
1A3
100
AcDbEntity
  8
0
100
AcDbVertex
100
AcDb2dVertex
 10
-1351.185573471027
 20
-900.0054792758998
 30
0.0
  0
VERTEX
  5
1CD
330
1A3
100
AcDbEntity
  8
0
100
AcDbVertex
100
AcDb2dVertex
 10
-1282.560152425972
 20
-900.0054792758998
 30
0.0
  0
VERTEX
  5
1CE
330
1A3
100
AcDbEntity
  8
0
100
AcDbVertex
100
AcDb2dVertex
 10
-1282.560152425972
 20
-918.0054792759042
 30
0.0
  0
VERTEX
  5
1CF
330
1A3
100
AcDbEntity
  8
0
100
AcDbVertex
100
AcDb2dVertex
 10
-1213.934731380916
 20
-918.005479275905
 30
0.0
  0
VERTEX
  5
1D0
330
1A3
100
AcDbEntity
  8
0
100
AcDbVertex
100
AcDb2dVertex
 10
-1213.934731380916
 20
-900.0054792758998
 30
0.0
  0
VERTEX
  5
1D1
330
1A3
100
AcDbEntity
  8
0
100
AcDbVertex
100
AcDb2dVertex
 10
-1145.30931033586
 20
-900.0054792759005
 30
0.0
  0
VERTEX
  5
1D2
330
1A3
100
AcDbEntity
  8
0
100
AcDbVertex
100
AcDb2dVertex
 10
-1145.30931033586
 20
-918.0054792759057
 30
0.0
  0
VERTEX
  5
1D3
330
1A3
100
AcDbEntity
  8
0
100
AcDbVertex
100
AcDb2dVertex
 10
-1076.683889290805
 20
-918.0054792759064
 30
0.0
  0
VERTEX
  5
1D4
330
1A3
100
AcDbEntity
  8
0
100
AcDbVertex
100
AcDb2dVertex
 10
-1076.683889290805
 20
-900.0054792759055
 30
0.0
  0
VERTEX
  5
1D5
330
1A3
100
AcDbEntity
  8
0
100
AcDbVertex
100
AcDb2dVertex
 10
-1008.058468245749
 20
-900.0054792759055
 30
0.0
  0
VERTEX
  5
1D6
330
1A3
100
AcDbEntity
  8
0
100
AcDbVertex
100
AcDb2dVertex
 10
-1008.058468245749
 20
-918.0054792759072
 30
0.0
  0
VERTEX
  5
1D7
330
1A3
100
AcDbEntity
  8
0
100
AcDbVertex
100
AcDb2dVertex
 10
-889.4330472006909
 20
-918.0054792759064
 30
0.0
  0
VERTEX
  5
1D8
330
1A3
100
AcDbEntity
  8
0
100
AcDbVertex
100
AcDb2dVertex
 10
-889.4330472006909
 20
-800.0872562204894
 30
0.0
  0
VERTEX
  5
1D9
330
1A3
100
AcDbEntity
  8
0
100
AcDbVertex
100
AcDb2dVertex
 10
-816.0375646512298
 20
-800.0872562204894
 30
0.0
  0
VERTEX
  5
1DA
330
1A3
100
AcDbEntity
  8
0
100
AcDbVertex
100
AcDb2dVertex
 10
-816.0375646511959
 20
-782.0872562204808
 30
0.0
  0
VERTEX
  5
1DB
330
1A3
100
AcDbEntity
  8
0
100
AcDbVertex
100
AcDb2dVertex
 10
-742.6420821017689
 20
-782.0872562204808
 30
0.0
  0
VERTEX
  5
1DC
330
1A3
100
AcDbEntity
  8
0
100
AcDbVertex
100
AcDb2dVertex
 10
-742.6420821017348
 20
-800.0872562204811
 30
0.0
  0
VERTEX
  5
1DD
330
1A3
100
AcDbEntity
  8
0
100
AcDbVertex
100
AcDb2dVertex
 10
-669.2465995522739
 20
-800.0872562204811
 30
0.0
  0
VERTEX
  5
1DE
330
1A3
100
AcDbEntity
  8
0
100
AcDbVertex
100
AcDb2dVertex
 10
-669.2465995522739
 20
-782.0872562204808
 30
0.0
  0
VERTEX
  5
1DF
330
1A3
100
AcDbEntity
  8
0
100
AcDbVertex
100
AcDb2dVertex
 10
-595.8511170028469
 20
-782.0872562204808
 30
0.0
  0
VERTEX
  5
1E0
330
1A3
100
AcDbEntity
  8
0
100
AcDbVertex
100
AcDb2dVertex
 10
-595.8511170028128
 20
-800.0872562204811
 30
0.0
  0
VERTEX
  5
1E1
330
1A3
100
AcDbEntity
  8
0
100
AcDbVertex
100
AcDb2dVertex
 10
-522.4556344533519
 20
-800.0872562204811
 30
0.0
  0
VERTEX
  5
1E2
330
1A3
100
AcDbEntity
  8
0
100
AcDbVertex
100
AcDb2dVertex
 10
-522.4556344533519
 20
-782.0872562204808
 30
0.0
  0
VERTEX
  5
1E3
330
1A3
100
AcDbEntity
  8
0
100
AcDbVertex
100
AcDb2dVertex
 10
-449.0601519039248
 20
-782.0872562204808
 30
0.0
  0
VERTEX
  5
1E4
330
1A3
100
AcDbEntity
  8
0
100
AcDbVertex
100
AcDb2dVertex
 10
-449.0601519038907
 20
-800.0872562204811
 30
0.0
  0
VERTEX
  5
1E5
330
1A3
100
AcDbEntity
  8
0
100
AcDbVertex
100
AcDb2dVertex
 10
-375.6646693544299
 20
-800.0872562204811
 30
0.0
  0
VERTEX
  5
1E6
330
1A3
100
AcDbEntity
  8
0
100
AcDbVertex
100
AcDb2dVertex
 10
-375.6646693544299
 20
-782.0872562204808
 30
0.0
  0
VERTEX
  5
1E7
330
1A3
100
AcDbEntity
  8
0
100
AcDbVertex
100
AcDb2dVertex
 10
-302.2691868050029
 20
-782.0872562204808
 30
0.0
  0
VERTEX
  5
1E8
330
1A3
100
AcDbEntity
  8
0
100
AcDbVertex
100
AcDb2dVertex
 10
-302.2691868049688
 20
-800.0872562204811
 30
0.0
  0
VERTEX
  5
1E9
330
1A3
100
AcDbEntity
  8
0
100
AcDbVertex
100
AcDb2dVertex
 10
-228.8737042555078
 20
-800.0872562204811
 30
0.0
  0
VERTEX
  5
1EA
330
1A3
100
AcDbEntity
  8
0
100
AcDbVertex
100
AcDb2dVertex
 10
-228.8737042555078
 20
-782.0872562204808
 30
0.0
  0
VERTEX
  5
1EB
330
1A3
100
AcDbEntity
  8
0
100
AcDbVertex
100
AcDb2dVertex
 10
-155.4782217060809
 20
-782.0872562204808
 30
0.0
  0
VERTEX
  5
1EC
330
1A3
100
AcDbEntity
  8
0
100
AcDbVertex
100
AcDb2dVertex
 10
-155.4782217060468
 20
-800.0872562204811
 30
0.0
  0
VERTEX
  5
1ED
330
1A3
100
AcDbEntity
  8
0
100
AcDbVertex
100
AcDb2dVertex
 10
-82.08273915658587
 20
-800.0872562204811
 30
0.0
  0
VERTEX
  5
1EE
330
1A3
100
AcDbEntity
  8
0
100
AcDbVertex
100
AcDb2dVertex
 10
-82.08273915661998
 20
-782.0872562204892
 30
0.0
  0
VERTEX
  5
1EF
330
1A3
100
AcDbEntity
  8
0
100
AcDbVertex
100
AcDb2dVertex
 10
-8.68725660715884
 20
-782.0872562204892
 30
0.0
  0
VERTEX
  5
1F0
330
1A3
100
AcDbEntity
  8
0
100
AcDbVertex
100
AcDb2dVertex
 10
-8.68725660715884
 20
-668.087256220489
 30
0.0
  0
VERTEX
  5
1F1
330
1A3
100
AcDbEntity
  8
0
100
AcDbVertex
100
AcDb2dVertex
 10
-82.08273915658552
 20
-668.0872562204808
 30
0.0
  0
VERTEX
  5
1F2
330
1A3
100
AcDbEntity
  8
0
100
AcDbVertex
100
AcDb2dVertex
 10
-82.08273915658552
 20
-650.0872562204804
 30
0.0
  0
VERTEX
  5
1F3
330
1A3
100
AcDbEntity
  8
0
100
AcDbVertex
100
AcDb2dVertex
 10
-155.4782217060461
 20
-650.0872562204804
 30
0.0
  0
VERTEX
  5
1F4
330
1A3
100
AcDbEntity
  8
0
100
AcDbVertex
100
AcDb2dVertex
 10
-155.4782217060802
 20
-668.087256220489
 30
0.0
  0
VERTEX
  5
1F5
330
1A3
100
AcDbEntity
  8
0
100
AcDbVertex
100
AcDb2dVertex
 10
-228.873704255541
 20
-668.087256220489
 30
0.0
  0
VERTEX
  5
1F6
330
1A3
100
AcDbEntity
  8
0
100
AcDbVertex
100
AcDb2dVertex
 10
-228.8737042555069
 20
-650.0872562204804
 30
0.0
  0
VERTEX
  5
1F7
330
1A3
100
AcDbEntity
  8
0
100
AcDbVertex
100
AcDb2dVertex
 10
-302.2691868049677
 20
-650.0872562204804
 30
0.0
  0
VERTEX
  5
1F8
330
1A3
100
AcDbEntity
  8
0
100
AcDbVertex
100
AcDb2dVertex
 10
-302.2691868050018
 20
-668.087256220489
 30
0.0
  0
VERTEX
  5
1F9
330
1A3
100
AcDbEntity
  8
0
100
AcDbVertex
100
AcDb2dVertex
 10
-375.6646693544626
 20
-668.087256220489
 30
0.0
  0
VERTEX
  5
1FA
330
1A3
100
AcDbEntity
  8
0
100
AcDbVertex
100
AcDb2dVertex
 10
-375.6646693544285
 20
-650.0872562204804
 30
0.0
  0
VERTEX
  5
1FB
330
1A3
100
AcDbEntity
  8
0
100
AcDbVertex
100
AcDb2dVertex
 10
-449.0601519038893
 20
-650.0872562204804
 30
0.0
  0
VERTEX
  5
1FC
330
1A3
100
AcDbEntity
  8
0
100
AcDbVertex
100
AcDb2dVertex
 10
-449.0601519039234
 20
-668.087256220489
 30
0.0
  0
VERTEX
  5
1FD
330
1A3
100
AcDbEntity
  8
0
100
AcDbVertex
100
AcDb2dVertex
 10
-522.4556344533842
 20
-668.087256220489
 30
0.0
  0
VERTEX
  5
1FE
330
1A3
100
AcDbEntity
  8
0
100
AcDbVertex
100
AcDb2dVertex
 10
-522.4556344533501
 20
-650.0872562204804
 30
0.0
  0
VERTEX
  5
1FF
330
1A3
100
AcDbEntity
  8
0
100
AcDbVertex
100
AcDb2dVertex
 10
-595.8511170028108
 20
-650.0872562204804
 30
0.0
  0
VERTEX
  5
200
330
1A3
100
AcDbEntity
  8
0
100
AcDbVertex
100
AcDb2dVertex
 10
-595.851117002845
 20
-668.087256220489
 30
0.0
  0
VERTEX
  5
201
330
1A3
100
AcDbEntity
  8
0
100
AcDbVertex
100
AcDb2dVertex
 10
-669.2465995523057
 20
-668.087256220489
 30
0.0
  0
VERTEX
  5
202
330
1A3
100
AcDbEntity
  8
0
100
AcDbVertex
100
AcDb2dVertex
 10
-669.2465995522716
 20
-650.0872562204804
 30
0.0
  0
VERTEX
  5
203
330
1A3
100
AcDbEntity
  8
0
100
AcDbVertex
100
AcDb2dVertex
 10
-742.6420821017324
 20
-650.0872562204804
 30
0.0
  0
SEQEND
  5
204
330
1A3
100
AcDbEntity
  8
0
  0
POLYLINE
  5
205
330
1F
100
AcDbEntity
  8
0
100
AcDb2dPolyline
 66
     1
 10
0.0
 20
0.0
 30
0.0
 70
     1
  0
VERTEX
  5
206
330
205
100
AcDbEntity
  8
0
100
AcDbVertex
100
AcDb2dVertex
 10
749.6246259986697
 20
128.9945322613606
 30
0.0
  0
VERTEX
  5
207
330
205
100
AcDbEntity
  8
0
100
AcDbVertex
100
AcDb2dVertex
 10
201.6246187205831
 20
128.9945322622061
 30
0.0
  0
VERTEX
  5
208
330
205
100
AcDbEntity
  8
0
100
AcDbVertex
100
AcDb2dVertex
 10
201.6246187205059
 20
78.99453226220616
 30
0.0
  0
VERTEX
  5
209
330
205
100
AcDbEntity
  8
0
100
AcDbVertex
100
AcDb2dVertex
 10
749.6246259985925
 20
78.9945322613606
 30
0.0
  0
SEQEND
  5
20A
330
205
100
AcDbEntity
  8
0
  0
POLYLINE
  5
20B
330
1F
100
AcDbEntity
  8
0
100
AcDb2dPolyline
 66
     1
 10
0.0
 20
0.0
 30
0.0
  0
VERTEX
  5
20C
330
20B
100
AcDbEntity
  8
0
100
AcDbVertex
100
AcDb2dVertex
 10
-375.0601517260866
 20
-576.7433689142358
 30
0.0
  0
VERTEX
  5
20D
330
20B
100
AcDbEntity
  8
0
100
AcDbVertex
100
AcDb2dVertex
 10
-386.943941293191
 20
-577.6786435369381
 30
0.0
  0
VERTEX
  5
20E
330
20B
100
AcDbEntity
  8
0
100
AcDbVertex
100
AcDb2dVertex
 10
-399.4958456008268
 20
-578.270576419208
 30
0.0
  0
VERTEX
  5
20F
330
20B
100
AcDbEntity
  8
0
100
AcDbVertex
100
AcDb2dVertex
 10
-412.0601492339873
 20
-578.4679523740218
 30
0.0
  0
VERTEX
  5
210
330
20B
100
AcDbEntity
  8
0
100
AcDbVertex
100
AcDb2dVertex
 10
-424.6244528701857
 20
-578.2705766212047
 30
0.0
  0
VERTEX
  5
211
330
20B
100
AcDbEntity
  8
0
100
AcDbVertex
100
AcDb2dVertex
 10
-437.1763570586297
 20
-577.67864394681
 30
0.0
  0
VERTEX
  5
212
330
20B
100
AcDbEntity
  8
0
100
AcDbVertex
100
AcDb2dVertex
 10
-449.0601517714765
 20
-576.7433690212362
 30
0.0
  0
SEQEND
  5
213
330
20B
100
AcDbEntity
  8
0
  0
POLYLINE
  5
214
330
1F
100
AcDbEntity
  8
0
100
AcDb2dPolyline
 66
     1
 10
0.0
 20
0.0
 30
0.0
 70
     1
  0
VERTEX
  5
215
330
214
100
AcDbEntity
  8
0
100
AcDbVertex
100
AcDb2dVertex
 10
749.6246259986697
 20
68.99453226136053
 30
0.0
  0
VERTEX
  5
216
330
214
100
AcDbEntity
  8
0
100
AcDbVertex
100
AcDb2dVertex
 10
201.6246187205831
 20
68.99453226220608
 30
0.0
  0
VERTEX
  5
217
330
214
100
AcDbEntity
  8
0
100
AcDbVertex
100
AcDb2dVertex
 10
201.6246187205059
 20
18.99453226220608
 30
0.0
  0
VERTEX
  5
218
330
214
100
AcDbEntity
  8
0
100
AcDbVertex
100
AcDb2dVertex
 10
749.6246259985925
 20
18.99453226136053
 30
0.0
  0
SEQEND
  5
219
330
214
100
AcDbEntity
  8
0
  0
POLYLINE
  5
21A
330
1F
100
AcDbEntity
  8
0
100
AcDb2dPolyline
 66
     1
 10
0.0
 20
0.0
 30
0.0
 70
     1
  0
VERTEX
  5
21B
330
21A
100
AcDbEntity
  8
0
100
AcDbVertex
100
AcDb2dVertex
 10
749.6246259986697
 20
188.9945322613607
 30
0.0
  0
VERTEX
  5
21C
330
21A
100
AcDbEntity
  8
0
100
AcDbVertex
100
AcDb2dVertex
 10
201.6246187205831
 20
188.9945322622062
 30
0.0
  0
VERTEX
  5
21D
330
21A
100
AcDbEntity
  8
0
100
AcDbVertex
100
AcDb2dVertex
 10
201.6246187205059
 20
138.9945322622062
 30
0.0
  0
VERTEX
  5
21E
330
21A
100
AcDbEntity
  8
0
100
AcDbVertex
100
AcDb2dVertex
 10
749.6246259985925
 20
138.9945322613607
 30
0.0
  0
SEQEND
  5
21F
330
21A
100
AcDbEntity
  8
0
  0
POLYLINE
  5
220
330
1F
100
AcDbEntity
  8
0
100
AcDb2dPolyline
 66
     1
 10
0.0
 20
0.0
 30
0.0
  0
VERTEX
  5
221
330
220
100
AcDbEntity
  8
0
100
AcDbVertex
100
AcDb2dVertex
 10
-473.0601512396297
 20
-576.7433685838828
 30
0.0
  0
VERTEX
  5
222
330
220
100
AcDbEntity
  8
0
100
AcDbVertex
100
AcDb2dVertex
 10
-484.9439408137025
 20
-577.678643118044
 30
0.0
  0
VERTEX
  5
223
330
220
100
AcDbEntity
  8
0
100
AcDbVertex
100
AcDb2dVertex
 10
-497.4958453161523
 20
-578.2705759097859
 30
0.0
  0
VERTEX
  5
224
330
220
100
AcDbEntity
  8
0
100
AcDbVertex
100
AcDb2dVertex
 10
-510.0601489492007
 20
-578.467951765031
 30
0.0
  0
VERTEX
  5
225
330
220
100
AcDbEntity
  8
0
100
AcDbVertex
100
AcDb2dVertex
 10
-522.6244525819752
 20
-578.2705759127564
 30
0.0
  0
VERTEX
  5
226
330
220
100
AcDbEntity
  8
0
100
AcDbVertex
100
AcDb2dVertex
 10
-535.1763567636922
 20
-577.6786431391307
 30
0.0
  0
VERTEX
  5
227
330
220
100
AcDbEntity
  8
0
100
AcDbVertex
100
AcDb2dVertex
 10
-547.0601512850196
 20
-576.7433681899246
 30
0.0
  0
SEQEND
  5
228
330
220
100
AcDbEntity
  8
0
  0
POLYLINE
  5
229
330
1F
100
AcDbEntity
  8
0
100
AcDb2dPolyline
 66
     1
 10
0.0
 20
0.0
 30
0.0
 70
     1
  0
VERTEX
  5
22A
330
229
100
AcDbEntity
  8
0
100
AcDbVertex
100
AcDb2dVertex
 10
749.6246259986697
 20
-51.00546773863962
 30
0.0
  0
VERTEX
  5
22B
330
229
100
AcDbEntity
  8
0
100
AcDbVertex
100
AcDb2dVertex
 10
201.6246187205831
 20
-51.00546773779406
 30
0.0
  0
VERTEX
  5
22C
330
229
100
AcDbEntity
  8
0
100
AcDbVertex
100
AcDb2dVertex
 10
201.6246187205059
 20
-101.0054677377941
 30
0.0
  0
VERTEX
  5
22D
330
229
100
AcDbEntity
  8
0
100
AcDbVertex
100
AcDb2dVertex
 10
749.6246259985925
 20
-101.0054677386396
 30
0.0
  0
SEQEND
  5
22E
330
229
100
AcDbEntity
  8
0
  0
POLYLINE
  5
22F
330
1F
100
AcDbEntity
  8
0
100
AcDb2dPolyline
 66
     1
 10
0.0
 20
0.0
 30
0.0
 70
     1
  0
VERTEX
  5
230
330
22F
100
AcDbEntity
  8
0
100
AcDbVertex
100
AcDb2dVertex
 10
606.7651282975685
 20
-182.0129443533637
 30
0.0
  0
VERTEX
  5
231
330
22F
100
AcDbEntity
  8
0
100
AcDbVertex
100
AcDb2dVertex
 10
614.2373744028383
 20
-183.6695015980647
 30
0.0
  0
VERTEX
  5
232
330
22F
100
AcDbEntity
  8
0
100
AcDbVertex
100
AcDb2dVertex
 10
620.6924131557215
 20
-179.5571885674859
 30
0.0
  0
VERTEX
  5
233
330
22F
100
AcDbEntity
  8
0
100
AcDbVertex
100
AcDb2dVertex
 10
622.3489704004223
 20
-172.0849424622163
 30
0.0
  0
VERTEX
  5
234
330
22F
100
AcDbEntity
  8
0
100
AcDbVertex
100
AcDb2dVertex
 10
618.2366573698433
 20
-165.6299037093341
 30
0.0
  0
VERTEX
  5
235
330
22F
100
AcDbEntity
  8
0
100
AcDbVertex
100
AcDb2dVertex
 10
610.7644112645712
 20
-163.9733464646332
 30
0.0
  0
VERTEX
  5
236
330
22F
100
AcDbEntity
  8
0
100
AcDbVertex
100
AcDb2dVertex
 10
604.3093725116911
 20
-168.0856594952112
 30
0.0
  0
VERTEX
  5
237
330
22F
100
AcDbEntity
  8
0
100
AcDbVertex
100
AcDb2dVertex
 10
602.6528152669895
 20
-175.5579056004811
 30
0.0
  0
SEQEND
  5
238
330
22F
100
AcDbEntity
  8
0
  0
POLYLINE
  5
239
330
1F
100
AcDbEntity
  8
0
100
AcDb2dPolyline
 66
     1
 10
0.0
 20
0.0
 30
0.0
 70
     1
  0
VERTEX
  5
23A
330
239
100
AcDbEntity
  8
0
100
AcDbVertex
100
AcDb2dVertex
 10
628.6872347198678
 20
-188.106119457064
 30
0.0
  0
VERTEX
  5
23B
330
239
100
AcDbEntity
  8
0
100
AcDbVertex
100
AcDb2dVertex
 10
626.3857320163158
 20
-195.4055529329045
 30
0.0
  0
VERTEX
  5
23C
330
239
100
AcDbEntity
  8
0
100
AcDbVertex
100
AcDb2dVertex
 10
629.9198027572994
 20
-202.1944400110952
 30
0.0
  0
VERTEX
  5
23D
330
239
100
AcDbEntity
  8
0
100
AcDbVertex
100
AcDb2dVertex
 10
637.2192362331405
 20
-204.4959427146486
 30
0.0
  0
VERTEX
  5
23E
330
239
100
AcDbEntity
  8
0
100
AcDbVertex
100
AcDb2dVertex
 10
644.0081233113269
 20
-200.9618719736649
 30
0.0
  0
VERTEX
  5
23F
330
239
100
AcDbEntity
  8
0
100
AcDbVertex
100
AcDb2dVertex
 10
646.3096260148849
 20
-193.6624384978245
 30
0.0
  0
VERTEX
  5
240
330
239
100
AcDbEntity
  8
0
100
AcDbVertex
100
AcDb2dVertex
 10
642.7755552739011
 20
-186.8735514196363
 30
0.0
  0
VERTEX
  5
241
330
239
100
AcDbEntity
  8
0
100
AcDbVertex
100
AcDb2dVertex
 10
635.4761217980607
 20
-184.5720487160802
 30
0.0
  0
SEQEND
  5
242
330
239
100
AcDbEntity
  8
0
  0
POLYLINE
  5
243
330
1F
100
AcDbEntity
  8
0
100
AcDb2dPolyline
 66
     1
 10
0.0
 20
0.0
 30
0.0
 70
     1
  0
VERTEX
  5
244
330
243
100
AcDbEntity
  8
0
100
AcDbVertex
100
AcDb2dVertex
 10
578.2793773709664
 20
-150.2660541152103
 30
0.0
  0
VERTEX
  5
245
330
243
100
AcDbEntity
  8
0
100
AcDbVertex
100
AcDb2dVertex
 10
577.2803729860074
 20
-157.8542445451826
 30
0.0
  0
VERTEX
  5
246
330
243
100
AcDbEntity
  8
0
100
AcDbVertex
100
AcDb2dVertex
 10
581.9396311209359
 20
-163.9263082301892
 30
0.0
  0
VERTEX
  5
247
330
243
100
AcDbEntity
  8
0
100
AcDbVertex
100
AcDb2dVertex
 10
589.5278215509055
 20
-164.9253126151482
 30
0.0
  0
VERTEX
  5
248
330
243
100
AcDbEntity
  8
0
100
AcDbVertex
100
AcDb2dVertex
 10
595.5998852359162
 20
-160.2660544802195
 30
0.0
  0
VERTEX
  5
249
330
243
100
AcDbEntity
  8
0
100
AcDbVertex
100
AcDb2dVertex
 10
596.5988896208723
 20
-152.677864050247
 30
0.0
  0
VERTEX
  5
24A
330
243
100
AcDbEntity
  8
0
100
AcDbVertex
100
AcDb2dVertex
 10
591.9396314859433
 20
-146.6058003652394
 30
0.0
  0
VERTEX
  5
24B
330
243
100
AcDbEntity
  8
0
100
AcDbVertex
100
AcDb2dVertex
 10
584.3514410559736
 20
-145.6067959802814
 30
0.0
  0
SEQEND
  5
24C
330
243
100
AcDbEntity
  8
0
  0
POLYLINE
  5
24D
330
1F
100
AcDbEntity
  8
0
100
AcDb2dPolyline
 66
     1
 10
0.0
 20
0.0
 30
0.0
 70
     1
  0
VERTEX
  5
24E
330
24D
100
AcDbEntity
  8
0
100
AcDbVertex
100
AcDb2dVertex
 10
668.2243540332753
 20
-240.913428678179
 30
0.0
  0
VERTEX
  5
24F
330
24D
100
AcDbEntity
  8
0
100
AcDbVertex
100
AcDb2dVertex
 10
670.525856429175
 20
-248.2128622510237
 30
0.0
  0
VERTEX
  5
250
330
24D
100
AcDbEntity
  8
0
100
AcDbVertex
100
AcDb2dVertex
 10
677.3147433584122
 20
-251.7469332781422
 30
0.0
  0
VERTEX
  5
251
330
24D
100
AcDbEntity
  8
0
100
AcDbVertex
100
AcDb2dVertex
 10
684.614176931255
 20
-249.4454308822433
 30
0.0
  0
VERTEX
  5
252
330
24D
100
AcDbEntity
  8
0
100
AcDbVertex
100
AcDb2dVertex
 10
688.1482479583757
 20
-242.6565439530065
 30
0.0
  0
VERTEX
  5
253
330
24D
100
AcDbEntity
  8
0
100
AcDbVertex
100
AcDb2dVertex
 10
685.8467455624725
 20
-235.357110380162
 30
0.0
  0
VERTEX
  5
254
330
24D
100
AcDbEntity
  8
0
100
AcDbVertex
100
AcDb2dVertex
 10
679.0578586332388
 20
-231.8230393530434
 30
0.0
  0
VERTEX
  5
255
330
24D
100
AcDbEntity
  8
0
100
AcDbVertex
100
AcDb2dVertex
 10
671.7584250603952
 20
-234.1245417489436
 30
0.0
  0
SEQEND
  5
256
330
24D
100
AcDbEntity
  8
0
  0
POLYLINE
  5
257
330
1F
100
AcDbEntity
  8
0
100
AcDb2dPolyline
 66
     1
 10
0.0
 20
0.0
 30
0.0
 70
     1
  0
VERTEX
  5
258
330
257
100
AcDbEntity
  8
0
100
AcDbVertex
100
AcDb2dVertex
 10
702.5239977433969
 20
-300.5833284766603
 30
0.0
  0
VERTEX
  5
259
330
257
100
AcDbEntity
  8
0
100
AcDbVertex
100
AcDb2dVertex
 10
708.5960612320248
 20
-305.2425868675125
 30
0.0
  0
VERTEX
  5
25A
330
257
100
AcDbEntity
  8
0
100
AcDbVertex
100
AcDb2dVertex
 10
716.1842517041048
 20
-304.2435828023789
 30
0.0
  0
VERTEX
  5
25B
330
257
100
AcDbEntity
  8
0
100
AcDbVertex
100
AcDb2dVertex
 10
720.8435100949577
 20
-298.1715193137483
 30
0.0
  0
VERTEX
  5
25C
330
257
100
AcDbEntity
  8
0
100
AcDbVertex
100
AcDb2dVertex
 10
719.8445060298241
 20
-290.5833288416718
 30
0.0
  0
VERTEX
  5
25D
330
257
100
AcDbEntity
  8
0
100
AcDbVertex
100
AcDb2dVertex
 10
713.7724425411933
 20
-285.9240704508196
 30
0.0
  0
VERTEX
  5
25E
330
257
100
AcDbEntity
  8
0
100
AcDbVertex
100
AcDb2dVertex
 10
706.1842520691155
 20
-286.9230745159517
 30
0.0
  0
VERTEX
  5
25F
330
257
100
AcDbEntity
  8
0
100
AcDbVertex
100
AcDb2dVertex
 10
701.5249936782631
 20
-292.9951380045838
 30
0.0
  0
SEQEND
  5
260
330
257
100
AcDbEntity
  8
0
  0
POLYLINE
  5
261
330
1F
100
AcDbEntity
  8
0
100
AcDb2dPolyline
 66
     1
 10
0.0
 20
0.0
 30
0.0
 70
     1
  0
VERTEX
  5
262
330
261
100
AcDbEntity
  8
0
100
AcDbVertex
100
AcDb2dVertex
 10
697.5962016022418
 20
-258.1157191688825
 30
0.0
  0
VERTEX
  5
263
330
261
100
AcDbEntity
  8
0
100
AcDbVertex
100
AcDb2dVertex
 10
690.1239554271522
 20
-259.7722760986453
 30
0.0
  0
VERTEX
  5
264
330
261
100
AcDbEntity
  8
0
100
AcDbVertex
100
AcDb2dVertex
 10
686.011642124508
 20
-266.2273146782022
 30
0.0
  0
VERTEX
  5
265
330
261
100
AcDbEntity
  8
0
100
AcDbVertex
100
AcDb2dVertex
 10
687.6681990542681
 20
-273.6995608532933
 30
0.0
  0
VERTEX
  5
266
330
261
100
AcDbEntity
  8
0
100
AcDbVertex
100
AcDb2dVertex
 10
694.1232376338296
 20
-277.8118741559357
 30
0.0
  0
VERTEX
  5
267
330
261
100
AcDbEntity
  8
0
100
AcDbVertex
100
AcDb2dVertex
 10
701.5954838089187
 20
-276.1553172261727
 30
0.0
  0
VERTEX
  5
268
330
261
100
AcDbEntity
  8
0
100
AcDbVertex
100
AcDb2dVertex
 10
705.7077971115632
 20
-269.7002786466159
 30
0.0
  0
VERTEX
  5
269
330
261
100
AcDbEntity
  8
0
100
AcDbVertex
100
AcDb2dVertex
 10
704.0512401817995
 20
-262.2280324715265
 30
0.0
  0
SEQEND
  5
26A
330
261
100
AcDbEntity
  8
0
  0
POLYLINE
  5
26B
330
1F
100
AcDbEntity
  8
0
100
AcDb2dPolyline
 66
     1
 10
0.0
 20
0.0
 30
0.0
 70
     1
  0
VERTEX
  5
26C
330
26B
100
AcDbEntity
  8
0
100
AcDbVertex
100
AcDb2dVertex
 10
658.2985016179355
 20
-207.2461341726542
 30
0.0
  0
VERTEX
  5
26D
330
26B
100
AcDbEntity
  8
0
100
AcDbVertex
100
AcDb2dVertex
 10
651.227433744346
 20
-210.1750662117749
 30
0.0
  0
VERTEX
  5
26E
330
26B
100
AcDbEntity
  8
0
100
AcDbVertex
100
AcDb2dVertex
 10
648.298501407197
 20
-217.2461339619153
 30
0.0
  0
VERTEX
  5
26F
330
26B
100
AcDbEntity
  8
0
100
AcDbVertex
100
AcDb2dVertex
 10
651.227433446317
 20
-224.3172018355057
 30
0.0
  0
VERTEX
  5
270
330
26B
100
AcDbEntity
  8
0
100
AcDbVertex
100
AcDb2dVertex
 10
658.298501196458
 20
-227.2461341726536
 30
0.0
  0
VERTEX
  5
271
330
26B
100
AcDbEntity
  8
0
100
AcDbVertex
100
AcDb2dVertex
 10
665.3695690700474
 20
-224.3172021335352
 30
0.0
  0
VERTEX
  5
272
330
26B
100
AcDbEntity
  8
0
100
AcDbVertex
100
AcDb2dVertex
 10
668.2985014071967
 20
-217.2461343833923
 30
0.0
  0
VERTEX
  5
273
330
26B
100
AcDbEntity
  8
0
100
AcDbVertex
100
AcDb2dVertex
 10
665.3695693680768
 20
-210.1750665098044
 30
0.0
  0
SEQEND
  5
274
330
26B
100
AcDbEntity
  8
0
  0
POLYLINE
  5
275
330
1F
100
AcDbEntity
  8
0
100
AcDb2dPolyline
 66
     1
 10
0.0
 20
0.0
 30
0.0
 70
     1
  0
VERTEX
  5
276
330
275
100
AcDbEntity
  8
0
100
AcDbVertex
100
AcDb2dVertex
 10
719.8170864313677
 20
-315.3703030308105
 30
0.0
  0
VERTEX
  5
277
330
275
100
AcDbEntity
  8
0
100
AcDbVertex
100
AcDb2dVertex
 10
714.6463427219983
 20
-321.013179358953
 30
0.0
  0
VERTEX
  5
278
330
275
100
AcDbEntity
  8
0
100
AcDbVertex
100
AcDb2dVertex
 10
714.9801908983524
 20
-328.6595634166505
 30
0.0
  0
VERTEX
  5
279
330
275
100
AcDbEntity
  8
0
100
AcDbVertex
100
AcDb2dVertex
 10
720.6230672264942
 20
-333.8303071260196
 30
0.0
  0
VERTEX
  5
27A
330
275
100
AcDbEntity
  8
0
100
AcDbVertex
100
AcDb2dVertex
 10
728.2694512841936
 20
-333.4964589496659
 30
0.0
  0
VERTEX
  5
27B
330
275
100
AcDbEntity
  8
0
100
AcDbVertex
100
AcDb2dVertex
 10
733.4401949935602
 20
-327.8535826215236
 30
0.0
  0
VERTEX
  5
27C
330
275
100
AcDbEntity
  8
0
100
AcDbVertex
100
AcDb2dVertex
 10
733.1063468172063
 20
-320.2071985638245
 30
0.0
  0
VERTEX
  5
27D
330
275
100
AcDbEntity
  8
0
100
AcDbVertex
100
AcDb2dVertex
 10
727.4634704890668
 20
-315.0364548544569
 30
0.0
  0
SEQEND
  5
27E
330
275
100
AcDbEntity
  8
0
  0
POLYLINE
  5
27F
330
1F
100
AcDbEntity
  8
0
100
AcDb2dPolyline
 66
     1
 10
0.0
 20
0.0
 30
0.0
 70
     1
  0
VERTEX
  5
280
330
27F
100
AcDbEntity
  8
0
100
AcDbVertex
100
AcDb2dVertex
 10
724.9419793679733
 20
-357.7145885724769
 30
0.0
  0
VERTEX
  5
281
330
27F
100
AcDbEntity
  8
0
100
AcDbVertex
100
AcDb2dVertex
 10
730.1127228395055
 20
-363.3574651185526
 30
0.0
  0
VERTEX
  5
282
330
27F
100
AcDbEntity
  8
0
100
AcDbVertex
100
AcDb2dVertex
 10
737.7591068831329
 20
-363.6913136171855
 30
0.0
  0
VERTEX
  5
283
330
27F
100
AcDbEntity
  8
0
100
AcDbVertex
100
AcDb2dVertex
 10
743.4019834292135
 20
-358.5205701456506
 30
0.0
  0
VERTEX
  5
284
330
27F
100
AcDbEntity
  8
0
100
AcDbVertex
100
AcDb2dVertex
 10
743.7358319278446
 20
-350.8741861020226
 30
0.0
  0
VERTEX
  5
285
330
27F
100
AcDbEntity
  8
0
100
AcDbVertex
100
AcDb2dVertex
 10
738.5650884563098
 20
-345.2313095559454
 30
0.0
  0
VERTEX
  5
286
330
27F
100
AcDbEntity
  8
0
100
AcDbVertex
100
AcDb2dVertex
 10
730.9187044126816
 20
-344.8974610573141
 30
0.0
  0
VERTEX
  5
287
330
27F
100
AcDbEntity
  8
0
100
AcDbVertex
100
AcDb2dVertex
 10
725.2758278666046
 20
-350.0682045288491
 30
0.0
  0
SEQEND
  5
288
330
27F
100
AcDbEntity
  8
0
  0
POLYLINE
  5
289
330
1F
100
AcDbEntity
  8
0
100
AcDb2dPolyline
 66
     1
 10
0.0
 20
0.0
 30
0.0
 70
     1
  0
VERTEX
  5
28A
330
289
100
AcDbEntity
  8
0
100
AcDbVertex
100
AcDb2dVertex
 10
744.5809912904842
 20
-641.4126110047266
 30
0.0
  0
VERTEX
  5
28B
330
289
100
AcDbEntity
  8
0
100
AcDbVertex
100
AcDb2dVertex
 10
750.6530547791149
 20
-646.0718693955791
 30
0.0
  0
VERTEX
  5
28C
330
289
100
AcDbEntity
  8
0
100
AcDbVertex
100
AcDb2dVertex
 10
751.6520588442485
 20
-653.6600598676556
 30
0.0
  0
VERTEX
  5
28D
330
289
100
AcDbEntity
  8
0
100
AcDbVertex
100
AcDb2dVertex
 10
746.9928004533961
 20
-659.7321233562875
 30
0.0
  0
VERTEX
  5
28E
330
289
100
AcDbEntity
  8
0
100
AcDbVertex
100
AcDb2dVertex
 10
739.4046099813182
 20
-660.7311274214201
 30
0.0
  0
VERTEX
  5
28F
330
289
100
AcDbEntity
  8
0
100
AcDbVertex
100
AcDb2dVertex
 10
733.3325464926875
 20
-656.0718690305674
 30
0.0
  0
VERTEX
  5
290
330
289
100
AcDbEntity
  8
0
100
AcDbVertex
100
AcDb2dVertex
 10
732.3335424275537
 20
-648.4836785584912
 30
0.0
  0
VERTEX
  5
291
330
289
100
AcDbEntity
  8
0
100
AcDbVertex
100
AcDb2dVertex
 10
736.9928008184065
 20
-642.4116150698605
 30
0.0
  0
SEQEND
  5
292
330
289
100
AcDbEntity
  8
0
  0
POLYLINE
  5
293
330
1F
100
AcDbEntity
  8
0
100
AcDb2dPolyline
 66
     1
 10
0.0
 20
0.0
 30
0.0
 70
     1
  0
VERTEX
  5
294
330
293
100
AcDbEntity
  8
0
100
AcDbVertex
100
AcDb2dVertex
 10
748.6831975325696
 20
-610.0286227985331
 30
0.0
  0
VERTEX
  5
295
330
293
100
AcDbEntity
  8
0
100
AcDbVertex
100
AcDb2dVertex
 10
755.1382361121284
 20
-614.1409361011773
 30
0.0
  0
VERTEX
  5
296
330
293
100
AcDbEntity
  8
0
100
AcDbVertex
100
AcDb2dVertex
 10
756.794793041891
 20
-621.6131822762669
 30
0.0
  0
VERTEX
  5
297
330
293
100
AcDbEntity
  8
0
100
AcDbVertex
100
AcDb2dVertex
 10
752.6824797392466
 20
-628.0682208558251
 30
0.0
  0
VERTEX
  5
298
330
293
100
AcDbEntity
  8
0
100
AcDbVertex
100
AcDb2dVertex
 10
745.2102335641573
 20
-629.7247777855871
 30
0.0
  0
VERTEX
  5
299
330
293
100
AcDbEntity
  8
0
100
AcDbVertex
100
AcDb2dVertex
 10
738.7551949845988
 20
-625.6124644829441
 30
0.0
  0
VERTEX
  5
29A
330
293
100
AcDbEntity
  8
0
100
AcDbVertex
100
AcDb2dVertex
 10
737.0986380548358
 20
-618.1402183078541
 30
0.0
  0
VERTEX
  5
29B
330
293
100
AcDbEntity
  8
0
100
AcDbVertex
100
AcDb2dVertex
 10
741.2109513574802
 20
-611.6851797282964
 30
0.0
  0
SEQEND
  5
29C
330
293
100
AcDbEntity
  8
0
  0
POLYLINE
  5
29D
330
1F
100
AcDbEntity
  8
0
100
AcDb2dPolyline
 66
     1
 10
0.0
 20
0.0
 30
0.0
 70
     1
  0
VERTEX
  5
29E
330
29D
100
AcDbEntity
  8
0
100
AcDbVertex
100
AcDb2dVertex
 10
759.1248881640571
 20
-589.2400339105786
 30
0.0
  0
VERTEX
  5
29F
330
29D
100
AcDbEntity
  8
0
100
AcDbVertex
100
AcDb2dVertex
 10
755.5908171369367
 20
-596.0289208398164
 30
0.0
  0
VERTEX
  5
2A0
330
29D
100
AcDbEntity
  8
0
100
AcDbVertex
100
AcDb2dVertex
 10
748.2913835640933
 20
-598.3304232357167
 30
0.0
  0
VERTEX
  5
2A1
330
29D
100
AcDbEntity
  8
0
100
AcDbVertex
100
AcDb2dVertex
 10
741.5024966348542
 20
-594.7963522085954
 30
0.0
  0
VERTEX
  5
2A2
330
29D
100
AcDbEntity
  8
0
100
AcDbVertex
100
AcDb2dVertex
 10
739.2009942389564
 20
-587.4969186357533
 30
0.0
  0
VERTEX
  5
2A3
330
29D
100
AcDbEntity
  8
0
100
AcDbVertex
100
AcDb2dVertex
 10
742.7350652660767
 20
-580.7080317065167
 30
0.0
  0
VERTEX
  5
2A4
330
29D
100
AcDbEntity
  8
0
100
AcDbVertex
100
AcDb2dVertex
 10
750.0344988389202
 20
-578.406529310615
 30
0.0
  0
VERTEX
  5
2A5
330
29D
100
AcDbEntity
  8
0
100
AcDbVertex
100
AcDb2dVertex
 10
756.8233857681538
 20
-581.9406003377351
 30
0.0
  0
SEQEND
  5
2A6
330
29D
100
AcDbEntity
  8
0
  0
POLYLINE
  5
2A7
330
1F
100
AcDbEntity
  8
0
100
AcDb2dPolyline
 66
     1
 10
0.0
 20
0.0
 30
0.0
 70
     1
  0
VERTEX
  5
2A8
330
2A7
100
AcDbEntity
  8
0
100
AcDbVertex
100
AcDb2dVertex
 10
629.9197894465807
 20
-833.816511889686
 30
0.0
  0
VERTEX
  5
2A9
330
2A7
100
AcDbEntity
  8
0
100
AcDbVertex
100
AcDb2dVertex
 10
637.2192230194274
 20
-831.515009493786
 30
0.0
  0
VERTEX
  5
2AA
330
2A7
100
AcDbEntity
  8
0
100
AcDbVertex
100
AcDb2dVertex
 10
644.0081099486632
 20
-835.0490805209058
 30
0.0
  0
VERTEX
  5
2AB
330
2A7
100
AcDbEntity
  8
0
100
AcDbVertex
100
AcDb2dVertex
 10
646.3096123445639
 20
-842.3485140937493
 30
0.0
  0
VERTEX
  5
2AC
330
2A7
100
AcDbEntity
  8
0
100
AcDbVertex
100
AcDb2dVertex
 10
642.775541317444
 20
-849.1374010229856
 30
0.0
  0
VERTEX
  5
2AD
330
2A7
100
AcDbEntity
  8
0
100
AcDbVertex
100
AcDb2dVertex
 10
635.4761077446007
 20
-851.4389034188862
 30
0.0
  0
VERTEX
  5
2AE
330
2A7
100
AcDbEntity
  8
0
100
AcDbVertex
100
AcDb2dVertex
 10
628.6872208153637
 20
-847.9048323917663
 30
0.0
  0
VERTEX
  5
2AF
330
2A7
100
AcDbEntity
  8
0
100
AcDbVertex
100
AcDb2dVertex
 10
626.3857184194636
 20
-840.6053988189226
 30
0.0
  0
SEQEND
  5
2B0
330
2A7
100
AcDbEntity
  8
0
  0
POLYLINE
  5
2B1
330
1F
100
AcDbEntity
  8
0
100
AcDb2dPolyline
 66
     1
 10
0.0
 20
0.0
 30
0.0
 70
     1
  0
VERTEX
  5
2B2
330
2B1
100
AcDbEntity
  8
0
100
AcDbVertex
100
AcDb2dVertex
 10
702.5239885795484
 20
-735.4276264842202
 30
0.0
  0
VERTEX
  5
2B3
330
2B1
100
AcDbEntity
  8
0
100
AcDbVertex
100
AcDb2dVertex
 10
708.5960522645562
 20
-730.7683683492929
 30
0.0
  0
VERTEX
  5
2B4
330
2B1
100
AcDbEntity
  8
0
100
AcDbVertex
100
AcDb2dVertex
 10
716.1842426945253
 20
-731.7673727342515
 30
0.0
  0
VERTEX
  5
2B5
330
2B1
100
AcDbEntity
  8
0
100
AcDbVertex
100
AcDb2dVertex
 10
720.8435008294545
 20
-737.8394364192593
 30
0.0
  0
VERTEX
  5
2B6
330
2B1
100
AcDbEntity
  8
0
100
AcDbVertex
100
AcDb2dVertex
 10
719.8444964444982
 20
-745.4276268492312
 30
0.0
  0
VERTEX
  5
2B7
330
2B1
100
AcDbEntity
  8
0
100
AcDbVertex
100
AcDb2dVertex
 10
713.7724327594879
 20
-750.0868849841601
 30
0.0
  0
VERTEX
  5
2B8
330
2B1
100
AcDbEntity
  8
0
100
AcDbVertex
100
AcDb2dVertex
 10
706.1842423295184
 20
-749.0878805992015
 30
0.0
  0
VERTEX
  5
2B9
330
2B1
100
AcDbEntity
  8
0
100
AcDbVertex
100
AcDb2dVertex
 10
701.5249841945895
 20
-743.0158169141936
 30
0.0
  0
SEQEND
  5
2BA
330
2B1
100
AcDbEntity
  8
0
  0
POLYLINE
  5
2BB
330
1F
100
AcDbEntity
  8
0
100
AcDb2dPolyline
 66
     1
 10
0.0
 20
0.0
 30
0.0
 70
     1
  0
VERTEX
  5
2BC
330
2BB
100
AcDbEntity
  8
0
100
AcDbVertex
100
AcDb2dVertex
 10
690.1239445432104
 20
-776.2386783396043
 30
0.0
  0
VERTEX
  5
2BD
330
2BB
100
AcDbEntity
  8
0
100
AcDbVertex
100
AcDb2dVertex
 10
686.0116315126315
 20
-769.7836395867215
 30
0.0
  0
VERTEX
  5
2BE
330
2BB
100
AcDbEntity
  8
0
100
AcDbVertex
100
AcDb2dVertex
 10
687.6681887573327
 20
-762.3113934814518
 30
0.0
  0
VERTEX
  5
2BF
330
2BB
100
AcDbEntity
  8
0
100
AcDbVertex
100
AcDb2dVertex
 10
694.1232275102158
 20
-758.199080450873
 30
0.0
  0
VERTEX
  5
2C0
330
2BB
100
AcDbEntity
  8
0
100
AcDbVertex
100
AcDb2dVertex
 10
701.5954736154854
 20
-759.8556376955742
 30
0.0
  0
VERTEX
  5
2C1
330
2BB
100
AcDbEntity
  8
0
100
AcDbVertex
100
AcDb2dVertex
 10
705.7077866460643
 20
-766.310676448457
 30
0.0
  0
VERTEX
  5
2C2
330
2BB
100
AcDbEntity
  8
0
100
AcDbVertex
100
AcDb2dVertex
 10
704.0512294013628
 20
-773.7829225537264
 30
0.0
  0
VERTEX
  5
2C3
330
2BB
100
AcDbEntity
  8
0
100
AcDbVertex
100
AcDb2dVertex
 10
697.5961906484799
 20
-777.8952355843052
 30
0.0
  0
SEQEND
  5
2C4
330
2BB
100
AcDbEntity
  8
0
  0
POLYLINE
  5
2C5
330
1F
100
AcDbEntity
  8
0
100
AcDb2dPolyline
 66
     1
 10
0.0
 20
0.0
 30
0.0
 70
     1
  0
VERTEX
  5
2C6
330
2C5
100
AcDbEntity
  8
0
100
AcDbVertex
100
AcDb2dVertex
 10
651.2274207699949
 20
-825.8358865870746
 30
0.0
  0
VERTEX
  5
2C7
330
2C5
100
AcDbEntity
  8
0
100
AcDbVertex
100
AcDb2dVertex
 10
648.2984887308753
 20
-818.764818713485
 30
0.0
  0
VERTEX
  5
2C8
330
2C5
100
AcDbEntity
  8
0
100
AcDbVertex
100
AcDb2dVertex
 10
651.2274210680246
 20
-811.6937509633437
 30
0.0
  0
VERTEX
  5
2C9
330
2C5
100
AcDbEntity
  8
0
100
AcDbVertex
100
AcDb2dVertex
 10
658.2984889416138
 20
-808.7648189242242
 30
0.0
  0
VERTEX
  5
2CA
330
2C5
100
AcDbEntity
  8
0
100
AcDbVertex
100
AcDb2dVertex
 10
665.3695566917554
 20
-811.6937512613731
 30
0.0
  0
VERTEX
  5
2CB
330
2C5
100
AcDbEntity
  8
0
100
AcDbVertex
100
AcDb2dVertex
 10
668.298488730875
 20
-818.7648191349625
 30
0.0
  0
VERTEX
  5
2CC
330
2C5
100
AcDbEntity
  8
0
100
AcDbVertex
100
AcDb2dVertex
 10
665.3695563937258
 20
-825.8358868851041
 30
0.0
  0
VERTEX
  5
2CD
330
2C5
100
AcDbEntity
  8
0
100
AcDbVertex
100
AcDb2dVertex
 10
658.2984885201367
 20
-828.7648189242235
 30
0.0
  0
SEQEND
  5
2CE
330
2C5
100
AcDbEntity
  8
0
  0
POLYLINE
  5
2CF
330
1F
100
AcDbEntity
  8
0
100
AcDb2dPolyline
 66
     1
 10
0.0
 20
0.0
 30
0.0
 70
     1
  0
VERTEX
  5
2D0
330
2CF
100
AcDbEntity
  8
0
100
AcDbVertex
100
AcDb2dVertex
 10
685.8467336494898
 20
-800.6538438778115
 30
0.0
  0
VERTEX
  5
2D1
330
2CF
100
AcDbEntity
  8
0
100
AcDbVertex
100
AcDb2dVertex
 10
679.0578465713002
 20
-804.1879146187953
 30
0.0
  0
VERTEX
  5
2D2
330
2CF
100
AcDbEntity
  8
0
100
AcDbVertex
100
AcDb2dVertex
 10
671.7584130954597
 20
-801.8864119152407
 30
0.0
  0
VERTEX
  5
2D3
330
2CF
100
AcDbEntity
  8
0
100
AcDbVertex
100
AcDb2dVertex
 10
668.2243423544759
 20
-795.0975248370509
 30
0.0
  0
VERTEX
  5
2D4
330
2CF
100
AcDbEntity
  8
0
100
AcDbVertex
100
AcDb2dVertex
 10
670.5258450580307
 20
-787.7980913612107
 30
0.0
  0
VERTEX
  5
2D5
330
2CF
100
AcDbEntity
  8
0
100
AcDbVertex
100
AcDb2dVertex
 10
677.3147321362208
 20
-784.2640206202268
 30
0.0
  0
VERTEX
  5
2D6
330
2CF
100
AcDbEntity
  8
0
100
AcDbVertex
100
AcDb2dVertex
 10
684.614165612058
 20
-786.5655233237816
 30
0.0
  0
VERTEX
  5
2D7
330
2CF
100
AcDbEntity
  8
0
100
AcDbVertex
100
AcDb2dVertex
 10
688.148236353045
 20
-793.3544104019713
 30
0.0
  0
SEQEND
  5
2D8
330
2CF
100
AcDbEntity
  8
0
  0
POLYLINE
  5
2D9
330
1F
100
AcDbEntity
  8
0
100
AcDb2dPolyline
 66
     1
 10
0.0
 20
0.0
 30
0.0
 70
     1
  0
VERTEX
  5
2DA
330
2D9
100
AcDbEntity
  8
0
100
AcDbVertex
100
AcDb2dVertex
 10
724.9419726120772
 20
-678.2963673332733
 30
0.0
  0
VERTEX
  5
2DB
330
2D9
100
AcDbEntity
  8
0
100
AcDbVertex
100
AcDb2dVertex
 10
730.1127163214464
 20
-672.6534910051312
 30
0.0
  0
VERTEX
  5
2DC
330
2D9
100
AcDbEntity
  8
0
100
AcDbVertex
100
AcDb2dVertex
 10
737.7591003791453
 20
-672.3196428287774
 30
0.0
  0
VERTEX
  5
2DD
330
2D9
100
AcDbEntity
  8
0
100
AcDbVertex
100
AcDb2dVertex
 10
743.401976707288
 20
-677.4903865381465
 30
0.0
  0
VERTEX
  5
2DE
330
2D9
100
AcDbEntity
  8
0
100
AcDbVertex
100
AcDb2dVertex
 10
743.7358248836415
 20
-685.1367705958454
 30
0.0
  0
VERTEX
  5
2DF
330
2D9
100
AcDbEntity
  8
0
100
AcDbVertex
100
AcDb2dVertex
 10
738.5650811742722
 20
-690.7796469239877
 30
0.0
  0
VERTEX
  5
2E0
330
2D9
100
AcDbEntity
  8
0
100
AcDbVertex
100
AcDb2dVertex
 10
730.918697116573
 20
-691.1134951003414
 30
0.0
  0
VERTEX
  5
2E1
330
2D9
100
AcDbEntity
  8
0
100
AcDbVertex
100
AcDb2dVertex
 10
725.2758207884307
 20
-685.942751390972
 30
0.0
  0
SEQEND
  5
2E2
330
2D9
100
AcDbEntity
  8
0
  0
POLYLINE
  5
2E3
330
1F
100
AcDbEntity
  8
0
100
AcDb2dPolyline
 66
     1
 10
0.0
 20
0.0
 30
0.0
 70
     1
  0
VERTEX
  5
2E4
330
2E3
100
AcDbEntity
  8
0
100
AcDbVertex
100
AcDb2dVertex
 10
720.623059463928
 20
-702.1806485976969
 30
0.0
  0
VERTEX
  5
2E5
330
2E3
100
AcDbEntity
  8
0
100
AcDbVertex
100
AcDb2dVertex
 10
728.2694435075584
 20
-702.5144970963282
 30
0.0
  0
VERTEX
  5
2E6
330
2E3
100
AcDbEntity
  8
0
100
AcDbVertex
100
AcDb2dVertex
 10
733.4401869790934
 20
-708.1573736424057
 30
0.0
  0
VERTEX
  5
2E7
330
2E3
100
AcDbEntity
  8
0
100
AcDbVertex
100
AcDb2dVertex
 10
733.1063384804618
 20
-715.8037576860336
 30
0.0
  0
VERTEX
  5
2E8
330
2E3
100
AcDbEntity
  8
0
100
AcDbVertex
100
AcDb2dVertex
 10
727.4634619343849
 20
-720.9745011575683
 30
0.0
  0
VERTEX
  5
2E9
330
2E3
100
AcDbEntity
  8
0
100
AcDbVertex
100
AcDb2dVertex
 10
719.8170778907565
 20
-720.640652658937
 30
0.0
  0
VERTEX
  5
2EA
330
2E3
100
AcDbEntity
  8
0
100
AcDbVertex
100
AcDb2dVertex
 10
714.6463344192216
 20
-714.9977761128595
 30
0.0
  0
VERTEX
  5
2EB
330
2E3
100
AcDbEntity
  8
0
100
AcDbVertex
100
AcDb2dVertex
 10
714.9801829178532
 20
-707.3513920692315
 30
0.0
  0
SEQEND
  5
2EC
330
2E3
100
AcDbEntity
  8
0
  0
POLYLINE
  5
2ED
330
1F
100
AcDbEntity
  8
0
100
AcDb2dPolyline
 66
     1
 10
0.0
 20
0.0
 30
0.0
 70
     1
  0
VERTEX
  5
2EE
330
2ED
100
AcDbEntity
  8
0
100
AcDbVertex
100
AcDb2dVertex
 10
581.9396161973027
 20
-872.0846416483357
 30
0.0
  0
VERTEX
  5
2EF
330
2ED
100
AcDbEntity
  8
0
100
AcDbVertex
100
AcDb2dVertex
 10
589.5278066693833
 20
-871.0856375832018
 30
0.0
  0
VERTEX
  5
2F0
330
2ED
100
AcDbEntity
  8
0
100
AcDbVertex
100
AcDb2dVertex
 10
595.599870158014
 20
-875.7448959740542
 30
0.0
  0
VERTEX
  5
2F1
330
2ED
100
AcDbEntity
  8
0
100
AcDbVertex
100
AcDb2dVertex
 10
596.5988742231481
 20
-883.3330864461325
 30
0.0
  0
VERTEX
  5
2F2
330
2ED
100
AcDbEntity
  8
0
100
AcDbVertex
100
AcDb2dVertex
 10
591.9396158322951
 20
-889.405149934763
 30
0.0
  0
VERTEX
  5
2F3
330
2ED
100
AcDbEntity
  8
0
100
AcDbVertex
100
AcDb2dVertex
 10
584.3514253602148
 20
-890.4041539998967
 30
0.0
  0
VERTEX
  5
2F4
330
2ED
100
AcDbEntity
  8
0
100
AcDbVertex
100
AcDb2dVertex
 10
578.279361871587
 20
-885.744895609044
 30
0.0
  0
VERTEX
  5
2F5
330
2ED
100
AcDbEntity
  8
0
100
AcDbVertex
100
AcDb2dVertex
 10
577.2803578064502
 20
-878.156705136966
 30
0.0
  0
SEQEND
  5
2F6
330
2ED
100
AcDbEntity
  8
0
  0
POLYLINE
  5
2F7
330
1F
100
AcDbEntity
  8
0
100
AcDb2dPolyline
 66
     1
 10
0.0
 20
0.0
 30
0.0
 70
     1
  0
VERTEX
  5
2F8
330
2F7
100
AcDbEntity
  8
0
100
AcDbVertex
100
AcDb2dVertex
 10
620.6923988908966
 20
-856.4537629443806
 30
0.0
  0
VERTEX
  5
2F9
330
2F7
100
AcDbEntity
  8
0
100
AcDbVertex
100
AcDb2dVertex
 10
622.3489558206595
 20
-863.9260091194705
 30
0.0
  0
VERTEX
  5
2FA
330
2F7
100
AcDbEntity
  8
0
100
AcDbVertex
100
AcDb2dVertex
 10
618.2366425180126
 20
-870.3810476990287
 30
0.0
  0
VERTEX
  5
2FB
330
2F7
100
AcDbEntity
  8
0
100
AcDbVertex
100
AcDb2dVertex
 10
610.7643963429255
 20
-872.0376046287913
 30
0.0
  0
VERTEX
  5
2FC
330
2F7
100
AcDbEntity
  8
0
100
AcDbVertex
100
AcDb2dVertex
 10
604.3093577633674
 20
-867.9252913261474
 30
0.0
  0
VERTEX
  5
2FD
330
2F7
100
AcDbEntity
  8
0
100
AcDbVertex
100
AcDb2dVertex
 10
602.6528008336018
 20
-860.4530451510573
 30
0.0
  0
VERTEX
  5
2FE
330
2F7
100
AcDbEntity
  8
0
100
AcDbVertex
100
AcDb2dVertex
 10
606.7651141362458
 20
-853.9980065714996
 30
0.0
  0
VERTEX
  5
2FF
330
2F7
100
AcDbEntity
  8
0
100
AcDbVertex
100
AcDb2dVertex
 10
614.2373603113383
 20
-852.3414496417366
 30
0.0
  0
SEQEND
  5
300
330
2F7
100
AcDbEntity
  8
0
  0
POLYLINE
  5
301
330
1F
100
AcDbEntity
  8
0
100
AcDb2dPolyline
 66
     1
 10
0.0
 20
0.0
 30
0.0
 70
     1
  0
VERTEX
  5
302
330
301
100
AcDbEntity
  8
0
100
AcDbVertex
100
AcDb2dVertex
 10
737.0986422752842
 20
-417.8707381102714
 30
0.0
  0
VERTEX
  5
303
330
301
100
AcDbEntity
  8
0
100
AcDbVertex
100
AcDb2dVertex
 10
741.2109553058663
 20
-424.3257768631542
 30
0.0
  0
VERTEX
  5
304
330
301
100
AcDbEntity
  8
0
100
AcDbVertex
100
AcDb2dVertex
 10
748.6832014111351
 20
-425.9823341078556
 30
0.0
  0
VERTEX
  5
305
330
301
100
AcDbEntity
  8
0
100
AcDbVertex
100
AcDb2dVertex
 10
755.138240164019
 20
-421.8700210772752
 30
0.0
  0
VERTEX
  5
306
330
301
100
AcDbEntity
  8
0
100
AcDbVertex
100
AcDb2dVertex
 10
756.7947974087197
 20
-414.397774972007
 30
0.0
  0
VERTEX
  5
307
330
301
100
AcDbEntity
  8
0
100
AcDbVertex
100
AcDb2dVertex
 10
752.6824843781405
 20
-407.9427362191228
 30
0.0
  0
VERTEX
  5
308
330
301
100
AcDbEntity
  8
0
100
AcDbVertex
100
AcDb2dVertex
 10
745.2102382728713
 20
-406.2861789744215
 30
0.0
  0
VERTEX
  5
309
330
301
100
AcDbEntity
  8
0
100
AcDbVertex
100
AcDb2dVertex
 10
738.7551995199883
 20
-410.3984920050019
 30
0.0
  0
SEQEND
  5
30A
330
301
100
AcDbEntity
  8
0
  0
POLYLINE
  5
30B
330
1F
100
AcDbEntity
  8
0
100
AcDb2dPolyline
 66
     1
 10
0.0
 20
0.0
 30
0.0
 70
     1
  0
VERTEX
  5
30C
330
30B
100
AcDbEntity
  8
0
100
AcDbVertex
100
AcDb2dVertex
 10
750.0345013846868
 20
-457.6044276527252
 30
0.0
  0
VERTEX
  5
30D
330
30B
100
AcDbEntity
  8
0
100
AcDbVertex
100
AcDb2dVertex
 10
756.8233884628756
 20
-454.0703569117414
 30
0.0
  0
VERTEX
  5
30E
330
30B
100
AcDbEntity
  8
0
100
AcDbVertex
100
AcDb2dVertex
 10
759.1248911664311
 20
-446.770923435901
 30
0.0
  0
VERTEX
  5
30F
330
30B
100
AcDbEntity
  8
0
100
AcDbVertex
100
AcDb2dVertex
 10
755.5908204254445
 20
-439.9820363577128
 30
0.0
  0
VERTEX
  5
310
330
30B
100
AcDbEntity
  8
0
100
AcDbVertex
100
AcDb2dVertex
 10
748.2913869496069
 20
-437.6805336541577
 30
0.0
  0
VERTEX
  5
311
330
30B
100
AcDbEntity
  8
0
100
AcDbVertex
100
AcDb2dVertex
 10
741.502499871417
 20
-441.2146043951406
 30
0.0
  0
VERTEX
  5
312
330
30B
100
AcDbEntity
  8
0
100
AcDbVertex
100
AcDb2dVertex
 10
739.2009971678623
 20
-448.5140378709806
 30
0.0
  0
VERTEX
  5
313
330
30B
100
AcDbEntity
  8
0
100
AcDbVertex
100
AcDb2dVertex
 10
742.7350679088464
 20
-455.3029249491716
 30
0.0
  0
SEQEND
  5
314
330
30B
100
AcDbEntity
  8
0
  0
POLYLINE
  5
315
330
1F
100
AcDbEntity
  8
0
100
AcDb2dPolyline
 66
     1
 10
0.0
 20
0.0
 30
0.0
 70
     1
  0
VERTEX
  5
316
330
315
100
AcDbEntity
  8
0
100
AcDbVertex
100
AcDb2dVertex
 10
751.6520645617802
 20
-382.3508971638611
 30
0.0
  0
VERTEX
  5
317
330
315
100
AcDbEntity
  8
0
100
AcDbVertex
100
AcDb2dVertex
 10
746.9928064268515
 20
-376.2788334788535
 30
0.0
  0
VERTEX
  5
318
330
315
100
AcDbEntity
  8
0
100
AcDbVertex
100
AcDb2dVertex
 10
739.4046159968766
 20
-375.2798290938948
 30
0.0
  0
VERTEX
  5
319
330
315
100
AcDbEntity
  8
0
100
AcDbVertex
100
AcDb2dVertex
 10
733.3325523118713
 20
-379.9390872288237
 30
0.0
  0
VERTEX
  5
31A
330
315
100
AcDbEntity
  8
0
100
AcDbVertex
100
AcDb2dVertex
 10
732.3335479269124
 20
-387.5272776587969
 30
0.0
  0
VERTEX
  5
31B
330
315
100
AcDbEntity
  8
0
100
AcDbVertex
100
AcDb2dVertex
 10
736.9928060618417
 20
-393.5993413438031
 30
0.0
  0
VERTEX
  5
31C
330
315
100
AcDbEntity
  8
0
100
AcDbVertex
100
AcDb2dVertex
 10
744.5809964918137
 20
-394.5983457287633
 30
0.0
  0
VERTEX
  5
31D
330
315
100
AcDbEntity
  8
0
100
AcDbVertex
100
AcDb2dVertex
 10
750.6530601768214
 20
-389.9390875938348
 30
0.0
  0
SEQEND
  5
31E
330
315
100
AcDbEntity
  8
0
  0
POLYLINE
  5
31F
330
1F
100
AcDbEntity
  8
0
100
AcDb2dPolyline
 66
     1
 10
0.0
 20
0.0
 30
0.0
 70
     1
  0
VERTEX
  5
320
330
31F
100
AcDbEntity
  8
0
100
AcDbVertex
100
AcDb2dVertex
 10
273.6246022828965
 20
-898.0054687244772
 30
0.0
  0
VERTEX
  5
321
330
31F
100
AcDbEntity
  8
0
100
AcDbVertex
100
AcDb2dVertex
 10
547.6001606384241
 20
-898.0054744981987
 30
0.0
  0
VERTEX
  5
322
330
31F
100
AcDbEntity
  8
0
100
AcDbVertex
100
AcDb2dVertex
 10
544.9365920520446
 20
-888.005474442067
 30
0.0
  0
VERTEX
  5
323
330
31F
100
AcDbEntity
  8
0
100
AcDbVertex
100
AcDb2dVertex
 10
273.6246024936354
 20
-888.0054687244773
 30
0.0
  0
SEQEND
  5
324
330
31F
100
AcDbEntity
  8
0
  0
POLYLINE
  5
325
330
1F
100
AcDbEntity
  8
0
100
AcDb2dPolyline
 66
     1
 10
0.0
 20
0.0
 30
0.0
 70
     1
  0
VERTEX
  5
326
330
325
100
AcDbEntity
  8
0
100
AcDbVertex
100
AcDb2dVertex
 10
749.6246259986697
 20
248.9945322613607
 30
0.0
  0
VERTEX
  5
327
330
325
100
AcDbEntity
  8
0
100
AcDbVertex
100
AcDb2dVertex
 10
201.6246187205831
 20
248.9945322622063
 30
0.0
  0
VERTEX
  5
328
330
325
100
AcDbEntity
  8
0
100
AcDbVertex
100
AcDb2dVertex
 10
201.6246187205059
 20
198.9945322622063
 30
0.0
  0
VERTEX
  5
329
330
325
100
AcDbEntity
  8
0
100
AcDbVertex
100
AcDb2dVertex
 10
749.6246259985925
 20
198.9945322613607
 30
0.0
  0
SEQEND
  5
32A
330
325
100
AcDbEntity
  8
0
  0
POLYLINE
  5
32B
330
1F
100
AcDbEntity
  8
0
100
AcDb2dPolyline
 66
     1
 10
0.0
 20
0.0
 30
0.0
 70
     1
  0
VERTEX
  5
32C
330
32B
100
AcDbEntity
  8
0
100
AcDbVertex
100
AcDb2dVertex
 10
749.6246259986697
 20
8.994532261360458
 30
0.0
  0
VERTEX
  5
32D
330
32B
100
AcDbEntity
  8
0
100
AcDbVertex
100
AcDb2dVertex
 10
201.6246187205831
 20
8.994532262206008
 30
0.0
  0
VERTEX
  5
32E
330
32B
100
AcDbEntity
  8
0
100
AcDbVertex
100
AcDb2dVertex
 10
201.6246187205059
 20
-41.00546773779399
 30
0.0
  0
VERTEX
  5
32F
330
32B
100
AcDbEntity
  8
0
100
AcDbVertex
100
AcDb2dVertex
 10
749.6246259985925
 20
-41.00546773863955
 30
0.0
  0
SEQEND
  5
330
330
32B
100
AcDbEntity
  8
0
  0
POLYLINE
  5
331
330
1F
100
AcDbEntity
  8
0
100
AcDb2dPolyline
 66
     1
 10
0.0
 20
0.0
 30
0.0
 70
     1
  0
VERTEX
  5
332
330
331
100
AcDbEntity
  8
0
100
AcDbVertex
100
AcDb2dVertex
 10
1678.090996631864
 20
-270.3522491525344
 30
0.0
  0
VERTEX
  5
333
330
331
100
AcDbEntity
  8
0
100
AcDbVertex
100
AcDb2dVertex
 10
1678.090996631863
 20
-890.3522564306256
 30
0.0
  0
VERTEX
  5
334
330
331
100
AcDbEntity
  8
0
100
AcDbVertex
100
AcDb2dVertex
 10
2027.927441997731
 20
-890.3522564306256
 30
0.0
  0
VERTEX
  5
335
330
331
100
AcDbEntity
  8
0
100
AcDbVertex
100
AcDb2dVertex
 10
2027.927441997731
 20
-270.3522491525343
 30
0.0
  0
SEQEND
  5
336
330
331
100
AcDbEntity
  8
0
  0
POLYLINE
  5
337
330
1F
100
AcDbEntity
  8
0
100
AcDb2dPolyline
 66
     1
 10
0.0
 20
0.0
 30
0.0
 70
     1
  0
VERTEX
  5
338
330
337
100
AcDbEntity
  8
0
100
AcDbVertex
100
AcDb2dVertex
 10
124.4616585198399
 20
-389.0417049025707
 30
0.0
  0
VERTEX
  5
339
330
337
100
AcDbEntity
  8
0
100
AcDbVertex
100
AcDb2dVertex
 10
128.5549881437417
 20
-386.7069109871052
 30
0.0
  0
VERTEX
  5
33A
330
337
100
AcDbEntity
  8
0
100
AcDbVertex
100
AcDb2dVertex
 10
132.5729603073993
 20
-384.2446945608494
 30
0.0
  0
VERTEX
  5
33B
330
337
100
AcDbEntity
  8
0
100
AcDbVertex
100
AcDb2dVertex
 10
136.5116097573831
 20
-381.6574855341494
 30
0.0
  0
VERTEX
  5
33C
330
337
100
AcDbEntity
  8
0
100
AcDbVertex
100
AcDb2dVertex
 10
140.3670495221977
 20
-378.9478371699624
 30
0.0
  0
VERTEX
  5
33D
330
337
100
AcDbEntity
  8
0
100
AcDbVertex
100
AcDb2dVertex
 10
144.1354747482649
 20
-376.1184235640827
 30
0.0
  0
VERTEX
  5
33E
330
337
100
AcDbEntity
  8
0
100
AcDbVertex
100
AcDb2dVertex
 10
147.8131664548682
 20
-373.1720370061302
 30
0.0
  0
VERTEX
  5
33F
330
337
100
AcDbEntity
  8
0
100
AcDbVertex
100
AcDb2dVertex
 10
151.3964952042963
 20
-370.1115852239257
 30
0.0
  0
VERTEX
  5
340
330
337
100
AcDbEntity
  8
0
100
AcDbVertex
100
AcDb2dVertex
 10
154.8819246836909
 20
-366.9400885138876
 30
0.0
  0
VERTEX
  5
341
330
337
100
AcDbEntity
  8
0
100
AcDbVertex
100
AcDb2dVertex
 10
158.2660151949647
 20
-363.6606767603624
 30
0.0
  0
VERTEX
  5
342
330
337
100
AcDbEntity
  8
0
100
AcDbVertex
100
AcDb2dVertex
 10
161.5454270493487
 20
-360.2765863468242
 30
0.0
  0
VERTEX
  5
343
330
337
100
AcDbEntity
  8
0
100
AcDbVertex
100
AcDb2dVertex
 10
164.7169238632692
 20
-356.7911569619433
 30
0.0
  0
VERTEX
  5
344
330
337
100
AcDbEntity
  8
0
100
AcDbVertex
100
AcDb2dVertex
 10
167.7773757522645
 20
-353.2078283037288
 30
0.0
  0
VERTEX
  5
345
330
337
100
AcDbEntity
  8
0
100
AcDbVertex
100
AcDb2dVertex
 10
170.7237624198186
 20
-349.5301366849441
 30
0.0
  0
VERTEX
  5
346
330
337
100
AcDbEntity
  8
0
100
AcDbVertex
100
AcDb2dVertex
 10
173.5531761380151
 20
-345.7617115431945
 30
0.0
  0
VERTEX
  5
347
330
337
100
AcDbEntity
  8
0
100
AcDbVertex
100
AcDb2dVertex
 10
176.2628246171077
 20
-341.9062718591382
 30
0.0
  0
VERTEX
  5
348
330
337
100
AcDbEntity
  8
0
100
AcDbVertex
100
AcDb2dVertex
 10
178.8500337611907
 20
-337.967622486264
 30
0.0
  0
VERTEX
  5
349
330
337
100
AcDbEntity
  8
0
100
AcDbVertex
100
AcDb2dVertex
 10
181.3122503071955
 20
-333.9496503959861
 30
0.0
  0
VERTEX
  5
34A
330
337
100
AcDbEntity
  8
0
100
AcDbVertex
100
AcDb2dVertex
 10
183.6470443446559
 20
-329.8563208416665
 30
0.0
  0
VERTEX
  5
34B
330
337
100
AcDbEntity
  8
0
100
AcDbVertex
100
AcDb2dVertex
 10
185.852111713744
 20
-325.6916734453717
 30
0.0
  0
VERTEX
  5
34C
330
337
100
AcDbEntity
  8
0
100
AcDbVertex
100
AcDb2dVertex
 10
187.9252762791858
 20
-321.4598182112859
 30
0.0
  0
VERTEX
  5
34D
330
337
100
AcDbEntity
  8
0
100
AcDbVertex
100
AcDb2dVertex
 10
189.8644920778494
 20
-317.1649314696068
 30
0.0
  0
VERTEX
  5
34E
330
337
100
AcDbEntity
  8
0
100
AcDbVertex
100
AcDb2dVertex
 10
191.6678453378699
 20
-312.8112517550118
 30
0.0
  0
VERTEX
  5
34F
330
337
100
AcDbEntity
  8
0
100
AcDbVertex
100
AcDb2dVertex
 10
193.3335563672987
 20
-308.4030756237633
 30
0.0
  0
VERTEX
  5
350
330
337
100
AcDbEntity
  8
0
100
AcDbVertex
100
AcDb2dVertex
 10
194.8599813104524
 20
-303.9447534134957
 30
0.0
  0
VERTEX
  5
351
330
337
100
AcDbEntity
  8
0
100
AcDbVertex
100
AcDb2dVertex
 10
196.2456137702012
 20
-299.4406849499676
 30
0.0
  0
VERTEX
  5
352
330
337
100
AcDbEntity
  8
0
100
AcDbVertex
100
AcDb2dVertex
 10
197.4890862945978
 20
-294.8953152049713
 30
0.0
  0
VERTEX
  5
353
330
337
100
AcDbEntity
  8
0
100
AcDbVertex
100
AcDb2dVertex
 10
198.589171726385
 20
-290.3131299096753
 30
0.0
  0
VERTEX
  5
354
330
337
100
AcDbEntity
  8
0
100
AcDbVertex
100
AcDb2dVertex
 10
199.5447844140573
 20
-285.6986511277525
 30
0.0
  0
VERTEX
  5
355
330
337
100
AcDbEntity
  8
0
100
AcDbVertex
100
AcDb2dVertex
 10
200.354981283264
 20
-281.0564327926469
 30
0.0
  0
VERTEX
  5
356
330
337
100
AcDbEntity
  8
0
100
AcDbVertex
100
AcDb2dVertex
 10
201.0189627675117
 20
-276.3910562133942
 30
0.0
  0
VERTEX
  5
357
330
337
100
AcDbEntity
  8
0
100
AcDbVertex
100
AcDb2dVertex
 10
201.5360735972395
 20
-271.7071255534196
 30
0.0
  0
VERTEX
  5
358
330
337
100
AcDbEntity
  8
0
100
AcDbVertex
100
AcDb2dVertex
 10
201.9058034464895
 20
-267.0092632867912
 30
0.0
  0
VERTEX
  5
359
330
337
100
AcDbEntity
  8
0
100
AcDbVertex
100
AcDb2dVertex
 10
202.1277874365386
 20
-262.3021056363823
 30
0.0
  0
VERTEX
  5
35A
330
337
100
AcDbEntity
  8
0
100
AcDbVertex
100
AcDb2dVertex
 10
202.2018064959888
 20
-257.5902979984889
 30
0.0
  0
VERTEX
  5
35B
330
337
100
AcDbEntity
  8
0
100
AcDbVertex
100
AcDb2dVertex
 10
202.1277875769652
 20
-252.8784903583894
 30
0.0
  0
VERTEX
  5
35C
330
337
100
AcDbEntity
  8
0
100
AcDbVertex
100
AcDb2dVertex
 10
201.9058037272041
 20
-248.1713327013632
 30
0.0
  0
VERTEX
  5
35D
330
337
100
AcDbEntity
  8
0
100
AcDbVertex
100
AcDb2dVertex
 10
201.5360740179654
 20
-243.4734704237156
 30
0.0
  0
VERTEX
  5
35E
330
337
100
AcDbEntity
  8
0
100
AcDbVertex
100
AcDb2dVertex
 10
201.018963327833
 20
-238.7895397483296
 30
0.0
  0
VERTEX
  5
35F
330
337
100
AcDbEntity
  8
0
100
AcDbVertex
100
AcDb2dVertex
 10
200.354981982628
 20
-234.1241631492896
 30
0.0
  0
VERTEX
  5
360
330
337
100
AcDbEntity
  8
0
100
AcDbVertex
100
AcDb2dVertex
 10
199.5447852517738
 20
-229.4819447900376
 30
0.0
  0
VERTEX
  5
361
330
337
100
AcDbEntity
  8
0
100
AcDbVertex
100
AcDb2dVertex
 10
198.5891727016272
 20
-224.8674659796331
 30
0.0
  0
VERTEX
  5
362
330
337
100
AcDbEntity
  8
0
100
AcDbVertex
100
AcDb2dVertex
 10
197.4890874064036
 20
-220.2852806515526
 30
0.0
  0
VERTEX
  5
363
330
337
100
AcDbEntity
  8
0
100
AcDbVertex
100
AcDb2dVertex
 10
196.2456150174736
 20
-215.7399108694955
 30
0.0
  0
VERTEX
  5
364
330
337
100
AcDbEntity
  8
0
100
AcDbVertex
100
AcDb2dVertex
 10
194.8599826919599
 20
-211.2358423646727
 30
0.0
  0
VERTEX
  5
365
330
337
100
AcDbEntity
  8
0
100
AcDbVertex
100
AcDb2dVertex
 10
193.3335578816776
 20
-206.7775201089114
 30
0.0
  0
VERTEX
  5
366
330
337
100
AcDbEntity
  8
0
100
AcDbVertex
100
AcDb2dVertex
 10
191.6678469836266
 20
-202.3693439280196
 30
0.0
  0
VERTEX
  5
367
330
337
100
AcDbEntity
  8
0
100
AcDbVertex
100
AcDb2dVertex
 10
189.8644938533602
 20
-198.0156641596891
 30
0.0
  0
VERTEX
  5
368
330
337
100
AcDbEntity
  8
0
100
AcDbVertex
100
AcDb2dVertex
 10
187.925278182697
 20
-193.7207773602138
 30
0.0
  0
VERTEX
  5
369
330
337
100
AcDbEntity
  8
0
100
AcDbVertex
100
AcDb2dVertex
 10
185.852113743378
 20
-189.4889220643398
 30
0.0
  0
VERTEX
  5
36A
330
337
100
AcDbEntity
  8
0
100
AcDbVertex
100
AcDb2dVertex
 10
183.647046498409
 20
-185.3242746023286
 30
0.0
  0
VERTEX
  5
36B
330
337
100
AcDbEntity
  8
0
100
AcDbVertex
100
AcDb2dVertex
 10
181.3122525829424
 20
-181.2309449784248
 30
0.0
  0
VERTEX
  5
36C
330
337
100
AcDbEntity
  8
0
100
AcDbVertex
100
AcDb2dVertex
 10
178.8500361566859
 20
-177.2129728147652
 30
0.0
  0
VERTEX
  5
36D
330
337
100
AcDbEntity
  8
0
100
AcDbVertex
100
AcDb2dVertex
 10
176.2628271299874
 20
-173.2743233647841
 30
0.0
  0
VERTEX
  5
36E
330
337
100
AcDbEntity
  8
0
100
AcDbVertex
100
AcDb2dVertex
 10
173.5531787657985
 20
-169.4188835999704
 30
0.0
  0
VERTEX
  5
36F
330
337
100
AcDbEntity
  8
0
100
AcDbVertex
100
AcDb2dVertex
 10
170.7237651599126
 20
-165.6504583738954
 30
0.0
  0
VERTEX
  5
370
330
337
100
AcDbEntity
  8
0
100
AcDbVertex
100
AcDb2dVertex
 10
167.7773786019655
 20
-161.9727666672992
 30
0.0
  0
VERTEX
  5
371
330
337
100
AcDbEntity
  8
0
100
AcDbVertex
100
AcDb2dVertex
 10
164.7169268197645
 20
-158.3894379178751
 30
0.0
  0
VERTEX
  5
372
330
337
100
AcDbEntity
  8
0
100
AcDbVertex
100
AcDb2dVertex
 10
161.5454301097207
 20
-154.9040084384736
 30
0.0
  0
VERTEX
  5
373
330
337
100
AcDbEntity
  8
0
100
AcDbVertex
100
AcDb2dVertex
 10
158.2660183561934
 20
-151.5199179271973
 30
0.0
  0
VERTEX
  5
374
330
337
100
AcDbEntity
  8
0
100
AcDbVertex
100
AcDb2dVertex
 10
154.8819279426553
 20
-148.2405060728157
 30
0.0
  0
VERTEX
  5
375
330
337
100
AcDbEntity
  8
0
100
AcDbVertex
100
AcDb2dVertex
 10
151.3964985577823
 20
-145.0690092589024
 30
0.0
  0
VERTEX
  5
376
330
337
100
AcDbEntity
  8
0
100
AcDbVertex
100
AcDb2dVertex
 10
147.8131698995652
 20
-142.008557369902
 30
0.0
  0
VERTEX
  5
377
330
337
100
AcDbEntity
  8
0
100
AcDbVertex
100
AcDb2dVertex
 10
144.1354782807733
 20
-139.0621707023428
 30
0.0
  0
VERTEX
  5
378
330
337
100
AcDbEntity
  8
0
100
AcDbVertex
100
AcDb2dVertex
 10
140.3670531390315
 20
-136.2327569841523
 30
0.0
  0
VERTEX
  5
379
330
337
100
AcDbEntity
  8
0
100
AcDbVertex
100
AcDb2dVertex
 10
136.5116134549727
 20
-133.5231085050554
 30
0.0
  0
VERTEX
  5
37A
330
337
100
AcDbEntity
  8
0
100
AcDbVertex
100
AcDb2dVertex
 10
132.5729640820958
 20
-130.9358993609713
 30
0.0
  0
VERTEX
  5
37B
330
337
100
AcDbEntity
  8
0
100
AcDbVertex
100
AcDb2dVertex
 10
128.5549919918195
 20
-128.4736828149674
 30
0.0
  0
VERTEX
  5
37C
330
337
100
AcDbEntity
  8
0
100
AcDbVertex
100
AcDb2dVertex
 10
124.4616624375034
 20
-126.1388887775093
 30
0.0
  0
VERTEX
  5
37D
330
337
100
AcDbEntity
  8
0
100
AcDbVertex
100
AcDb2dVertex
 10
120.2970150412055
 20
-123.933821408417
 30
0.0
  0
VERTEX
  5
37E
330
337
100
AcDbEntity
  8
0
100
AcDbVertex
100
AcDb2dVertex
 10
116.0651598071212
 20
-121.8606568429779
 30
0.0
  0
VERTEX
  5
37F
330
337
100
AcDbEntity
  8
0
100
AcDbVertex
100
AcDb2dVertex
 10
111.7702730654395
 20
-119.9214410443126
 30
0.0
  0
VERTEX
  5
380
330
337
100
AcDbEntity
  8
0
100
AcDbVertex
100
AcDb2dVertex
 10
107.4165933508496
 20
-118.1180877842922
 30
0.0
  0
VERTEX
  5
381
330
337
100
AcDbEntity
  8
0
100
AcDbVertex
100
AcDb2dVertex
 10
103.0084172196004
 20
-116.4523767548638
 30
0.0
  0
VERTEX
  5
382
330
337
100
AcDbEntity
  8
0
100
AcDbVertex
100
AcDb2dVertex
 10
102.1956394663284
 20
-116.1741007179588
 30
0.0
  0
VERTEX
  5
383
330
337
100
AcDbEntity
  8
0
100
AcDbVertex
100
AcDb2dVertex
 10
102.1956435542676
 20
158.1554931218602
 30
0.0
  0
VERTEX
  5
384
330
337
100
AcDbEntity
  8
0
100
AcDbVertex
100
AcDb2dVertex
 10
102.1956442993457
 20
208.1554931218376
 30
0.0
  0
VERTEX
  5
385
330
337
100
AcDbEntity
  8
0
100
AcDbVertex
100
AcDb2dVertex
 10
2.195644299333758
 20
208.1554946119938
 30
0.0
  0
VERTEX
  5
386
330
337
100
AcDbEntity
  8
0
100
AcDbVertex
100
AcDb2dVertex
 10
2.195643554255682
 20
158.1554946120164
 30
0.0
  0
VERTEX
  5
387
330
337
100
AcDbEntity
  8
0
100
AcDbVertex
100
AcDb2dVertex
 10
2.195639466316459
 20
-116.1740992278041
 30
0.0
  0
VERTEX
  5
388
330
337
100
AcDbEntity
  8
0
100
AcDbVertex
100
AcDb2dVertex
 10
1.382861704751354
 20
-116.4523752404843
 30
0.0
  0
VERTEX
  5
389
330
337
100
AcDbEntity
  8
0
100
AcDbVertex
100
AcDb2dVertex
 10
-3.025314476141785
 20
-118.1180861385397
 30
0.0
  0
VERTEX
  5
38A
330
337
100
AcDbEntity
  8
0
100
AcDbVertex
100
AcDb2dVertex
 10
-7.378994244477871
 20
-119.9214392688054
 30
0.0
  0
VERTEX
  5
38B
330
337
100
AcDbEntity
  8
0
100
AcDbVertex
100
AcDb2dVertex
 10
-11.67388104395403
 20
-121.8606549394697
 30
0.0
  0
VERTEX
  5
38C
330
337
100
AcDbEntity
  8
0
100
AcDbVertex
100
AcDb2dVertex
 10
-15.90573633982477
 20
-123.9338193787877
 30
0.0
  0
VERTEX
  5
38D
330
337
100
AcDbEntity
  8
0
100
AcDbVertex
100
AcDb2dVertex
 10
-20.07038380183922
 20
-126.1388866237576
 30
0.0
  0
VERTEX
  5
38E
330
337
100
AcDbEntity
  8
0
100
AcDbVertex
100
AcDb2dVertex
 10
-24.16371342574081
 20
-128.4736805392231
 30
0.0
  0
VERTEX
  5
38F
330
337
100
AcDbEntity
  8
0
100
AcDbVertex
100
AcDb2dVertex
 10
-28.18168558939904
 20
-130.9358969654789
 30
0.0
  0
VERTEX
  5
390
330
337
100
AcDbEntity
  8
0
100
AcDbVertex
100
AcDb2dVertex
 10
-32.12033503938246
 20
-133.5231059921789
 30
0.0
  0
VERTEX
  5
391
330
337
100
AcDbEntity
  8
0
100
AcDbVertex
100
AcDb2dVertex
 10
-35.97577480419725
 20
-136.2327543563703
 30
0.0
  0
VERTEX
  5
392
330
337
100
AcDbEntity
  8
0
100
AcDbVertex
100
AcDb2dVertex
 10
-39.74420003026445
 20
-139.0621679622499
 30
0.0
  0
VERTEX
  5
393
330
337
100
AcDbEntity
  8
0
100
AcDbVertex
100
AcDb2dVertex
 10
-43.42189173686813
 20
-142.008554520201
 30
0.0
  0
VERTEX
  5
394
330
337
100
AcDbEntity
  8
0
100
AcDbVertex
100
AcDb2dVertex
 10
-47.00522048629598
 20
-145.069006302407
 30
0.0
  0
VERTEX
  5
395
330
337
100
AcDbEntity
  8
0
100
AcDbVertex
100
AcDb2dVertex
 10
-50.49064996569023
 20
-148.2405030124422
 30
0.0
  0
VERTEX
  5
396
330
337
100
AcDbEntity
  8
0
100
AcDbVertex
100
AcDb2dVertex
 10
-53.87474047696409
 20
-151.5199147659658
 30
0.0
  0
VERTEX
  5
397
330
337
100
AcDbEntity
  8
0
100
AcDbVertex
100
AcDb2dVertex
 10
-57.15415233134819
 20
-154.9040051795041
 30
0.0
  0
VERTEX
  5
398
330
337
100
AcDbEntity
  8
0
100
AcDbVertex
100
AcDb2dVertex
 10
-60.32564914526852
 20
-158.3894345643851
 30
0.0
  0
VERTEX
  5
399
330
337
100
AcDbEntity
  8
0
100
AcDbVertex
100
AcDb2dVertex
 10
-63.38610103426385
 20
-161.9727632225995
 30
0.0
  0
VERTEX
  5
39A
330
337
100
AcDbEntity
  8
0
100
AcDbVertex
100
AcDb2dVertex
 10
-66.33248770181783
 20
-165.6504548413843
 30
0.0
  0
VERTEX
  5
39B
330
337
100
AcDbEntity
  8
0
100
AcDbVertex
100
AcDb2dVertex
 10
-69.16190142001531
 20
-169.4188799831339
 30
0.0
  0
VERTEX
  5
39C
330
337
100
AcDbEntity
  8
0
100
AcDbVertex
100
AcDb2dVertex
 10
-71.87154989910744
 20
-173.2743196671916
 30
0.0
  0
VERTEX
  5
39D
330
337
100
AcDbEntity
  8
0
100
AcDbVertex
100
AcDb2dVertex
 10
-74.45875904318936
 20
-177.2129690400628
 30
0.0
  0
VERTEX
  5
39E
330
337
100
AcDbEntity
  8
0
100
AcDbVertex
100
AcDb2dVertex
 10
-76.92097558919467
 20
-181.2309411303422
 30
0.0
  0
VERTEX
  5
39F
330
337
100
AcDbEntity
  8
0
100
AcDbVertex
100
AcDb2dVertex
 10
-79.25576962665524
 20
-185.3242706846633
 30
0.0
  0
VERTEX
  5
3A0
330
337
100
AcDbEntity
  8
0
100
AcDbVertex
100
AcDb2dVertex
 10
-81.46083699574393
 20
-189.4889180809552
 30
0.0
  0
VERTEX
  5
3A1
330
337
100
AcDbEntity
  8
0
100
AcDbVertex
100
AcDb2dVertex
 10
-83.53400156118518
 20
-193.7207733150439
 30
0.0
  0
VERTEX
  5
3A2
330
337
100
AcDbEntity
  8
0
100
AcDbVertex
100
AcDb2dVertex
 10
-85.47321735984943
 20
-198.015660056723
 30
0.0
  0
VERTEX
  5
3A3
330
337
100
AcDbEntity
  8
0
100
AcDbVertex
100
AcDb2dVertex
 10
-87.27657061986946
 20
-202.3693397713136
 30
0.0
  0
VERTEX
  5
3A4
330
337
100
AcDbEntity
  8
0
100
AcDbVertex
100
AcDb2dVertex
 10
-88.94228164929757
 20
-206.7775159025621
 30
0.0
  0
VERTEX
  5
3A5
330
337
100
AcDbEntity
  8
0
100
AcDbVertex
100
AcDb2dVertex
 10
-90.46870659245174
 20
-211.2358381128298
 30
0.0
  0
VERTEX
  5
3A6
330
337
100
AcDbEntity
  8
0
100
AcDbVertex
100
AcDb2dVertex
 10
-91.85433905220094
 20
-215.7399065763549
 30
0.0
  0
VERTEX
  5
3A7
330
337
100
AcDbEntity
  8
0
100
AcDbVertex
100
AcDb2dVertex
 10
-93.09781157659698
 20
-220.2852763213528
 30
0.0
  0
VERTEX
  5
3A8
330
337
100
AcDbEntity
  8
0
100
AcDbVertex
100
AcDb2dVertex
 10
-94.19789700838415
 20
-224.8674616166502
 30
0.0
  0
VERTEX
  5
3A9
330
337
100
AcDbEntity
  8
0
100
AcDbVertex
100
AcDb2dVertex
 10
-95.15350969605649
 20
-229.4819403985729
 30
0.0
  0
VERTEX
  5
3AA
330
337
100
AcDbEntity
  8
0
100
AcDbVertex
100
AcDb2dVertex
 10
-95.96370656526332
 20
-234.1241587336815
 30
0.0
  0
VERTEX
  5
3AB
330
337
100
AcDbEntity
  8
0
100
AcDbVertex
100
AcDb2dVertex
 10
-96.62768804951176
 20
-238.7895353129356
 30
0.0
  0
VERTEX
  5
3AC
330
337
100
AcDbEntity
  8
0
100
AcDbVertex
100
AcDb2dVertex
 10
-97.14479887923899
 20
-243.4734659729087
 30
0.0
  0
VERTEX
  5
3AD
330
337
100
AcDbEntity
  8
0
100
AcDbVertex
100
AcDb2dVertex
 10
-97.51452872848887
 20
-248.1713282395371
 30
0.0
  0
VERTEX
  5
3AE
330
337
100
AcDbEntity
  8
0
100
AcDbVertex
100
AcDb2dVertex
 10
-97.73651271853795
 20
-252.8784858899461
 30
0.0
  0
VERTEX
  5
3AF
330
337
100
AcDbEntity
  8
0
100
AcDbVertex
100
AcDb2dVertex
 10
-97.81053177798812
 20
-257.5902935278409
 30
0.0
  0
VERTEX
  5
3B0
330
337
100
AcDbEntity
  8
0
100
AcDbVertex
100
AcDb2dVertex
 10
-97.73651285896491
 20
-262.3021011679389
 30
0.0
  0
VERTEX
  5
3B1
330
337
100
AcDbEntity
  8
0
100
AcDbVertex
100
AcDb2dVertex
 10
-97.51452900920344
 20
-267.0092588249638
 30
0.0
  0
VERTEX
  5
3B2
330
337
100
AcDbEntity
  8
0
100
AcDbVertex
100
AcDb2dVertex
 10
-97.14479929996472
 20
-271.7071211026141
 30
0.0
  0
VERTEX
  5
3B3
330
337
100
AcDbEntity
  8
0
100
AcDbVertex
100
AcDb2dVertex
 10
-96.62768860983306
 20
-276.3910517779988
 30
0.0
  0
VERTEX
  5
3B4
330
337
100
AcDbEntity
  8
0
100
AcDbVertex
100
AcDb2dVertex
 10
-95.96370726462739
 20
-281.0564283770402
 30
0.0
  0
VERTEX
  5
3B5
330
337
100
AcDbEntity
  8
0
100
AcDbVertex
100
AcDb2dVertex
 10
-95.15351053377356
 20
-285.6986467362879
 30
0.0
  0
VERTEX
  5
3B6
330
337
100
AcDbEntity
  8
0
100
AcDbVertex
100
AcDb2dVertex
 10
-94.19789798362672
 20
-290.3131255466908
 30
0.0
  0
VERTEX
  5
3B7
330
337
100
AcDbEntity
  8
0
100
AcDbVertex
100
AcDb2dVertex
 10
-93.09781268840297
 20
-294.8953108747743
 30
0.0
  0
VERTEX
  5
3B8
330
337
100
AcDbEntity
  8
0
100
AcDbVertex
100
AcDb2dVertex
 10
-91.85434029947315
 20
-299.44068065683
 30
0.0
  0
VERTEX
  5
3B9
330
337
100
AcDbEntity
  8
0
100
AcDbVertex
100
AcDb2dVertex
 10
-90.46870797395925
 20
-303.9447491616528
 30
0.0
  0
VERTEX
  5
3BA
330
337
100
AcDbEntity
  8
0
100
AcDbVertex
100
AcDb2dVertex
 10
-88.94228316367682
 20
-308.4030714174126
 30
0.0
  0
VERTEX
  5
3BB
330
337
100
AcDbEntity
  8
0
100
AcDbVertex
100
AcDb2dVertex
 10
-87.27657226562596
 20
-312.8112475983045
 30
0.0
  0
VERTEX
  5
3BC
330
337
100
AcDbEntity
  8
0
100
AcDbVertex
100
AcDb2dVertex
 10
-85.4732191353597
 20
-317.1649273666407
 30
0.0
  0
VERTEX
  5
3BD
330
337
100
AcDbEntity
  8
0
100
AcDbVertex
100
AcDb2dVertex
 10
-83.53400346469668
 20
-321.4598141661146
 30
0.0
  0
VERTEX
  5
3BE
330
337
100
AcDbEntity
  8
0
100
AcDbVertex
100
AcDb2dVertex
 10
-81.4608390253772
 20
-325.6916694619886
 30
0.0
  0
VERTEX
  5
3BF
330
337
100
AcDbEntity
  8
0
100
AcDbVertex
100
AcDb2dVertex
 10
-79.25577178040837
 20
-329.8563169239998
 30
0.0
  0
VERTEX
  5
3C0
330
337
100
AcDbEntity
  8
0
100
AcDbVertex
100
AcDb2dVertex
 10
-76.92097786494233
 20
-333.9496465479035
 30
0.0
  0
VERTEX
  5
3C1
330
337
100
AcDbEntity
  8
0
100
AcDbVertex
100
AcDb2dVertex
 10
-74.45876143868533
 20
-337.9676187115632
 30
0.0
  0
VERTEX
  5
3C2
330
337
100
AcDbEntity
  8
0
100
AcDbVertex
100
AcDb2dVertex
 10
-71.87155241198656
 20
-341.9062681615443
 30
0.0
  0
VERTEX
  5
3C3
330
337
100
AcDbEntity
  8
0
100
AcDbVertex
100
AcDb2dVertex
 10
-69.1619040477984
 20
-345.7617079263579
 30
0.0
  0
VERTEX
  5
3C4
330
337
100
AcDbEntity
  8
0
100
AcDbVertex
100
AcDb2dVertex
 10
-66.33249044191192
 20
-349.5301331524329
 30
0.0
  0
VERTEX
  5
3C5
330
337
100
AcDbEntity
  8
0
100
AcDbVertex
100
AcDb2dVertex
 10
-63.38610388396462
 20
-353.2078248590292
 30
0.0
  0
VERTEX
  5
3C6
330
337
100
AcDbEntity
  8
0
100
AcDbVertex
100
AcDb2dVertex
 10
-60.32565210176443
 20
-356.7911536084546
 30
0.0
  0
VERTEX
  5
3C7
330
337
100
AcDbEntity
  8
0
100
AcDbVertex
100
AcDb2dVertex
 10
-57.15415539171986
 20
-360.2765830878547
 30
0.0
  0
VERTEX
  5
3C8
330
337
100
AcDbEntity
  8
0
100
AcDbVertex
100
AcDb2dVertex
 10
-53.87474363819243
 20
-363.6606735991311
 30
0.0
  0
VERTEX
  5
3C9
330
337
100
AcDbEntity
  8
0
100
AcDbVertex
100
AcDb2dVertex
 10
-50.49065322465544
 20
-366.9400854535143
 30
0.0
  0
VERTEX
  5
3CA
330
337
100
AcDbEntity
  8
0
100
AcDbVertex
100
AcDb2dVertex
 10
-47.00522383978188
 20
-370.1115822674303
 30
0.0
  0
VERTEX
  5
3CB
330
337
100
AcDbEntity
  8
0
100
AcDbVertex
100
AcDb2dVertex
 10
-43.42189518156449
 20
-373.1720341564306
 30
0.0
  0
VERTEX
  5
3CC
330
337
100
AcDbEntity
  8
0
100
AcDbVertex
100
AcDb2dVertex
 10
-39.74420356277271
 20
-376.1184208239883
 30
0.0
  0
VERTEX
  5
3CD
330
337
100
AcDbEntity
  8
0
100
AcDbVertex
100
AcDb2dVertex
 10
-35.97577842103104
 20
-378.9478345421788
 30
0.0
  0
VERTEX
  5
3CE
330
337
100
AcDbEntity
  8
0
100
AcDbVertex
100
AcDb2dVertex
 10
-32.1203387369726
 20
-381.657483021273
 30
0.0
  0
VERTEX
  5
3CF
330
337
100
AcDbEntity
  8
0
100
AcDbVertex
100
AcDb2dVertex
 10
-28.18168936409519
 20
-384.2446921653572
 30
0.0
  0
VERTEX
  5
3D0
330
337
100
AcDbEntity
  8
0
100
AcDbVertex
100
AcDb2dVertex
 10
-24.16371727381924
 20
-386.7069087113611
 30
0.0
  0
VERTEX
  5
3D1
330
337
100
AcDbEntity
  8
0
100
AcDbVertex
100
AcDb2dVertex
 10
-20.07038771950253
 20
-389.041702748819
 30
0.0
  0
VERTEX
  5
3D2
330
337
100
AcDbEntity
  8
0
100
AcDbVertex
100
AcDb2dVertex
 10
-15.90574032320507
 20
-391.2467701179113
 30
0.0
  0
VERTEX
  5
3D3
330
337
100
AcDbEntity
  8
0
100
AcDbVertex
100
AcDb2dVertex
 10
-11.67388508912092
 20
-393.3199346833504
 30
0.0
  0
VERTEX
  5
3D4
330
337
100
AcDbEntity
  8
0
100
AcDbVertex
100
AcDb2dVertex
 10
-7.378998347439439
 20
-395.2591504820158
 30
0.0
  0
VERTEX
  5
3D5
330
337
100
AcDbEntity
  8
0
100
AcDbVertex
100
AcDb2dVertex
 10
-3.025318632848914
 20
-397.0625037420361
 30
0.0
  0
VERTEX
  5
3D6
330
337
100
AcDbEntity
  8
0
100
AcDbVertex
100
AcDb2dVertex
 10
1.382857498400294
 20
-398.7282147714617
 30
0.0
  0
VERTEX
  5
3D7
330
337
100
AcDbEntity
  8
0
100
AcDbVertex
100
AcDb2dVertex
 10
2.195635251666617
 20
-399.0064908083448
 30
0.0
  0
VERTEX
  5
3D8
330
337
100
AcDbEntity
  8
0
100
AcDbVertex
100
AcDb2dVertex
 10
2.195631163733037
 20
-673.3360846481473
 30
0.0
  0
VERTEX
  5
3D9
330
337
100
AcDbEntity
  8
0
100
AcDbVertex
100
AcDb2dVertex
 10
2.195630418654973
 20
-723.3360846481617
 30
0.0
  0
VERTEX
  5
3DA
330
337
100
AcDbEntity
  8
0
100
AcDbVertex
100
AcDb2dVertex
 10
102.1956304186669
 20
-723.3360861383178
 30
0.0
  0
VERTEX
  5
3DB
330
337
100
AcDbEntity
  8
0
100
AcDbVertex
100
AcDb2dVertex
 10
102.1956311637449
 20
-673.3360861383035
 30
0.0
  0
VERTEX
  5
3DC
330
337
100
AcDbEntity
  8
0
100
AcDbVertex
100
AcDb2dVertex
 10
102.1956352516842
 20
-399.0064922985028
 30
0.0
  0
VERTEX
  5
3DD
330
337
100
AcDbEntity
  8
0
100
AcDbVertex
100
AcDb2dVertex
 10
103.0084130132493
 20
-398.7282162858397
 30
0.0
  0
VERTEX
  5
3DE
330
337
100
AcDbEntity
  8
0
100
AcDbVertex
100
AcDb2dVertex
 10
107.4165891941423
 20
-397.0625053877886
 30
0.0
  0
VERTEX
  5
3DF
330
337
100
AcDbEntity
  8
0
100
AcDbVertex
100
AcDb2dVertex
 10
111.770268962478
 20
-395.2591522575229
 30
0.0
  0
VERTEX
  5
3E0
330
337
100
AcDbEntity
  8
0
100
AcDbVertex
100
AcDb2dVertex
 10
116.0651557619547
 20
-393.3199365868587
 30
0.0
  0
VERTEX
  5
3E1
330
337
100
AcDbEntity
  8
0
100
AcDbVertex
100
AcDb2dVertex
 10
120.2970110578252
 20
-391.2467721475407
 30
0.0
  0
SEQEND
  5
3E2
330
337
100
AcDbEntity
  8
0
  0
POLYLINE
  5
3E3
330
1F
100
AcDbEntity
  8
0
100
AcDb2dPolyline
 66
     1
 10
0.0
 20
0.0
 30
0.0
 70
     1
  0
VERTEX
  5
3E4
330
3E3
100
AcDbEntity
  8
0
100
AcDbVertex
100
AcDb2dVertex
 10
100.3710034633382
 20
-345.2209644854371
 30
0.0
  0
VERTEX
  5
3E5
330
3E3
100
AcDbEntity
  8
0
100
AcDbVertex
100
AcDb2dVertex
 10
97.59468600521586
 20
-346.6909488585168
 30
0.0
  0
VERTEX
  5
3E6
330
3E3
100
AcDbEntity
  8
0
100
AcDbVertex
100
AcDb2dVertex
 10
94.7735651671738
 20
-348.073001644247
 30
0.0
  0
VERTEX
  5
3E7
330
3E3
100
AcDbEntity
  8
0
100
AcDbVertex
100
AcDb2dVertex
 10
91.91042505488086
 20
-349.3657589233773
 30
0.0
  0
VERTEX
  5
3E8
330
3E3
100
AcDbEntity
  8
0
100
AcDbVertex
100
AcDb2dVertex
 10
89.00809124195615
 20
-350.5679449005549
 30
0.0
  0
VERTEX
  5
3E9
330
3E3
100
AcDbEntity
  8
0
100
AcDbVertex
100
AcDb2dVertex
 10
86.0694279814704
 20
-351.6783731633616
 30
0.0
  0
VERTEX
  5
3EA
330
3E3
100
AcDbEntity
  8
0
100
AcDbVertex
100
AcDb2dVertex
 10
83.09733537927238
 20
-352.6959478531646
 30
0.0
  0
VERTEX
  5
3EB
330
3E3
100
AcDbEntity
  8
0
100
AcDbVertex
100
AcDb2dVertex
 10
80.0947465319358
 20
-353.6196647466002
 30
0.0
  0
VERTEX
  5
3EC
330
3E3
100
AcDbEntity
  8
0
100
AcDbVertex
100
AcDb2dVertex
 10
77.06462463214575
 20
-354.4486122466169
 30
0.0
  0
VERTEX
  5
3ED
330
3E3
100
AcDbEntity
  8
0
100
AcDbVertex
100
AcDb2dVertex
 10
74.00996004438623
 20
-355.1819722821079
 30
0.0
  0
VERTEX
  5
3EE
330
3E3
100
AcDbEntity
  8
0
100
AcDbVertex
100
AcDb2dVertex
 10
70.93376735381143
 20
-355.8190211152629
 30
0.0
  0
VERTEX
  5
3EF
330
3E3
100
AcDbEntity
  8
0
100
AcDbVertex
100
AcDb2dVertex
 10
67.83908239121385
 20
-356.3591300557919
 30
0.0
  0
VERTEX
  5
3F0
330
3E3
100
AcDbEntity
  8
0
100
AcDbVertex
100
AcDb2dVertex
 10
64.72895923702492
 20
-356.8017660813808
 30
0.0
  0
VERTEX
  5
3F1
330
3E3
100
AcDbEntity
  8
0
100
AcDbVertex
100
AcDb2dVertex
 10
61.60646720730909
 20
-357.1464923637108
 30
0.0
  0
VERTEX
  5
3F2
330
3E3
100
AcDbEntity
  8
0
100
AcDbVertex
100
AcDb2dVertex
 10
58.47468782471574
 20
-357.3929686995618
 30
0.0
  0
VERTEX
  5
3F3
330
3E3
100
AcDbEntity
  8
0
100
AcDbVertex
100
AcDb2dVertex
 10
55.33671177739201
 20
-357.5409518465466
 30
0.0
  0
VERTEX
  5
3F4
330
3E3
100
AcDbEntity
  8
0
100
AcDbVertex
100
AcDb2dVertex
 10
52.19563586884384
 20
-357.590295763166
 30
0.0
  0
VERTEX
  5
3F5
330
3E3
100
AcDbEntity
  8
0
100
AcDbVertex
100
AcDb2dVertex
 10
49.0545599617665
 20
-357.5409517529328
 30
0.0
  0
VERTEX
  5
3F6
330
3E3
100
AcDbEntity
  8
0
100
AcDbVertex
100
AcDb2dVertex
 10
45.91658391885201
 20
-357.3929685124264
 30
0.0
  0
VERTEX
  5
3F7
330
3E3
100
AcDbEntity
  8
0
100
AcDbVertex
100
AcDb2dVertex
 10
42.78480454360604
 20
-357.1464920832342
 30
0.0
  0
VERTEX
  5
3F8
330
3E3
100
AcDbEntity
  8
0
100
AcDbVertex
100
AcDb2dVertex
 10
39.66231252416415
 20
-356.8017657078443
 30
0.0
  0
VERTEX
  5
3F9
330
3E3
100
AcDbEntity
  8
0
100
AcDbVertex
100
AcDb2dVertex
 10
36.55218938316751
 20
-356.359129589564
 30
0.0
  0
VERTEX
  5
3FA
330
3E3
100
AcDbEntity
  8
0
100
AcDbVertex
100
AcDb2dVertex
 10
33.45750443666281
 20
-355.819020556803
 30
0.0
  0
VERTEX
  5
3FB
330
3E3
100
AcDbEntity
  8
0
100
AcDbVertex
100
AcDb2dVertex
 10
30.38131176507772
 20
-355.18197163197
 30
0.0
  0
VERTEX
  5
3FC
330
3E3
100
AcDbEntity
  8
0
100
AcDbVertex
100
AcDb2dVertex
 10
27.32664719916996
 20
-354.4486115054377
 30
0.0
  0
VERTEX
  5
3FD
330
3E3
100
AcDbEntity
  8
0
100
AcDbVertex
100
AcDb2dVertex
 10
24.29652532408982
 20
-353.6196639151167
 30
0.0
  0
VERTEX
  5
3FE
330
3E3
100
AcDbEntity
  8
0
100
AcDbVertex
100
AcDb2dVertex
 10
21.29393650427704
 20
-352.6959469321927
 30
0.0
  0
VERTEX
  5
3FF
330
3E3
100
AcDbEntity
  8
0
100
AcDbVertex
100
AcDb2dVertex
 10
18.32184393240566
 20
-351.6783721538103
 30
0.0
  0
VERTEX
  5
400
330
3E3
100
AcDbEntity
  8
0
100
AcDbVertex
100
AcDb2dVertex
 10
15.38318070502025
 20
-350.5679438034246
 30
0.0
  0
VERTEX
  5
401
330
3E3
100
AcDbEntity
  8
0
100
AcDbVertex
100
AcDb2dVertex
 10
12.48084692791752
 20
-349.3657577397451
 30
0.0
  0
VERTEX
  5
402
330
3E3
100
AcDbEntity
  8
0
100
AcDbVertex
100
AcDb2dVertex
 10
9.617706854158968
 20
-348.0730003752875
 30
0.0
  0
VERTEX
  5
403
330
3E3
100
AcDbEntity
  8
0
100
AcDbVertex
100
AcDb2dVertex
 10
6.79658605729861
 20
-346.6909475054792
 30
0.0
  0
VERTEX
  5
404
330
3E3
100
AcDbEntity
  8
0
100
AcDbVertex
100
AcDb2dVertex
 10
4.020268642994901
 20
-345.2209630496608
 30
0.0
  0
VERTEX
  5
405
330
3E3
100
AcDbEntity
  8
0
100
AcDbVertex
100
AcDb2dVertex
 10
1.291494501314788
 20
-343.6644977050009
 30
0.0
  0
VERTEX
  5
406
330
3E3
100
AcDbEntity
  8
0
100
AcDbVertex
100
AcDb2dVertex
 10
-1.387043397079888
 20
-342.0230875149033
 30
0.0
  0
VERTEX
  5
407
330
3E3
100
AcDbEntity
  8
0
100
AcDbVertex
100
AcDb2dVertex
 10
-4.012701658692134
 20
-340.2983523530304
 30
0.0
  0
VERTEX
  5
408
330
3E3
100
AcDbEntity
  8
0
100
AcDbVertex
100
AcDb2dVertex
 10
-6.582889075817675
 20
-338.491994324762
 30
0.0
  0
VERTEX
  5
409
330
3E3
100
AcDbEntity
  8
0
100
AcDbVertex
100
AcDb2dVertex
 10
-9.095069183751912
 20
-336.6057960874083
 30
0.0
  0
VERTEX
  5
40A
330
3E3
100
AcDbEntity
  8
0
100
AcDbVertex
100
AcDb2dVertex
 10
-11.54676276406342
 20
-334.6416190908761
 30
0.0
  0
VERTEX
  5
40B
330
3E3
100
AcDbEntity
  8
0
100
AcDbVertex
100
AcDb2dVertex
 10
-13.93555029114766
 20
-332.6014017407536
 30
0.0
  0
VERTEX
  5
40C
330
3E3
100
AcDbEntity
  8
0
100
AcDbVertex
100
AcDb2dVertex
 10
-16.259074320155
 20
-330.4871574852159
 30
0.0
  0
VERTEX
  5
40D
330
3E3
100
AcDbEntity
  8
0
100
AcDbVertex
100
AcDb2dVertex
 10
-18.51504181335412
 20
-328.300972828122
 30
0.0
  0
VERTEX
  5
40E
330
3E3
100
AcDbEntity
  8
0
100
AcDbVertex
100
AcDb2dVertex
 10
-20.70122640322322
 20
-326.0450052697579
 30
0.0
  0
VERTEX
  5
40F
330
3E3
100
AcDbEntity
  8
0
100
AcDbVertex
100
AcDb2dVertex
 10
-22.81547058951335
 20
-323.7214811777387
 30
0.0
  0
VERTEX
  5
410
330
3E3
100
AcDbEntity
  8
0
100
AcDbVertex
100
AcDb2dVertex
 10
-24.85568786844044
 20
-321.3326935898494
 30
0.0
  0
VERTEX
  5
411
330
3E3
100
AcDbEntity
  8
0
100
AcDbVertex
100
AcDb2dVertex
 10
-26.81986479189615
 20
-318.8809999510094
 30
0.0
  0
VERTEX
  5
412
330
3E3
100
AcDbEntity
  8
0
100
AcDbVertex
100
AcDb2dVertex
 10
-28.70606295439527
 20
-316.3688197868393
 30
0.0
  0
VERTEX
  5
413
330
3E3
100
AcDbEntity
  8
0
100
AcDbVertex
100
AcDb2dVertex
 10
-30.51242090605669
 20
-313.7986323158868
 30
0.0
  0
VERTEX
  5
414
330
3E3
100
AcDbEntity
  8
0
100
AcDbVertex
100
AcDb2dVertex
 10
-32.2371559896674
 20
-311.1729740028853
 30
0.0
  0
VERTEX
  5
415
330
3E3
100
AcDbEntity
  8
0
100
AcDbVertex
100
AcDb2dVertex
 10
-33.8785660999535
 20
-308.494436055549
 30
0.0
  0
VERTEX
  5
416
330
3E3
100
AcDbEntity
  8
0
100
AcDbVertex
100
AcDb2dVertex
 10
-35.43503136327448
 20
-305.7656618675042
 30
0.0
  0
VERTEX
  5
417
330
3E3
100
AcDbEntity
  8
0
100
AcDbVertex
100
AcDb2dVertex
 10
-36.9050157363608
 20
-302.989344409367
 30
0.0
  0
VERTEX
  5
418
330
3E3
100
AcDbEntity
  8
0
100
AcDbVertex
100
AcDb2dVertex
 10
-38.28706852208691
 20
-300.1682235713238
 30
0.0
  0
VERTEX
  5
419
330
3E3
100
AcDbEntity
  8
0
100
AcDbVertex
100
AcDb2dVertex
 10
-39.57982580121084
 20
-297.305083459046
 30
0.0
  0
VERTEX
  5
41A
330
3E3
100
AcDbEntity
  8
0
100
AcDbVertex
100
AcDb2dVertex
 10
-40.78201177838825
 20
-294.4027496461218
 30
0.0
  0
VERTEX
  5
41B
330
3E3
100
AcDbEntity
  8
0
100
AcDbVertex
100
AcDb2dVertex
 10
-41.89244004120064
 20
-291.4640863856188
 30
0.0
  0
VERTEX
  5
41C
330
3E3
100
AcDbEntity
  8
0
100
AcDbVertex
100
AcDb2dVertex
 10
-42.91001473100443
 20
-288.4919937834206
 30
0.0
  0
VERTEX
  5
41D
330
3E3
100
AcDbEntity
  8
0
100
AcDbVertex
100
AcDb2dVertex
 10
-43.83373162443501
 20
-285.4894049361016
 30
0.0
  0
VERTEX
  5
41E
330
3E3
100
AcDbEntity
  8
0
100
AcDbVertex
100
AcDb2dVertex
 10
-44.66267912445402
 20
-282.4592830362939
 30
0.0
  0
VERTEX
  5
41F
330
3E3
100
AcDbEntity
  8
0
100
AcDbVertex
100
AcDb2dVertex
 10
-45.39603915994232
 20
-279.4046184485521
 30
0.0
  0
VERTEX
  5
420
330
3E3
100
AcDbEntity
  8
0
100
AcDbVertex
100
AcDb2dVertex
 10
-46.03308799309975
 20
-276.3284257579592
 30
0.0
  0
VERTEX
  5
421
330
3E3
100
AcDbEntity
  8
0
100
AcDbVertex
100
AcDb2dVertex
 10
-46.5731969336256
 20
-273.2337407953793
 30
0.0
  0
VERTEX
  5
422
330
3E3
100
AcDbEntity
  8
0
100
AcDbVertex
100
AcDb2dVertex
 10
-47.01583295921396
 20
-270.1236176411908
 30
0.0
  0
VERTEX
  5
423
330
3E3
100
AcDbEntity
  8
0
100
AcDbVertex
100
AcDb2dVertex
 10
-47.36055924154407
 20
-267.0011256114749
 30
0.0
  0
VERTEX
  5
424
330
3E3
100
AcDbEntity
  8
0
100
AcDbVertex
100
AcDb2dVertex
 10
-47.60703557739603
 20
-263.869346228862
 30
0.0
  0
VERTEX
  5
425
330
3E3
100
AcDbEntity
  8
0
100
AcDbVertex
100
AcDb2dVertex
 10
-47.75501872437995
 20
-260.7313701815561
 30
0.0
  0
VERTEX
  5
426
330
3E3
100
AcDbEntity
  8
0
100
AcDbVertex
100
AcDb2dVertex
 10
-47.80436264099976
 20
-257.590294272991
 30
0.0
  0
VERTEX
  5
427
330
3E3
100
AcDbEntity
  8
0
100
AcDbVertex
100
AcDb2dVertex
 10
-47.75501863076627
 20
-254.4492183659307
 30
0.0
  0
VERTEX
  5
428
330
3E3
100
AcDbEntity
  8
0
100
AcDbVertex
100
AcDb2dVertex
 10
-47.60703539025834
 20
-251.3112423230011
 30
0.0
  0
VERTEX
  5
429
330
3E3
100
AcDbEntity
  8
0
100
AcDbVertex
100
AcDb2dVertex
 10
-47.3605589610719
 20
-248.1794629477708
 30
0.0
  0
VERTEX
  5
42A
330
3E3
100
AcDbEntity
  8
0
100
AcDbVertex
100
AcDb2dVertex
 10
-47.01583258567921
 20
-245.0569709283108
 30
0.0
  0
VERTEX
  5
42B
330
3E3
100
AcDbEntity
  8
0
100
AcDbVertex
100
AcDb2dVertex
 10
-46.57319646740205
 20
-241.9468477873337
 30
0.0
  0
VERTEX
  5
42C
330
3E3
100
AcDbEntity
  8
0
100
AcDbVertex
100
AcDb2dVertex
 10
-46.03308743463812
 20
-238.8521628408137
 30
0.0
  0
VERTEX
  5
42D
330
3E3
100
AcDbEntity
  8
0
100
AcDbVertex
100
AcDb2dVertex
 10
-45.39603850980315
 20
-235.7759701692265
 30
0.0
  0
VERTEX
  5
42E
330
3E3
100
AcDbEntity
  8
0
100
AcDbVertex
100
AcDb2dVertex
 10
-44.66267838327631
 20
-232.7213056033396
 30
0.0
  0
VERTEX
  5
42F
330
3E3
100
AcDbEntity
  8
0
100
AcDbVertex
100
AcDb2dVertex
 10
-43.83373079294884
 20
-229.6911837282391
 30
0.0
  0
VERTEX
  5
430
330
3E3
100
AcDbEntity
  8
0
100
AcDbVertex
100
AcDb2dVertex
 10
-42.91001381002643
 20
-226.6885949084318
 30
0.0
  0
VERTEX
  5
431
330
3E3
100
AcDbEntity
  8
0
100
AcDbVertex
100
AcDb2dVertex
 10
-41.89243903165022
 20
-223.7165023365774
 30
0.0
  0
VERTEX
  5
432
330
3E3
100
AcDbEntity
  8
0
100
AcDbVertex
100
AcDb2dVertex
 10
-40.78201068126215
 20
-220.7778391091867
 30
0.0
  0
VERTEX
  5
433
330
3E3
100
AcDbEntity
  8
0
100
AcDbVertex
100
AcDb2dVertex
 10
-39.57982461757882
 20
-217.8755053320745
 30
0.0
  0
VERTEX
  5
434
330
3E3
100
AcDbEntity
  8
0
100
AcDbVertex
100
AcDb2dVertex
 10
-38.28706725312476
 20
-215.012365258325
 30
0.0
  0
VERTEX
  5
435
330
3E3
100
AcDbEntity
  8
0
100
AcDbVertex
100
AcDb2dVertex
 10
-36.90501438331242
 20
-212.1912444614573
 30
0.0
  0
VERTEX
  5
436
330
3E3
100
AcDbEntity
  8
0
100
AcDbVertex
100
AcDb2dVertex
 10
-35.43502992749811
 20
-209.4149270471609
 30
0.0
  0
VERTEX
  5
437
330
3E3
100
AcDbEntity
  8
0
100
AcDbVertex
100
AcDb2dVertex
 10
-33.87856458283495
 20
-206.6861529054749
 30
0.0
  0
VERTEX
  5
438
330
3E3
100
AcDbEntity
  8
0
100
AcDbVertex
100
AcDb2dVertex
 10
-32.23715439272775
 20
-204.0076150070722
 30
0.0
  0
VERTEX
  5
439
330
3E3
100
AcDbEntity
  8
0
100
AcDbVertex
100
AcDb2dVertex
 10
-30.51241923086408
 20
-201.3819567454732
 30
0.0
  0
VERTEX
  5
43A
330
3E3
100
AcDbEntity
  8
0
100
AcDbVertex
100
AcDb2dVertex
 10
-28.70606120260301
 20
-198.8117693283563
 30
0.0
  0
VERTEX
  5
43B
330
3E3
100
AcDbEntity
  8
0
100
AcDbVertex
100
AcDb2dVertex
 10
-26.81986296523273
 20
-196.2995892204019
 30
0.0
  0
VERTEX
  5
43C
330
3E3
100
AcDbEntity
  8
0
100
AcDbVertex
100
AcDb2dVertex
 10
-24.85568596871756
 20
-193.8478956401118
 30
0.0
  0
VERTEX
  5
43D
330
3E3
100
AcDbEntity
  8
0
100
AcDbVertex
100
AcDb2dVertex
 10
-22.81546861857918
 20
-191.459108113008
 30
0.0
  0
VERTEX
  5
43E
330
3E3
100
AcDbEntity
  8
0
100
AcDbVertex
100
AcDb2dVertex
 10
-20.70122436304986
 20
-189.1355840840096
 30
0.0
  0
VERTEX
  5
43F
330
3E3
100
AcDbEntity
  8
0
100
AcDbVertex
100
AcDb2dVertex
 10
-18.51503970594587
 20
-186.8796165908028
 30
0.0
  0
VERTEX
  5
440
330
3E3
100
AcDbEntity
  8
0
100
AcDbVertex
100
AcDb2dVertex
 10
-16.25907214759166
 20
-184.6934320009422
 30
0.0
  0
VERTEX
  5
441
330
3E3
100
AcDbEntity
  8
0
100
AcDbVertex
100
AcDb2dVertex
 10
-13.93554805558245
 20
-182.5791878146618
 30
0.0
  0
VERTEX
  5
442
330
3E3
100
AcDbEntity
  8
0
100
AcDbVertex
100
AcDb2dVertex
 10
-11.54676046767523
 20
-180.5389705357177
 30
0.0
  0
VERTEX
  5
443
330
3E3
100
AcDbEntity
  8
0
100
AcDbVertex
100
AcDb2dVertex
 10
-9.09506682884362
 20
-178.5747936122701
 30
0.0
  0
VERTEX
  5
444
330
3E3
100
AcDbEntity
  8
0
100
AcDbVertex
100
AcDb2dVertex
 10
-6.582886664685562
 20
-176.688595449779
 30
0.0
  0
VERTEX
  5
445
330
3E3
100
AcDbEntity
  8
0
100
AcDbVertex
100
AcDb2dVertex
 10
-4.012699193725292
 20
-174.8822374981113
 30
0.0
  0
VERTEX
  5
446
330
3E3
100
AcDbEntity
  8
0
100
AcDbVertex
100
AcDb2dVertex
 10
-1.38704088071904
 20
-173.1575024144997
 30
0.0
  0
VERTEX
  5
447
330
3E3
100
AcDbEntity
  8
0
100
AcDbVertex
100
AcDb2dVertex
 10
1.291497066603012
 20
-171.5160923042171
 30
0.0
  0
VERTEX
  5
448
330
3E3
100
AcDbEntity
  8
0
100
AcDbVertex
100
AcDb2dVertex
 10
4.02027125467009
 20
-169.9596270408828
 30
0.0
  0
VERTEX
  5
449
330
3E3
100
AcDbEntity
  8
0
100
AcDbVertex
100
AcDb2dVertex
 10
6.796588712784056
 20
-168.4896426678088
 30
0.0
  0
VERTEX
  5
44A
330
3E3
100
AcDbEntity
  8
0
100
AcDbVertex
100
AcDb2dVertex
 10
9.617709550826115
 20
-167.1075898820828
 30
0.0
  0
VERTEX
  5
44B
330
3E3
100
AcDbEntity
  8
0
100
AcDbVertex
100
AcDb2dVertex
 10
12.48084966312647
 20
-165.8148326029482
 30
0.0
  0
VERTEX
  5
44C
330
3E3
100
AcDbEntity
  8
0
100
AcDbVertex
100
AcDb2dVertex
 10
15.3831834760445
 20
-164.6126466257735
 30
0.0
  0
VERTEX
  5
44D
330
3E3
100
AcDbEntity
  8
0
100
AcDbVertex
100
AcDb2dVertex
 10
18.32184673653591
 20
-163.5022183629647
 30
0.0
  0
VERTEX
  5
44E
330
3E3
100
AcDbEntity
  8
0
100
AcDbVertex
100
AcDb2dVertex
 10
21.29393933873346
 20
-162.4846436731621
 30
0.0
  0
VERTEX
  5
44F
330
3E3
100
AcDbEntity
  8
0
100
AcDbVertex
100
AcDb2dVertex
 10
24.29652818606485
 20
-161.5609267797281
 30
0.0
  0
VERTEX
  5
450
330
3E3
100
AcDbEntity
  8
0
100
AcDbVertex
100
AcDb2dVertex
 10
27.32665008585489
 20
-160.7319792797115
 30
0.0
  0
VERTEX
  5
451
330
3E3
100
AcDbEntity
  8
0
100
AcDbVertex
100
AcDb2dVertex
 10
30.38131467361439
 20
-159.9986192442205
 30
0.0
  0
VERTEX
  5
452
330
3E3
100
AcDbEntity
  8
0
100
AcDbVertex
100
AcDb2dVertex
 10
33.45750736418919
 20
-159.3615704110654
 30
0.0
  0
VERTEX
  5
453
330
3E3
100
AcDbEntity
  8
0
100
AcDbVertex
100
AcDb2dVertex
 10
36.55219232678956
 20
-158.8214614705361
 30
0.0
  0
VERTEX
  5
454
330
3E3
100
AcDbEntity
  8
0
100
AcDbVertex
100
AcDb2dVertex
 10
39.66231548097574
 20
-158.3788254449475
 30
0.0
  0
VERTEX
  5
455
330
3E3
100
AcDbEntity
  8
0
100
AcDbVertex
100
AcDb2dVertex
 10
42.78480751069155
 20
-158.0340991626205
 30
0.0
  0
VERTEX
  5
456
330
3E3
100
AcDbEntity
  8
0
100
AcDbVertex
100
AcDb2dVertex
 10
45.91658689328505
 20
-157.7876228267694
 30
0.0
  0
VERTEX
  5
457
330
3E3
100
AcDbEntity
  8
0
100
AcDbVertex
100
AcDb2dVertex
 10
49.05456294060826
 20
-157.639639679786
 30
0.0
  0
VERTEX
  5
458
330
3E3
100
AcDbEntity
  8
0
100
AcDbVertex
100
AcDb2dVertex
 10
52.19563884915637
 20
-157.5902957631652
 30
0.0
  0
VERTEX
  5
459
330
3E3
100
AcDbEntity
  8
0
100
AcDbVertex
100
AcDb2dVertex
 10
55.336714756234
 20
-157.6396397733999
 30
0.0
  0
VERTEX
  5
45A
330
3E3
100
AcDbEntity
  8
0
100
AcDbVertex
100
AcDb2dVertex
 10
58.47469079914737
 20
-157.7876230139063
 30
0.0
  0
VERTEX
  5
45B
330
3E3
100
AcDbEntity
  8
0
100
AcDbVertex
100
AcDb2dVertex
 10
61.60647017439462
 20
-158.0340994430941
 30
0.0
  0
VERTEX
  5
45C
330
3E3
100
AcDbEntity
  8
0
100
AcDbVertex
100
AcDb2dVertex
 10
64.72896219383466
 20
-158.3788258184839
 30
0.0
  0
VERTEX
  5
45D
330
3E3
100
AcDbEntity
  8
0
100
AcDbVertex
100
AcDb2dVertex
 10
67.83908533483331
 20
-158.8214619367643
 30
0.0
  0
VERTEX
  5
45E
330
3E3
100
AcDbEntity
  8
0
100
AcDbVertex
100
AcDb2dVertex
 10
70.93377028133415
 20
-159.3615709695246
 30
0.0
  0
VERTEX
  5
45F
330
3E3
100
AcDbEntity
  8
0
100
AcDbVertex
100
AcDb2dVertex
 10
74.0099629529229
 20
-159.9986198943583
 30
0.0
  0
VERTEX
  5
460
330
3E3
100
AcDbEntity
  8
0
100
AcDbVertex
100
AcDb2dVertex
 10
77.0646275188218
 20
-160.7319800208884
 30
0.0
  0
VERTEX
  5
461
330
3E3
100
AcDbEntity
  8
0
100
AcDbVertex
100
AcDb2dVertex
 10
80.09474939391083
 20
-161.5609276112116
 30
0.0
  0
VERTEX
  5
462
330
3E3
100
AcDbEntity
  8
0
100
AcDbVertex
100
AcDb2dVertex
 10
83.09733821371275
 20
-162.4846445941321
 30
0.0
  0
VERTEX
  5
463
330
3E3
100
AcDbEntity
  8
0
100
AcDbVertex
100
AcDb2dVertex
 10
86.06943078558888
 20
-163.5022193725159
 30
0.0
  0
VERTEX
  5
464
330
3E3
100
AcDbEntity
  8
0
100
AcDbVertex
100
AcDb2dVertex
 10
89.0080940129804
 20
-164.6126477229038
 30
0.0
  0
VERTEX
  5
465
330
3E3
100
AcDbEntity
  8
0
100
AcDbVertex
100
AcDb2dVertex
 10
91.9104277900762
 20
-165.8148337865801
 30
0.0
  0
VERTEX
  5
466
330
3E3
100
AcDbEntity
  8
0
100
AcDbVertex
100
AcDb2dVertex
 10
94.77356786383402
 20
-167.1075911510392
 30
0.0
  0
VERTEX
  5
467
330
3E3
100
AcDbEntity
  8
0
100
AcDbVertex
100
AcDb2dVertex
 10
97.59468866069369
 20
-168.4896440208421
 30
0.0
  0
VERTEX
  5
468
330
3E3
100
AcDbEntity
  8
0
100
AcDbVertex
100
AcDb2dVertex
 10
100.3710060749981
 20
-169.9596284766591
 30
0.0
  0
VERTEX
  5
469
330
3E3
100
AcDbEntity
  8
0
100
AcDbVertex
100
AcDb2dVertex
 10
103.0997802166776
 20
-171.5160938213009
 30
0.0
  0
VERTEX
  5
46A
330
3E3
100
AcDbEntity
  8
0
100
AcDbVertex
100
AcDb2dVertex
 10
105.7783181150806
 20
-173.157504011408
 30
0.0
  0
VERTEX
  5
46B
330
3E3
100
AcDbEntity
  8
0
100
AcDbVertex
100
AcDb2dVertex
 10
108.4039763766928
 20
-174.8822391732795
 30
0.0
  0
VERTEX
  5
46C
330
3E3
100
AcDbEntity
  8
0
100
AcDbVertex
100
AcDb2dVertex
 10
110.9741637938095
 20
-176.6885972015597
 30
0.0
  0
VERTEX
  5
46D
330
3E3
100
AcDbEntity
  8
0
100
AcDbVertex
100
AcDb2dVertex
 10
113.4863439017437
 20
-178.5747954389134
 30
0.0
  0
VERTEX
  5
46E
330
3E3
100
AcDbEntity
  8
0
100
AcDbVertex
100
AcDb2dVertex
 10
115.9380374820542
 20
-180.5389724354444
 30
0.0
  0
VERTEX
  5
46F
330
3E3
100
AcDbEntity
  8
0
100
AcDbVertex
100
AcDb2dVertex
 10
118.3268250091483
 20
-182.5791897855748
 30
0.0
  0
VERTEX
  5
470
330
3E3
100
AcDbEntity
  8
0
100
AcDbVertex
100
AcDb2dVertex
 10
120.6503490381372
 20
-184.6934340410952
 30
0.0
  0
VERTEX
  5
471
330
3E3
100
AcDbEntity
  8
0
100
AcDbVertex
100
AcDb2dVertex
 10
122.9063165313549
 20
-186.8796186981879
 30
0.0
  0
VERTEX
  5
472
330
3E3
100
AcDbEntity
  8
0
100
AcDbVertex
100
AcDb2dVertex
 10
125.0925011212239
 20
-189.1355862565704
 30
0.0
  0
VERTEX
  5
473
330
3E3
100
AcDbEntity
  8
0
100
AcDbVertex
100
AcDb2dVertex
 10
127.2067453074951
 20
-191.4591103485691
 30
0.0
  0
VERTEX
  5
474
330
3E3
100
AcDbEntity
  8
0
100
AcDbVertex
100
AcDb2dVertex
 10
129.2469625864407
 20
-193.8478979364604
 30
0.0
  0
VERTEX
  5
475
330
3E3
100
AcDbEntity
  8
0
100
AcDbVertex
100
AcDb2dVertex
 10
131.2111395098968
 20
-196.2995915753005
 30
0.0
  0
VERTEX
  5
476
330
3E3
100
AcDbEntity
  8
0
100
AcDbVertex
100
AcDb2dVertex
 10
133.0973376723872
 20
-198.8117717394582
 30
0.0
  0
VERTEX
  5
477
330
3E3
100
AcDbEntity
  8
0
100
AcDbVertex
100
AcDb2dVertex
 10
134.903695624049
 20
-201.3819592104286
 30
0.0
  0
VERTEX
  5
478
330
3E3
100
AcDbEntity
  8
0
100
AcDbVertex
100
AcDb2dVertex
 10
136.6284307076673
 20
-204.007617523443
 30
0.0
  0
VERTEX
  5
479
330
3E3
100
AcDbEntity
  8
0
100
AcDbVertex
100
AcDb2dVertex
 10
138.2698408179462
 20
-206.6861554707683
 30
0.0
  0
VERTEX
  5
47A
330
3E3
100
AcDbEntity
  8
0
100
AcDbVertex
100
AcDb2dVertex
 10
139.8263060812672
 20
-209.4149296588145
 30
0.0
  0
VERTEX
  5
47B
330
3E3
100
AcDbEntity
  8
0
100
AcDbVertex
100
AcDb2dVertex
 10
141.2962904543464
 20
-212.191247116935
 30
0.0
  0
VERTEX
  5
47C
330
3E3
100
AcDbEntity
  8
0
100
AcDbVertex
100
AcDb2dVertex
 10
142.6783432400799
 20
-215.0123679549907
 30
0.0
  0
VERTEX
  5
47D
330
3E3
100
AcDbEntity
  8
0
100
AcDbVertex
100
AcDb2dVertex
 10
143.9711005192111
 20
-217.8755080672838
 30
0.0
  0
VERTEX
  5
47E
330
3E3
100
AcDbEntity
  8
0
100
AcDbVertex
100
AcDb2dVertex
 10
145.1732864963823
 20
-220.7778418801951
 30
0.0
  0
VERTEX
  5
47F
330
3E3
100
AcDbEntity
  8
0
100
AcDbVertex
100
AcDb2dVertex
 10
146.2837147591955
 20
-223.7165051406959
 30
0.0
  0
VERTEX
  5
480
330
3E3
100
AcDbEntity
  8
0
100
AcDbVertex
100
AcDb2dVertex
 10
147.3012894489935
 20
-226.6885977428773
 30
0.0
  0
VERTEX
  5
481
330
3E3
100
AcDbEntity
  8
0
100
AcDbVertex
100
AcDb2dVertex
 10
148.2250063424353
 20
-229.691186590231
 30
0.0
  0
VERTEX
  5
482
330
3E3
100
AcDbEntity
  8
0
100
AcDbVertex
100
AcDb2dVertex
 10
149.0539538424505
 20
-232.7213084900212
 30
0.0
  0
VERTEX
  5
483
330
3E3
100
AcDbEntity
  8
0
100
AcDbVertex
100
AcDb2dVertex
 10
149.7873138779388
 20
-235.7759730777631
 30
0.0
  0
VERTEX
  5
484
330
3E3
100
AcDbEntity
  8
0
100
AcDbVertex
100
AcDb2dVertex
 10
150.4243627110929
 20
-238.8521657683365
 30
0.0
  0
VERTEX
  5
485
330
3E3
100
AcDbEntity
  8
0
100
AcDbVertex
100
AcDb2dVertex
 10
150.9644716516262
 20
-241.9468507309534
 30
0.0
  0
VERTEX
  5
486
330
3E3
100
AcDbEntity
  8
0
100
AcDbVertex
100
AcDb2dVertex
 10
151.407107677212
 20
-245.0569738851238
 30
0.0
  0
VERTEX
  5
487
330
3E3
100
AcDbEntity
  8
0
100
AcDbVertex
100
AcDb2dVertex
 10
151.7518339595447
 20
-248.1794659148392
 30
0.0
  0
VERTEX
  5
488
330
3E3
100
AcDbEntity
  8
0
100
AcDbVertex
100
AcDb2dVertex
 10
151.9983102953951
 20
-251.3112452974507
 30
0.0
  0
VERTEX
  5
489
330
3E3
100
AcDbEntity
  8
0
100
AcDbVertex
100
AcDb2dVertex
 10
152.1462934423799
 20
-254.4492213447553
 30
0.0
  0
VERTEX
  5
48A
330
3E3
100
AcDbEntity
  8
0
100
AcDbVertex
100
AcDb2dVertex
 10
152.1956373590007
 20
-257.5902972533218
 30
0.0
  0
VERTEX
  5
48B
330
3E3
100
AcDbEntity
  8
0
100
AcDbVertex
100
AcDb2dVertex
 10
152.1462933487672
 20
-260.7313731603806
 30
0.0
  0
VERTEX
  5
48C
330
3E3
100
AcDbEntity
  8
0
100
AcDbVertex
100
AcDb2dVertex
 10
151.9983101082606
 20
-263.8693492032947
 30
0.0
  0
VERTEX
  5
48D
330
3E3
100
AcDbEntity
  8
0
100
AcDbVertex
100
AcDb2dVertex
 10
151.751833679074
 20
-267.0011285785422
 30
0.0
  0
VERTEX
  5
48E
330
3E3
100
AcDbEntity
  8
0
100
AcDbVertex
100
AcDb2dVertex
 10
151.4071073036844
 20
-270.1236205979841
 30
0.0
  0
VERTEX
  5
48F
330
3E3
100
AcDbEntity
  8
0
100
AcDbVertex
100
AcDb2dVertex
 10
150.9644711854027
 20
-273.233743738999
 30
0.0
  0
VERTEX
  5
490
330
3E3
100
AcDbEntity
  8
0
100
AcDbVertex
100
AcDb2dVertex
 10
150.4243621526417
 20
-276.3284286854998
 30
0.0
  0
VERTEX
  5
491
330
3E3
100
AcDbEntity
  8
0
100
AcDbVertex
100
AcDb2dVertex
 10
149.787313227808
 20
-279.4046213570887
 30
0.0
  0
VERTEX
  5
492
330
3E3
100
AcDbEntity
  8
0
100
AcDbVertex
100
AcDb2dVertex
 10
149.0539531012769
 20
-282.4592859229916
 30
0.0
  0
VERTEX
  5
493
330
3E3
100
AcDbEntity
  8
0
100
AcDbVertex
100
AcDb2dVertex
 10
148.2250055109549
 20
-285.4894077980767
 30
0.0
  0
VERTEX
  5
494
330
3E3
100
AcDbEntity
  8
0
100
AcDbVertex
100
AcDb2dVertex
 10
147.3012885280322
 20
-288.4919966178829
 30
0.0
  0
VERTEX
  5
495
330
3E3
100
AcDbEntity
  8
0
100
AcDbVertex
100
AcDb2dVertex
 10
146.2837137496508
 20
-291.4640891897538
 30
0.0
  0
VERTEX
  5
496
330
3E3
100
AcDbEntity
  8
0
100
AcDbVertex
100
AcDb2dVertex
 10
145.1732853992628
 20
-294.4027524171461
 30
0.0
  0
VERTEX
  5
497
330
3E3
100
AcDbEntity
  8
0
100
AcDbVertex
100
AcDb2dVertex
 10
143.9710993355866
 20
-297.3050861942413
 30
0.0
  0
VERTEX
  5
498
330
3E3
100
AcDbEntity
  8
0
100
AcDbVertex
100
AcDb2dVertex
 10
142.6783419711247
 20
-300.1682262680048
 30
0.0
  0
VERTEX
  5
499
330
3E3
100
AcDbEntity
  8
0
100
AcDbVertex
100
AcDb2dVertex
 10
141.2962891013207
 20
-302.9893470648595
 30
0.0
  0
VERTEX
  5
49A
330
3E3
100
AcDbEntity
  8
0
100
AcDbVertex
100
AcDb2dVertex
 10
139.8263046454987
 20
-305.7656644791703
 30
0.0
  0
VERTEX
  5
49B
330
3E3
100
AcDbEntity
  8
0
100
AcDbVertex
100
AcDb2dVertex
 10
138.2698393008438
 20
-308.4944386208401
 30
0.0
  0
VERTEX
  5
49C
330
3E3
100
AcDbEntity
  8
0
100
AcDbVertex
100
AcDb2dVertex
 10
136.6284291107361
 20
-311.1729765192433
 30
0.0
  0
VERTEX
  5
49D
330
3E3
100
AcDbEntity
  8
0
100
AcDbVertex
100
AcDb2dVertex
 10
134.9036939488649
 20
-313.7986347808552
 30
0.0
  0
VERTEX
  5
49E
330
3E3
100
AcDbEntity
  8
0
100
AcDbVertex
100
AcDb2dVertex
 10
133.0973359206035
 20
-316.368822197972
 30
0.0
  0
VERTEX
  5
49F
330
3E3
100
AcDbEntity
  8
0
100
AcDbVertex
100
AcDb2dVertex
 10
131.2111376832424
 20
-318.8810023059151
 30
0.0
  0
VERTEX
  5
4A0
330
3E3
100
AcDbEntity
  8
0
100
AcDbVertex
100
AcDb2dVertex
 10
129.2469606867182
 20
-321.3326958862166
 30
0.0
  0
VERTEX
  5
4A1
330
3E3
100
AcDbEntity
  8
0
100
AcDbVertex
100
AcDb2dVertex
 10
127.2067433365883
 20
-323.7214834133102
 30
0.0
  0
VERTEX
  5
4A2
330
3E3
100
AcDbEntity
  8
0
100
AcDbVertex
100
AcDb2dVertex
 10
125.0924990810597
 20
-326.0450074423092
 30
0.0
  0
VERTEX
  5
4A3
330
3E3
100
AcDbEntity
  8
0
100
AcDbVertex
100
AcDb2dVertex
 10
122.9063144239558
 20
-328.3009749355166
 30
0.0
  0
VERTEX
  5
4A4
330
3E3
100
AcDbEntity
  8
0
100
AcDbVertex
100
AcDb2dVertex
 10
120.6503468655923
 20
-330.4871595253861
 30
0.0
  0
VERTEX
  5
4A5
330
3E3
100
AcDbEntity
  8
0
100
AcDbVertex
100
AcDb2dVertex
 10
118.3268227735831
 20
-332.6014037116666
 30
0.0
  0
VERTEX
  5
4A6
330
3E3
100
AcDbEntity
  8
0
100
AcDbVertex
100
AcDb2dVertex
 10
115.9380351856842
 20
-334.6416209906035
 30
0.0
  0
VERTEX
  5
4A7
330
3E3
100
AcDbEntity
  8
0
100
AcDbVertex
100
AcDb2dVertex
 10
113.4863415468439
 20
-336.6057979140583
 30
0.0
  0
VERTEX
  5
4A8
330
3E3
100
AcDbEntity
  8
0
100
AcDbVertex
100
AcDb2dVertex
 10
110.9741613826862
 20
-338.4919960765492
 30
0.0
  0
VERTEX
  5
4A9
330
3E3
100
AcDbEntity
  8
0
100
AcDbVertex
100
AcDb2dVertex
 10
108.4039739117344
 20
-340.2983540282115
 30
0.0
  0
VERTEX
  5
4AA
330
3E3
100
AcDbEntity
  8
0
100
AcDbVertex
100
AcDb2dVertex
 10
105.7783155987197
 20
-342.0230891118301
 30
0.0
  0
VERTEX
  5
4AB
330
3E3
100
AcDbEntity
  8
0
100
AcDbVertex
100
AcDb2dVertex
 10
103.0997776513976
 20
-343.6644992221084
 30
0.0
  0
SEQEND
  5
4AC
330
3E3
100
AcDbEntity
  8
0
  0
POLYLINE
  5
4AD
330
1F
100
AcDbEntity
  8
0
100
AcDb2dPolyline
 66
     1
 10
0.0
 20
0.0
 30
0.0
 70
     1
  0
VERTEX
  5
4AE
330
4AD
100
AcDbEntity
  8
0
100
AcDbVertex
100
AcDb2dVertex
 10
-343.2298167964724
 20
-603.3610247747584
 30
0.0
  0
VERTEX
  5
4AF
330
4AD
100
AcDbEntity
  8
0
100
AcDbVertex
100
AcDb2dVertex
 10
-193.2298167964719
 20
-603.3610247747584
 30
0.0
  0
VERTEX
  5
4B0
330
4AD
100
AcDbEntity
  8
0
100
AcDbVertex
100
AcDb2dVertex
 10
-193.2298167964719
 20
-553.3610247747586
 30
0.0
  0
VERTEX
  5
4B1
330
4AD
100
AcDbEntity
  8
0
100
AcDbVertex
100
AcDb2dVertex
 10
-343.2298167964724
 20
-553.3610247747586
 30
0.0
  0
SEQEND
  5
4B2
330
4AD
100
AcDbEntity
  8
0
  0
POLYLINE
  5
4B3
330
1F
100
AcDbEntity
  8
0
100
AcDb2dPolyline
 66
     1
 10
0.0
 20
0.0
 30
0.0
 70
     1
  0
VERTEX
  5
4B4
330
4B3
100
AcDbEntity
  8
0
100
AcDbVertex
100
AcDb2dVertex
 10
153.3127433928384
 20
-863.3388126092394
 30
0.0
  0
VERTEX
  5
4B5
330
4B3
100
AcDbEntity
  8
0
100
AcDbVertex
100
AcDb2dVertex
 10
153.3127433928384
 20
-836.0054792759064
 30
0.0
  0
VERTEX
  5
4B6
330
4B3
100
AcDbEntity
  8
0
100
AcDbVertex
100
AcDb2dVertex
 10
39.31274339283837
 20
-836.0054792759064
 30
0.0
  0
VERTEX
  5
4B7
330
4B3
100
AcDbEntity
  8
0
100
AcDbVertex
100
AcDb2dVertex
 10
39.31274339283837
 20
-863.3388126092394
 30
0.0
  0
VERTEX
  5
4B8
330
4B3
100
AcDbEntity
  8
0
100
AcDbVertex
100
AcDb2dVertex
 10
21.31274339283813
 20
-863.3388126092398
 30
0.0
  0
VERTEX
  5
4B9
330
4B3
100
AcDbEntity
  8
0
100
AcDbVertex
100
AcDb2dVertex
 10
21.31274339283813
 20
-890.6721459425733
 30
0.0
  0
VERTEX
  5
4BA
330
4B3
100
AcDbEntity
  8
0
100
AcDbVertex
100
AcDb2dVertex
 10
39.31274339283837
 20
-890.6721459425728
 30
0.0
  0
VERTEX
  5
4BB
330
4B3
100
AcDbEntity
  8
0
100
AcDbVertex
100
AcDb2dVertex
 10
39.31274339283837
 20
-918.0054792759064
 30
0.0
  0
VERTEX
  5
4BC
330
4B3
100
AcDbEntity
  8
0
100
AcDbVertex
100
AcDb2dVertex
 10
153.3127433928384
 20
-918.0054792759064
 30
0.0
  0
VERTEX
  5
4BD
330
4B3
100
AcDbEntity
  8
0
100
AcDbVertex
100
AcDb2dVertex
 10
153.3127433928384
 20
-890.6721459425733
 30
0.0
  0
VERTEX
  5
4BE
330
4B3
100
AcDbEntity
  8
0
100
AcDbVertex
100
AcDb2dVertex
 10
171.3127433928387
 20
-890.6721459425733
 30
0.0
  0
VERTEX
  5
4BF
330
4B3
100
AcDbEntity
  8
0
100
AcDbVertex
100
AcDb2dVertex
 10
171.3127433928387
 20
-863.3388126092398
 30
0.0
  0
SEQEND
  5
4C0
330
4B3
100
AcDbEntity
  8
0
  0
POLYLINE
  5
4C1
330
1F
100
AcDbEntity
  8
0
100
AcDb2dPolyline
 66
     1
 10
0.0
 20
0.0
 30
0.0
 70
     1
  0
VERTEX
  5
4C2
330
4C1
100
AcDbEntity
  8
0
100
AcDbVertex
100
AcDb2dVertex
 10
-261.8042577951874
 20
-486.162448778568
 30
0.0
  0
VERTEX
  5
4C3
330
4C1
100
AcDbEntity
  8
0
100
AcDbVertex
100
AcDb2dVertex
 10
-193.1788367501316
 20
-486.1624487785682
 30
0.0
  0
VERTEX
  5
4C4
330
4C1
100
AcDbEntity
  8
0
100
AcDbVertex
100
AcDb2dVertex
 10
-193.1788367501349
 20
-450.1624487785681
 30
0.0
  0
VERTEX
  5
4C5
330
4C1
100
AcDbEntity
  8
0
100
AcDbVertex
100
AcDb2dVertex
 10
-143.1788367501365
 20
-450.1624487785681
 30
0.0
  0
VERTEX
  5
4C6
330
4C1
100
AcDbEntity
  8
0
100
AcDbVertex
100
AcDb2dVertex
 10
-143.1788367501365
 20
97.83755849952252
 30
0.0
  0
VERTEX
  5
4C7
330
4C1
100
AcDbEntity
  8
0
100
AcDbVertex
100
AcDb2dVertex
 10
-193.1788367501349
 20
97.83755849952306
 30
0.0
  0
VERTEX
  5
4C8
330
4C1
100
AcDbEntity
  8
0
100
AcDbVertex
100
AcDb2dVertex
 10
-193.1788367501316
 20
133.8375584995232
 30
0.0
  0
VERTEX
  5
4C9
330
4C1
100
AcDbEntity
  8
0
100
AcDbVertex
100
AcDb2dVertex
 10
-879.433047200688
 20
133.8375584995232
 30
0.0
  0
VERTEX
  5
4CA
330
4C1
100
AcDbEntity
  8
0
100
AcDbVertex
100
AcDb2dVertex
 10
-879.433047200688
 20
64.94866880195738
 30
0.0
  0
VERTEX
  5
4CB
330
4C1
100
AcDbEntity
  8
0
100
AcDbVertex
100
AcDb2dVertex
 10
-861.4330472006882
 20
64.94866880195738
 30
0.0
  0
VERTEX
  5
4CC
330
4C1
100
AcDbEntity
  8
0
100
AcDbVertex
100
AcDb2dVertex
 10
-861.4330472006882
 20
-3.940220895607877
 30
0.0
  0
VERTEX
  5
4CD
330
4C1
100
AcDbEntity
  8
0
100
AcDbVertex
100
AcDb2dVertex
 10
-879.433047200688
 20
-3.940220895608239
 30
0.0
  0
VERTEX
  5
4CE
330
4C1
100
AcDbEntity
  8
0
100
AcDbVertex
100
AcDb2dVertex
 10
-879.433047200688
 20
-72.82911059317387
 30
0.0
  0
VERTEX
  5
4CF
330
4C1
100
AcDbEntity
  8
0
100
AcDbVertex
100
AcDb2dVertex
 10
-861.4330472006882
 20
-72.82911059317387
 30
0.0
  0
VERTEX
  5
4D0
330
4C1
100
AcDbEntity
  8
0
100
AcDbVertex
100
AcDb2dVertex
 10
-861.4330472006882
 20
-141.7180002907395
 30
0.0
  0
VERTEX
  5
4D1
330
4C1
100
AcDbEntity
  8
0
100
AcDbVertex
100
AcDb2dVertex
 10
-879.433047200688
 20
-141.7180002907395
 30
0.0
  0
VERTEX
  5
4D2
330
4C1
100
AcDbEntity
  8
0
100
AcDbVertex
100
AcDb2dVertex
 10
-879.433047200688
 20
-210.6068899883053
 30
0.0
  0
VERTEX
  5
4D3
330
4C1
100
AcDbEntity
  8
0
100
AcDbVertex
100
AcDb2dVertex
 10
-861.4330472006882
 20
-210.6068899883053
 30
0.0
  0
VERTEX
  5
4D4
330
4C1
100
AcDbEntity
  8
0
100
AcDbVertex
100
AcDb2dVertex
 10
-861.4330472006882
 20
-279.4957796858707
 30
0.0
  0
VERTEX
  5
4D5
330
4C1
100
AcDbEntity
  8
0
100
AcDbVertex
100
AcDb2dVertex
 10
-879.433047200688
 20
-279.4957796858709
 30
0.0
  0
VERTEX
  5
4D6
330
4C1
100
AcDbEntity
  8
0
100
AcDbVertex
100
AcDb2dVertex
 10
-879.433047200688
 20
-348.3846693834366
 30
0.0
  0
VERTEX
  5
4D7
330
4C1
100
AcDbEntity
  8
0
100
AcDbVertex
100
AcDb2dVertex
 10
-861.4330472006882
 20
-348.3846693834366
 30
0.0
  0
VERTEX
  5
4D8
330
4C1
100
AcDbEntity
  8
0
100
AcDbVertex
100
AcDb2dVertex
 10
-861.4330472006882
 20
-417.2735590810021
 30
0.0
  0
VERTEX
  5
4D9
330
4C1
100
AcDbEntity
  8
0
100
AcDbVertex
100
AcDb2dVertex
 10
-879.433047200688
 20
-417.2735590810023
 30
0.0
  0
VERTEX
  5
4DA
330
4C1
100
AcDbEntity
  8
0
100
AcDbVertex
100
AcDb2dVertex
 10
-879.433047200688
 20
-504.1624487785684
 30
0.0
  0
VERTEX
  5
4DB
330
4C1
100
AcDbEntity
  8
0
100
AcDbVertex
100
AcDb2dVertex
 10
-810.8076261556324
 20
-504.1624487785684
 30
0.0
  0
VERTEX
  5
4DC
330
4C1
100
AcDbEntity
  8
0
100
AcDbVertex
100
AcDb2dVertex
 10
-810.8076261556324
 20
-486.1624487785682
 30
0.0
  0
VERTEX
  5
4DD
330
4C1
100
AcDbEntity
  8
0
100
AcDbVertex
100
AcDb2dVertex
 10
-742.1822051105768
 20
-486.1624487785682
 30
0.0
  0
VERTEX
  5
4DE
330
4C1
100
AcDbEntity
  8
0
100
AcDbVertex
100
AcDb2dVertex
 10
-742.1822051105768
 20
-504.1624487785684
 30
0.0
  0
VERTEX
  5
4DF
330
4C1
100
AcDbEntity
  8
0
100
AcDbVertex
100
AcDb2dVertex
 10
-673.5567840655211
 20
-504.1624487785684
 30
0.0
  0
VERTEX
  5
4E0
330
4C1
100
AcDbEntity
  8
0
100
AcDbVertex
100
AcDb2dVertex
 10
-673.5567840655211
 20
-486.1624487785682
 30
0.0
  0
VERTEX
  5
4E1
330
4C1
100
AcDbEntity
  8
0
100
AcDbVertex
100
AcDb2dVertex
 10
-604.9313630204655
 20
-486.1624487785682
 30
0.0
  0
VERTEX
  5
4E2
330
4C1
100
AcDbEntity
  8
0
100
AcDbVertex
100
AcDb2dVertex
 10
-604.9313630204655
 20
-504.1624487785684
 30
0.0
  0
VERTEX
  5
4E3
330
4C1
100
AcDbEntity
  8
0
100
AcDbVertex
100
AcDb2dVertex
 10
-536.3059419754098
 20
-504.1624487785684
 30
0.0
  0
VERTEX
  5
4E4
330
4C1
100
AcDbEntity
  8
0
100
AcDbVertex
100
AcDb2dVertex
 10
-536.3059419754098
 20
-486.1624487785682
 30
0.0
  0
VERTEX
  5
4E5
330
4C1
100
AcDbEntity
  8
0
100
AcDbVertex
100
AcDb2dVertex
 10
-467.6805209303542
 20
-486.1624487785682
 30
0.0
  0
VERTEX
  5
4E6
330
4C1
100
AcDbEntity
  8
0
100
AcDbVertex
100
AcDb2dVertex
 10
-467.6805209303541
 20
-504.1624487785684
 30
0.0
  0
VERTEX
  5
4E7
330
4C1
100
AcDbEntity
  8
0
100
AcDbVertex
100
AcDb2dVertex
 10
-399.0550998852985
 20
-504.1624487785684
 30
0.0
  0
VERTEX
  5
4E8
330
4C1
100
AcDbEntity
  8
0
100
AcDbVertex
100
AcDb2dVertex
 10
-399.0550998852985
 20
-486.1624487785682
 30
0.0
  0
VERTEX
  5
4E9
330
4C1
100
AcDbEntity
  8
0
100
AcDbVertex
100
AcDb2dVertex
 10
-330.429678840243
 20
-486.1624487785682
 30
0.0
  0
VERTEX
  5
4EA
330
4C1
100
AcDbEntity
  8
0
100
AcDbVertex
100
AcDb2dVertex
 10
-330.4296788402429
 20
-504.1624487785684
 30
0.0
  0
VERTEX
  5
4EB
330
4C1
100
AcDbEntity
  8
0
100
AcDbVertex
100
AcDb2dVertex
 10
-261.8042577951873
 20
-504.1624487785684
 30
0.0
  0
SEQEND
  5
4EC
330
4C1
100
AcDbEntity
  8
0
  0
POLYLINE
  5
4ED
330
1F
100
AcDbEntity
  8
0
100
AcDb2dPolyline
 66
     1
 10
0.0
 20
0.0
 30
0.0
 70
     1
  0
VERTEX
  5
4EE
330
4ED
100
AcDbEntity
  8
0
100
AcDbVertex
100
AcDb2dVertex
 10
153.3127433928384
 20
-767.3388126092393
 30
0.0
  0
VERTEX
  5
4EF
330
4ED
100
AcDbEntity
  8
0
100
AcDbVertex
100
AcDb2dVertex
 10
153.3127433928384
 20
-740.0054792759065
 30
0.0
  0
VERTEX
  5
4F0
330
4ED
100
AcDbEntity
  8
0
100
AcDbVertex
100
AcDb2dVertex
 10
39.31274339283837
 20
-740.0054792759065
 30
0.0
  0
VERTEX
  5
4F1
330
4ED
100
AcDbEntity
  8
0
100
AcDbVertex
100
AcDb2dVertex
 10
39.31274339283837
 20
-767.3388126092393
 30
0.0
  0
VERTEX
  5
4F2
330
4ED
100
AcDbEntity
  8
0
100
AcDbVertex
100
AcDb2dVertex
 10
21.31274339283813
 20
-767.3388126092398
 30
0.0
  0
VERTEX
  5
4F3
330
4ED
100
AcDbEntity
  8
0
100
AcDbVertex
100
AcDb2dVertex
 10
21.31274339283813
 20
-794.6721459425731
 30
0.0
  0
VERTEX
  5
4F4
330
4ED
100
AcDbEntity
  8
0
100
AcDbVertex
100
AcDb2dVertex
 10
39.31274339283837
 20
-794.6721459425727
 30
0.0
  0
VERTEX
  5
4F5
330
4ED
100
AcDbEntity
  8
0
100
AcDbVertex
100
AcDb2dVertex
 10
39.31274339283837
 20
-822.0054792759065
 30
0.0
  0
VERTEX
  5
4F6
330
4ED
100
AcDbEntity
  8
0
100
AcDbVertex
100
AcDb2dVertex
 10
153.3127433928384
 20
-822.0054792759065
 30
0.0
  0
VERTEX
  5
4F7
330
4ED
100
AcDbEntity
  8
0
100
AcDbVertex
100
AcDb2dVertex
 10
153.3127433928384
 20
-794.6721459425731
 30
0.0
  0
VERTEX
  5
4F8
330
4ED
100
AcDbEntity
  8
0
100
AcDbVertex
100
AcDb2dVertex
 10
171.3127433928387
 20
-794.6721459425731
 30
0.0
  0
VERTEX
  5
4F9
330
4ED
100
AcDbEntity
  8
0
100
AcDbVertex
100
AcDb2dVertex
 10
171.3127433928387
 20
-767.3388126092398
 30
0.0
  0
SEQEND
  5
4FA
330
4ED
100
AcDbEntity
  8
0
  0
POLYLINE
  5
4FB
330
1F
100
AcDbEntity
  8
0
100
AcDb2dPolyline
 66
     1
 10
0.0
 20
0.0
 30
0.0
 70
     1
  0
VERTEX
  5
4FC
330
4FB
100
AcDbEntity
  8
0
100
AcDbVertex
100
AcDb2dVertex
 10
375.5450429113763
 20
-819.3568391985657
 30
0.0
  0
VERTEX
  5
4FD
330
4FB
100
AcDbEntity
  8
0
100
AcDbVertex
100
AcDb2dVertex
 10
305.5777538382017
 20
-819.3568391985657
 30
0.0
  0
VERTEX
  5
4FE
330
4FB
100
AcDbEntity
  8
0
100
AcDbVertex
100
AcDb2dVertex
 10
305.5777538382017
 20
-837.3568391985656
 30
0.0
  0
VERTEX
  5
4FF
330
4FB
100
AcDbEntity
  8
0
100
AcDbVertex
100
AcDb2dVertex
 10
235.6104647650214
 20
-837.3568391985651
 30
0.0
  0
VERTEX
  5
500
330
4FB
100
AcDbEntity
  8
0
100
AcDbVertex
100
AcDb2dVertex
 10
235.6104647650271
 20
-750.4679495009989
 30
0.0
  0
VERTEX
  5
501
330
4FB
100
AcDbEntity
  8
0
100
AcDbVertex
100
AcDb2dVertex
 10
217.6104647650269
 20
-750.4679495009987
 30
0.0
  0
VERTEX
  5
502
330
4FB
100
AcDbEntity
  8
0
100
AcDbVertex
100
AcDb2dVertex
 10
217.6104647650233
 20
-681.579059803433
 30
0.0
  0
VERTEX
  5
503
330
4FB
100
AcDbEntity
  8
0
100
AcDbVertex
100
AcDb2dVertex
 10
235.6104647650236
 20
-681.5790598034332
 30
0.0
  0
VERTEX
  5
504
330
4FB
100
AcDbEntity
  8
0
100
AcDbVertex
100
AcDb2dVertex
 10
235.6104647650271
 20
-612.6901701058673
 30
0.0
  0
VERTEX
  5
505
330
4FB
100
AcDbEntity
  8
0
100
AcDbVertex
100
AcDb2dVertex
 10
217.6104647650269
 20
-612.6901701058673
 30
0.0
  0
VERTEX
  5
506
330
4FB
100
AcDbEntity
  8
0
100
AcDbVertex
100
AcDb2dVertex
 10
217.6104647650269
 20
-543.8012804083017
 30
0.0
  0
VERTEX
  5
507
330
4FB
100
AcDbEntity
  8
0
100
AcDbVertex
100
AcDb2dVertex
 10
235.6104647650271
 20
-543.801280408302
 30
0.0
  0
VERTEX
  5
508
330
4FB
100
AcDbEntity
  8
0
100
AcDbVertex
100
AcDb2dVertex
 10
235.6104647650271
 20
-474.9123907107362
 30
0.0
  0
VERTEX
  5
509
330
4FB
100
AcDbEntity
  8
0
100
AcDbVertex
100
AcDb2dVertex
 10
217.6104647650269
 20
-474.9123907107361
 30
0.0
  0
VERTEX
  5
50A
330
4FB
100
AcDbEntity
  8
0
100
AcDbVertex
100
AcDb2dVertex
 10
217.6104647650269
 20
-406.0235010131704
 30
0.0
  0
VERTEX
  5
50B
330
4FB
100
AcDbEntity
  8
0
100
AcDbVertex
100
AcDb2dVertex
 10
235.6104647650271
 20
-406.0235010131706
 30
0.0
  0
VERTEX
  5
50C
330
4FB
100
AcDbEntity
  8
0
100
AcDbVertex
100
AcDb2dVertex
 10
235.6104647650271
 20
-337.1346113156048
 30
0.0
  0
VERTEX
  5
50D
330
4FB
100
AcDbEntity
  8
0
100
AcDbVertex
100
AcDb2dVertex
 10
217.6104647650269
 20
-337.1346113156044
 30
0.0
  0
VERTEX
  5
50E
330
4FB
100
AcDbEntity
  8
0
100
AcDbVertex
100
AcDb2dVertex
 10
217.6104647650269
 20
-268.2457216180389
 30
0.0
  0
VERTEX
  5
50F
330
4FB
100
AcDbEntity
  8
0
100
AcDbVertex
100
AcDb2dVertex
 10
235.6104647650271
 20
-268.2457216180392
 30
0.0
  0
VERTEX
  5
510
330
4FB
100
AcDbEntity
  8
0
100
AcDbVertex
100
AcDb2dVertex
 10
235.6104647650271
 20
-199.3568319204734
 30
0.0
  0
VERTEX
  5
511
330
4FB
100
AcDbEntity
  8
0
100
AcDbVertex
100
AcDb2dVertex
 10
585.4469101309
 20
-199.3568319204734
 30
0.0
  0
VERTEX
  5
512
330
4FB
100
AcDbEntity
  8
0
100
AcDbVertex
100
AcDb2dVertex
 10
585.4469101309
 20
-268.2457216180392
 30
0.0
  0
VERTEX
  5
513
330
4FB
100
AcDbEntity
  8
0
100
AcDbVertex
100
AcDb2dVertex
 10
603.4469101309003
 20
-268.2457216180392
 30
0.0
  0
VERTEX
  5
514
330
4FB
100
AcDbEntity
  8
0
100
AcDbVertex
100
AcDb2dVertex
 10
603.4469101309003
 20
-337.1346113156048
 30
0.0
  0
VERTEX
  5
515
330
4FB
100
AcDbEntity
  8
0
100
AcDbVertex
100
AcDb2dVertex
 10
585.4469101309
 20
-337.1346113156048
 30
0.0
  0
VERTEX
  5
516
330
4FB
100
AcDbEntity
  8
0
100
AcDbVertex
100
AcDb2dVertex
 10
585.4469101309
 20
-406.0235010131704
 30
0.0
  0
VERTEX
  5
517
330
4FB
100
AcDbEntity
  8
0
100
AcDbVertex
100
AcDb2dVertex
 10
603.4469101309003
 20
-406.0235010131704
 30
0.0
  0
VERTEX
  5
518
330
4FB
100
AcDbEntity
  8
0
100
AcDbVertex
100
AcDb2dVertex
 10
603.4469101309003
 20
-474.9123907107362
 30
0.0
  0
VERTEX
  5
519
330
4FB
100
AcDbEntity
  8
0
100
AcDbVertex
100
AcDb2dVertex
 10
585.4469101309
 20
-474.9123907107362
 30
0.0
  0
VERTEX
  5
51A
330
4FB
100
AcDbEntity
  8
0
100
AcDbVertex
100
AcDb2dVertex
 10
585.4469101309
 20
-543.801280408302
 30
0.0
  0
VERTEX
  5
51B
330
4FB
100
AcDbEntity
  8
0
100
AcDbVertex
100
AcDb2dVertex
 10
603.4469101309003
 20
-543.801280408302
 30
0.0
  0
VERTEX
  5
51C
330
4FB
100
AcDbEntity
  8
0
100
AcDbVertex
100
AcDb2dVertex
 10
603.4469101309003
 20
-612.6901701058678
 30
0.0
  0
VERTEX
  5
51D
330
4FB
100
AcDbEntity
  8
0
100
AcDbVertex
100
AcDb2dVertex
 10
585.4469101309
 20
-612.6901701058678
 30
0.0
  0
VERTEX
  5
51E
330
4FB
100
AcDbEntity
  8
0
100
AcDbVertex
100
AcDb2dVertex
 10
585.4469101309
 20
-681.5790598034333
 30
0.0
  0
VERTEX
  5
51F
330
4FB
100
AcDbEntity
  8
0
100
AcDbVertex
100
AcDb2dVertex
 10
603.4469101309003
 20
-681.5790598034333
 30
0.0
  0
VERTEX
  5
520
330
4FB
100
AcDbEntity
  8
0
100
AcDbVertex
100
AcDb2dVertex
 10
603.4469101309003
 20
-750.4679495009991
 30
0.0
  0
VERTEX
  5
521
330
4FB
100
AcDbEntity
  8
0
100
AcDbVertex
100
AcDb2dVertex
 10
585.4469101309
 20
-750.4679495009991
 30
0.0
  0
VERTEX
  5
522
330
4FB
100
AcDbEntity
  8
0
100
AcDbVertex
100
AcDb2dVertex
 10
585.4469101309
 20
-837.3568391985656
 30
0.0
  0
VERTEX
  5
523
330
4FB
100
AcDbEntity
  8
0
100
AcDbVertex
100
AcDb2dVertex
 10
515.4796210577254
 20
-837.3568391985656
 30
0.0
  0
VERTEX
  5
524
330
4FB
100
AcDbEntity
  8
0
100
AcDbVertex
100
AcDb2dVertex
 10
515.4796210577254
 20
-819.3568391985655
 30
0.0
  0
VERTEX
  5
525
330
4FB
100
AcDbEntity
  8
0
100
AcDbVertex
100
AcDb2dVertex
 10
445.5123319845509
 20
-819.3568391985655
 30
0.0
  0
VERTEX
  5
526
330
4FB
100
AcDbEntity
  8
0
100
AcDbVertex
100
AcDb2dVertex
 10
445.5123319845509
 20
-837.3568391985656
 30
0.0
  0
VERTEX
  5
527
330
4FB
100
AcDbEntity
  8
0
100
AcDbVertex
100
AcDb2dVertex
 10
375.5450429113763
 20
-837.3568391985656
 30
0.0
  0
SEQEND
  5
528
330
4FB
100
AcDbEntity
  8
0
  0
POLYLINE
  5
529
330
1F
100
AcDbEntity
  8
0
100
AcDb2dPolyline
 66
     1
 10
0.0
 20
0.0
 30
0.0
 70
     1
  0
VERTEX
  5
52A
330
529
100
AcDbEntity
  8
0
100
AcDbVertex
100
AcDb2dVertex
 10
-1008.058468245747
 20
-486.1624487785695
 30
0.0
  0
VERTEX
  5
52B
330
529
100
AcDbEntity
  8
0
100
AcDbVertex
100
AcDb2dVertex
 10
-939.4330472006955
 20
-486.1624487785696
 30
0.0
  0
VERTEX
  5
52C
330
529
100
AcDbEntity
  8
0
100
AcDbVertex
100
AcDb2dVertex
 10
-939.4330472006988
 20
-450.1624487785694
 30
0.0
  0
VERTEX
  5
52D
330
529
100
AcDbEntity
  8
0
100
AcDbVertex
100
AcDb2dVertex
 10
-889.4330472007003
 20
-450.1624487785694
 30
0.0
  0
VERTEX
  5
52E
330
529
100
AcDbEntity
  8
0
100
AcDbVertex
100
AcDb2dVertex
 10
-889.4330472007003
 20
97.83755849952117
 30
0.0
  0
VERTEX
  5
52F
330
529
100
AcDbEntity
  8
0
100
AcDbVertex
100
AcDb2dVertex
 10
-939.4330472006988
 20
97.8375584995217
 30
0.0
  0
VERTEX
  5
530
330
529
100
AcDbEntity
  8
0
100
AcDbVertex
100
AcDb2dVertex
 10
-939.4330472006955
 20
133.8375584995218
 30
0.0
  0
VERTEX
  5
531
330
529
100
AcDbEntity
  8
0
100
AcDbVertex
100
AcDb2dVertex
 10
-1625.687257651252
 20
133.8375584995218
 30
0.0
  0
VERTEX
  5
532
330
529
100
AcDbEntity
  8
0
100
AcDbVertex
100
AcDb2dVertex
 10
-1625.687257651252
 20
64.94866880195603
 30
0.0
  0
VERTEX
  5
533
330
529
100
AcDbEntity
  8
0
100
AcDbVertex
100
AcDb2dVertex
 10
-1607.687257651252
 20
64.94866880195603
 30
0.0
  0
VERTEX
  5
534
330
529
100
AcDbEntity
  8
0
100
AcDbVertex
100
AcDb2dVertex
 10
-1607.687257651252
 20
-3.940220895609231
 30
0.0
  0
VERTEX
  5
535
330
529
100
AcDbEntity
  8
0
100
AcDbVertex
100
AcDb2dVertex
 10
-1625.687257651252
 20
-3.940220895609592
 30
0.0
  0
VERTEX
  5
536
330
529
100
AcDbEntity
  8
0
100
AcDbVertex
100
AcDb2dVertex
 10
-1625.687257651252
 20
-72.82911059317522
 30
0.0
  0
VERTEX
  5
537
330
529
100
AcDbEntity
  8
0
100
AcDbVertex
100
AcDb2dVertex
 10
-1607.687257651252
 20
-72.82911059317522
 30
0.0
  0
VERTEX
  5
538
330
529
100
AcDbEntity
  8
0
100
AcDbVertex
100
AcDb2dVertex
 10
-1607.687257651252
 20
-141.7180002907408
 30
0.0
  0
VERTEX
  5
539
330
529
100
AcDbEntity
  8
0
100
AcDbVertex
100
AcDb2dVertex
 10
-1625.687257651252
 20
-141.7180002907408
 30
0.0
  0
VERTEX
  5
53A
330
529
100
AcDbEntity
  8
0
100
AcDbVertex
100
AcDb2dVertex
 10
-1625.687257651252
 20
-210.6068899883066
 30
0.0
  0
VERTEX
  5
53B
330
529
100
AcDbEntity
  8
0
100
AcDbVertex
100
AcDb2dVertex
 10
-1607.687257651252
 20
-210.6068899883066
 30
0.0
  0
VERTEX
  5
53C
330
529
100
AcDbEntity
  8
0
100
AcDbVertex
100
AcDb2dVertex
 10
-1607.687257651252
 20
-279.4957796858721
 30
0.0
  0
VERTEX
  5
53D
330
529
100
AcDbEntity
  8
0
100
AcDbVertex
100
AcDb2dVertex
 10
-1625.687257651252
 20
-279.4957796858722
 30
0.0
  0
VERTEX
  5
53E
330
529
100
AcDbEntity
  8
0
100
AcDbVertex
100
AcDb2dVertex
 10
-1625.687257651252
 20
-348.3846693834379
 30
0.0
  0
VERTEX
  5
53F
330
529
100
AcDbEntity
  8
0
100
AcDbVertex
100
AcDb2dVertex
 10
-1607.687257651252
 20
-348.3846693834379
 30
0.0
  0
VERTEX
  5
540
330
529
100
AcDbEntity
  8
0
100
AcDbVertex
100
AcDb2dVertex
 10
-1607.687257651252
 20
-417.2735590810035
 30
0.0
  0
VERTEX
  5
541
330
529
100
AcDbEntity
  8
0
100
AcDbVertex
100
AcDb2dVertex
 10
-1625.687257651252
 20
-417.2735590810036
 30
0.0
  0
VERTEX
  5
542
330
529
100
AcDbEntity
  8
0
100
AcDbVertex
100
AcDb2dVertex
 10
-1625.687257651252
 20
-504.1624487785698
 30
0.0
  0
VERTEX
  5
543
330
529
100
AcDbEntity
  8
0
100
AcDbVertex
100
AcDb2dVertex
 10
-1557.061836606196
 20
-504.1624487785698
 30
0.0
  0
VERTEX
  5
544
330
529
100
AcDbEntity
  8
0
100
AcDbVertex
100
AcDb2dVertex
 10
-1557.061836606192
 20
-486.1624487785696
 30
0.0
  0
VERTEX
  5
545
330
529
100
AcDbEntity
  8
0
100
AcDbVertex
100
AcDb2dVertex
 10
-1488.436415561141
 20
-486.1624487785696
 30
0.0
  0
VERTEX
  5
546
330
529
100
AcDbEntity
  8
0
100
AcDbVertex
100
AcDb2dVertex
 10
-1488.436415561141
 20
-504.1624487785698
 30
0.0
  0
VERTEX
  5
547
330
529
100
AcDbEntity
  8
0
100
AcDbVertex
100
AcDb2dVertex
 10
-1419.810994516085
 20
-504.1624487785698
 30
0.0
  0
VERTEX
  5
548
330
529
100
AcDbEntity
  8
0
100
AcDbVertex
100
AcDb2dVertex
 10
-1419.810994516081
 20
-486.1624487785696
 30
0.0
  0
VERTEX
  5
549
330
529
100
AcDbEntity
  8
0
100
AcDbVertex
100
AcDb2dVertex
 10
-1351.185573471029
 20
-486.1624487785696
 30
0.0
  0
VERTEX
  5
54A
330
529
100
AcDbEntity
  8
0
100
AcDbVertex
100
AcDb2dVertex
 10
-1351.185573471029
 20
-504.1624487785698
 30
0.0
  0
VERTEX
  5
54B
330
529
100
AcDbEntity
  8
0
100
AcDbVertex
100
AcDb2dVertex
 10
-1282.560152425974
 20
-504.1624487785698
 30
0.0
  0
VERTEX
  5
54C
330
529
100
AcDbEntity
  8
0
100
AcDbVertex
100
AcDb2dVertex
 10
-1282.560152425969
 20
-486.1624487785696
 30
0.0
  0
VERTEX
  5
54D
330
529
100
AcDbEntity
  8
0
100
AcDbVertex
100
AcDb2dVertex
 10
-1213.934731380918
 20
-486.1624487785696
 30
0.0
  0
VERTEX
  5
54E
330
529
100
AcDbEntity
  8
0
100
AcDbVertex
100
AcDb2dVertex
 10
-1213.934731380918
 20
-504.1624487785698
 30
0.0
  0
VERTEX
  5
54F
330
529
100
AcDbEntity
  8
0
100
AcDbVertex
100
AcDb2dVertex
 10
-1145.309310335862
 20
-504.1624487785698
 30
0.0
  0
VERTEX
  5
550
330
529
100
AcDbEntity
  8
0
100
AcDbVertex
100
AcDb2dVertex
 10
-1145.309310335858
 20
-486.1624487785696
 30
0.0
  0
VERTEX
  5
551
330
529
100
AcDbEntity
  8
0
100
AcDbVertex
100
AcDb2dVertex
 10
-1076.683889290807
 20
-486.1624487785696
 30
0.0
  0
VERTEX
  5
552
330
529
100
AcDbEntity
  8
0
100
AcDbVertex
100
AcDb2dVertex
 10
-1076.683889290807
 20
-504.1624487785698
 30
0.0
  0
VERTEX
  5
553
330
529
100
AcDbEntity
  8
0
100
AcDbVertex
100
AcDb2dVertex
 10
-1008.058468245751
 20
-504.1624487785698
 30
0.0
  0
SEQEND
  5
554
330
529
100
AcDbEntity
  8
0
  0
POLYLINE
  5
555
330
1F
100
AcDbEntity
  8
0
100
AcDb2dPolyline
 66
     1
 10
0.0
 20
0.0
 30
0.0
 70
     1
  0
VERTEX
  5
556
330
555
100
AcDbEntity
  8
0
100
AcDbVertex
100
AcDb2dVertex
 10
915.1582070908272
 20
-770.3522564306693
 30
0.0
  0
VERTEX
  5
557
330
555
100
AcDbEntity
  8
0
100
AcDbVertex
100
AcDb2dVertex
 10
1047.197427849477
 20
-825.0446924349089
 30
0.0
  0
VERTEX
  5
558
330
555
100
AcDbEntity
  8
0
100
AcDbVertex
100
AcDb2dVertex
 10
1139.585381100933
 20
-863.3130356706589
 30
0.0
  0
VERTEX
  5
559
330
555
100
AcDbEntity
  8
0
100
AcDbVertex
100
AcDb2dVertex
 10
1271.624601861419
 20
-918.0054716748167
 30
0.0
  0
VERTEX
  5
55A
330
555
100
AcDbEntity
  8
0
100
AcDbVertex
100
AcDb2dVertex
 10
1628.090996631863
 20
-770.3522564306256
 30
0.0
  0
VERTEX
  5
55B
330
555
100
AcDbEntity
  8
0
100
AcDbVertex
100
AcDb2dVertex
 10
1614.988376916695
 20
-757.2496367155235
 30
0.0
  0
VERTEX
  5
55C
330
555
100
AcDbEntity
  8
0
100
AcDbVertex
100
AcDb2dVertex
 10
1622.64204556398
 20
-738.772046065337
 30
0.0
  0
VERTEX
  5
55D
330
555
100
AcDbEntity
  8
0
100
AcDbVertex
100
AcDb2dVertex
 10
1610.578941757591
 20
-726.7089422589506
 30
0.0
  0
VERTEX
  5
55E
330
555
100
AcDbEntity
  8
0
100
AcDbVertex
100
AcDb2dVertex
 10
1602.925273110413
 20
-745.1865329091786
 30
0.0
  0
VERTEX
  5
55F
330
555
100
AcDbEntity
  8
0
100
AcDbVertex
100
AcDb2dVertex
 10
1589.822653395228
 20
-732.0839131941179
 30
0.0
  0
VERTEX
  5
560
330
555
100
AcDbEntity
  8
0
100
AcDbVertex
100
AcDb2dVertex
 10
1271.624601861293
 20
-863.8858616601949
 30
0.0
  0
VERTEX
  5
561
330
555
100
AcDbEntity
  8
0
100
AcDbVertex
100
AcDb2dVertex
 10
1158.719552718751
 20
-817.1190590460608
 30
0.0
  0
VERTEX
  5
562
330
555
100
AcDbEntity
  8
0
100
AcDbVertex
100
AcDb2dVertex
 10
1066.331599467681
 20
-778.8507158093768
 30
0.0
  0
VERTEX
  5
563
330
555
100
AcDbEntity
  8
0
100
AcDbVertex
100
AcDb2dVertex
 10
953.4265503273355
 20
-732.0839131941598
 30
0.0
  0
VERTEX
  5
564
330
555
100
AcDbEntity
  8
0
100
AcDbVertex
100
AcDb2dVertex
 10
940.3239306122902
 20
-745.1865329092366
 30
0.0
  0
VERTEX
  5
565
330
555
100
AcDbEntity
  8
0
100
AcDbVertex
100
AcDb2dVertex
 10
958.8015212625148
 20
-752.8402015565349
 30
0.0
  0
VERTEX
  5
566
330
555
100
AcDbEntity
  8
0
100
AcDbVertex
100
AcDb2dVertex
 10
946.7384174562538
 20
-764.9033053629296
 30
0.0
  0
VERTEX
  5
567
330
555
100
AcDbEntity
  8
0
100
AcDbVertex
100
AcDb2dVertex
 10
928.2608268059039
 20
-757.249636715627
 30
0.0
  0
SEQEND
  5
568
330
555
100
AcDbEntity
  8
0
  0
POLYLINE
  5
569
330
1F
100
AcDbEntity
  8
0
100
AcDb2dPolyline
 66
     1
 10
0.0
 20
0.0
 30
0.0
 70
     1
  0
VERTEX
  5
56A
330
569
100
AcDbEntity
  8
0
100
AcDbVertex
100
AcDb2dVertex
 10
-375.0601516824088
 20
-628.4679494339433
 30
0.0
  0
VERTEX
  5
56B
330
569
100
AcDbEntity
  8
0
100
AcDbVertex
100
AcDb2dVertex
 10
-375.0601517260866
 20
-576.7433689142358
 30
0.0
  0
VERTEX
  5
56C
330
569
100
AcDbEntity
  8
0
100
AcDbVertex
100
AcDb2dVertex
 10
-375.0601516724445
 20
-528.4679501248406
 30
0.0
  0
VERTEX
  5
56D
330
569
100
AcDbEntity
  8
0
100
AcDbVertex
100
AcDb2dVertex
 10
-449.0601517592274
 20
-528.4679496190246
 30
0.0
  0
VERTEX
  5
56E
330
569
100
AcDbEntity
  8
0
100
AcDbVertex
100
AcDb2dVertex
 10
-449.0601517714765
 20
-576.7433690212362
 30
0.0
  0
VERTEX
  5
56F
330
569
100
AcDbEntity
  8
0
100
AcDbVertex
100
AcDb2dVertex
 10
-449.0601517176602
 20
-628.4679492210296
 30
0.0
  0
SEQEND
  5
570
330
569
100
AcDbEntity
  8
0
  0
POLYLINE
  5
571
330
1F
100
AcDbEntity
  8
0
100
AcDb2dPolyline
 66
     1
 10
0.0
 20
0.0
 30
0.0
 70
     1
  0
VERTEX
  5
572
330
571
100
AcDbEntity
  8
0
100
AcDbVertex
100
AcDb2dVertex
 10
-473.0601517709893
 20
-628.4679491539746
 30
0.0
  0
VERTEX
  5
573
330
571
100
AcDbEntity
  8
0
100
AcDbVertex
100
AcDb2dVertex
 10
-473.0601512396297
 20
-576.7433685838828
 30
0.0
  0
VERTEX
  5
574
330
571
100
AcDbEntity
  8
0
100
AcDbVertex
100
AcDb2dVertex
 10
-473.0601508263079
 20
-528.4679497944874
 30
0.0
  0
VERTEX
  5
575
330
571
100
AcDbEntity
  8
0
100
AcDbVertex
100
AcDb2dVertex
 10
-547.0601509130908
 20
-528.4679487373286
 30
0.0
  0
VERTEX
  5
576
330
571
100
AcDbEntity
  8
0
100
AcDbVertex
100
AcDb2dVertex
 10
-547.0601512850196
 20
-576.7433681899246
 30
0.0
  0
VERTEX
  5
577
330
571
100
AcDbEntity
  8
0
100
AcDbVertex
100
AcDb2dVertex
 10
-547.0601518062408
 20
-628.467948389718
 30
0.0
  0
SEQEND
  5
578
330
571
100
AcDbEntity
  8
0
  0
POLYLINE
  5
579
330
1F
100
AcDbEntity
  8
0
100
AcDb2dPolyline
 66
     1
 10
0.0
 20
0.0
 30
0.0
 70
     1
  0
VERTEX
  5
57A
330
579
100
AcDbEntity
  8
0
100
AcDbVertex
100
AcDb2dVertex
 10
773.6246108069224
 20
-555.5054789788062
 30
0.0
  0
VERTEX
  5
57B
330
579
100
AcDbEntity
  8
0
100
AcDbVertex
100
AcDb2dVertex
 10
773.9742492676975
 20
-562.3218025698533
 30
0.0
  0
VERTEX
  5
57C
330
579
100
AcDbEntity
  8
0
100
AcDbVertex
100
AcDb2dVertex
 10
774.2036525974448
 20
-569.1432311932049
 30
0.0
  0
VERTEX
  5
57D
330
579
100
AcDbEntity
  8
0
100
AcDbVertex
100
AcDb2dVertex
 10
774.3127494775079
 20
-575.9676441512481
 30
0.0
  0
VERTEX
  5
57E
330
579
100
AcDbEntity
  8
0
100
AcDbVertex
100
AcDb2dVertex
 10
774.3015059910334
 20
-582.7929198185869
 30
0.0
  0
VERTEX
  5
57F
330
579
100
AcDbEntity
  8
0
100
AcDbVertex
100
AcDb2dVertex
 10
774.1699256334671
 20
-589.616936301616
 30
0.0
  0
VERTEX
  5
580
330
579
100
AcDbEntity
  8
0
100
AcDbVertex
100
AcDb2dVertex
 10
773.9180493115166
 20
-596.4375720981959
 30
0.0
  0
VERTEX
  5
581
330
579
100
AcDbEntity
  8
0
100
AcDbVertex
100
AcDb2dVertex
 10
773.5459553304074
 20
-603.2527067572012
 30
0.0
  0
VERTEX
  5
582
330
579
100
AcDbEntity
  8
0
100
AcDbVertex
100
AcDb2dVertex
 10
773.0537593695475
 20
-610.0602215377409
 30
0.0
  0
VERTEX
  5
583
330
579
100
AcDbEntity
  8
0
100
AcDbVertex
100
AcDb2dVertex
 10
772.4416144465583
 20
-616.858000067847
 30
0.0
  0
VERTEX
  5
584
330
579
100
AcDbEntity
  8
0
100
AcDbVertex
100
AcDb2dVertex
 10
771.7097108697111
 20
-623.6439290024427
 30
0.0
  0
VERTEX
  5
585
330
579
100
AcDbEntity
  8
0
100
AcDbVertex
100
AcDb2dVertex
 10
770.8582761787541
 20
-630.415898680327
 30
0.0
  0
VERTEX
  5
586
330
579
100
AcDbEntity
  8
0
100
AcDbVertex
100
AcDb2dVertex
 10
769.8875750741795
 20
-637.1718037800672
 30
0.0
  0
VERTEX
  5
587
330
579
100
AcDbEntity
  8
0
100
AcDbVertex
100
AcDb2dVertex
 10
768.7979093349284
 20
-643.9095439745153
 30
0.0
  0
VERTEX
  5
588
330
579
100
AcDbEntity
  8
0
100
AcDbVertex
100
AcDb2dVertex
 10
767.5896177245731
 20
-650.6270245837538
 30
0.0
  0
VERTEX
  5
589
330
579
100
AcDbEntity
  8
0
100
AcDbVertex
100
AcDb2dVertex
 10
766.263075885998
 20
-657.322157226328
 30
0.0
  0
VERTEX
  5
58A
330
579
100
AcDbEntity
  8
0
100
AcDbVertex
100
AcDb2dVertex
 10
764.818696224618
 20
-663.9928604684865
 30
0.0
  0
VERTEX
  5
58B
330
579
100
AcDbEntity
  8
0
100
AcDbVertex
100
AcDb2dVertex
 10
763.2569277801663
 20
-670.6370604712758
 30
0.0
  0
VERTEX
  5
58C
330
579
100
AcDbEntity
  8
0
100
AcDbVertex
100
AcDb2dVertex
 10
761.5782560870944
 20
-677.252691635271
 30
0.0
  0
VERTEX
  5
58D
330
579
100
AcDbEntity
  8
0
100
AcDbVertex
100
AcDb2dVertex
 10
759.7832030236234
 20
-683.837697242746
 30
0.0
  0
VERTEX
  5
58E
330
579
100
AcDbEntity
  8
0
100
AcDbVertex
100
AcDb2dVertex
 10
757.8723266495017
 20
-690.3900300970788
 30
0.0
  0
VERTEX
  5
58F
330
579
100
AcDbEntity
  8
0
100
AcDbVertex
100
AcDb2dVertex
 10
755.8462210325072
 20
-696.9076531592032
 30
0.0
  0
VERTEX
  5
590
330
579
100
AcDbEntity
  8
0
100
AcDbVertex
100
AcDb2dVertex
 10
753.7055160637631
 20
-703.3885401808959
 30
0.0
  0
VERTEX
  5
591
330
579
100
AcDbEntity
  8
0
100
AcDbVertex
100
AcDb2dVertex
 10
751.4508772619097
 20
-709.8306763347141
 30
0.0
  0
VERTEX
  5
592
330
579
100
AcDbEntity
  8
0
100
AcDbVertex
100
AcDb2dVertex
 10
749.0830055662037
 20
-716.2320588403782
 30
0.0
  0
VERTEX
  5
593
330
579
100
AcDbEntity
  8
0
100
AcDbVertex
100
AcDb2dVertex
 10
746.6026371186048
 20
-722.5906975874141
 30
0.0
  0
VERTEX
  5
594
330
579
100
AcDbEntity
  8
0
100
AcDbVertex
100
AcDb2dVertex
 10
744.010543034919
 20
-728.9046157538518
 30
0.0
  0
VERTEX
  5
595
330
579
100
AcDbEntity
  8
0
100
AcDbVertex
100
AcDb2dVertex
 10
741.3075291650676
 20
-735.1718504207954
 30
0.0
  0
VERTEX
  5
596
330
579
100
AcDbEntity
  8
0
100
AcDbVertex
100
AcDb2dVertex
 10
738.4944358425582
 20
-741.3904531826706
 30
0.0
  0
VERTEX
  5
597
330
579
100
AcDbEntity
  8
0
100
AcDbVertex
100
AcDb2dVertex
 10
735.5721376232356
 20
-747.5584907529595
 30
0.0
  0
VERTEX
  5
598
330
579
100
AcDbEntity
  8
0
100
AcDbVertex
100
AcDb2dVertex
 10
732.5415430133945
 20
-753.6740455652354
 30
0.0
  0
VERTEX
  5
599
330
579
100
AcDbEntity
  8
0
100
AcDbVertex
100
AcDb2dVertex
 10
729.4035941873337
 20
-759.7352163693106
 30
0.0
  0
VERTEX
  5
59A
330
579
100
AcDbEntity
  8
0
100
AcDbVertex
100
AcDb2dVertex
 10
726.159266694448
 20
-765.7401188223092
 30
0.0
  0
VERTEX
  5
59B
330
579
100
AcDbEntity
  8
0
100
AcDbVertex
100
AcDb2dVertex
 10
722.8095691559408
 20
-771.6868860744976
 30
0.0
  0
VERTEX
  5
59C
330
579
100
AcDbEntity
  8
0
100
AcDbVertex
100
AcDb2dVertex
 10
719.3555429512571
 20
-777.5736693496408
 30
0.0
  0
VERTEX
  5
59D
330
579
100
AcDbEntity
  8
0
100
AcDbVertex
100
AcDb2dVertex
 10
715.7982618943299
 20
-783.3986385197887
 30
0.0
  0
VERTEX
  5
59E
330
579
100
AcDbEntity
  8
0
100
AcDbVertex
100
AcDb2dVertex
 10
712.1388318997474
 20
-789.1599826742288
 30
0.0
  0
VERTEX
  5
59F
330
579
100
AcDbEntity
  8
0
100
AcDbVertex
100
AcDb2dVertex
 10
708.378390638935
 20
-794.855910682476
 30
0.0
  0
VERTEX
  5
5A0
330
579
100
AcDbEntity
  8
0
100
AcDbVertex
100
AcDb2dVertex
 10
704.5181071864695
 20
-800.4846517511137
 30
0.0
  0
VERTEX
  5
5A1
330
579
100
AcDbEntity
  8
0
100
AcDbVertex
100
AcDb2dVertex
 10
700.559181656628
 20
-806.0444559743142
 30
0.0
  0
VERTEX
  5
5A2
330
579
100
AcDbEntity
  8
0
100
AcDbVertex
100
AcDb2dVertex
 10
696.5028448302853
 20
-811.5335948778585
 30
0.0
  0
VERTEX
  5
5A3
330
579
100
AcDbEntity
  8
0
100
AcDbVertex
100
AcDb2dVertex
 10
692.3503577722813
 20
-816.9503619565007
 30
0.0
  0
VERTEX
  5
5A4
330
579
100
AcDbEntity
  8
0
100
AcDbVertex
100
AcDb2dVertex
 10
688.1030114393725
 20
-822.2930732044983
 30
0.0
  0
VERTEX
  5
5A5
330
579
100
AcDbEntity
  8
0
100
AcDbVertex
100
AcDb2dVertex
 10
683.7621262788864
 20
-827.5600676391474
 30
0.0
  0
VERTEX
  5
5A6
330
579
100
AcDbEntity
  8
0
100
AcDbVertex
100
AcDb2dVertex
 10
679.3290518182143
 20
-832.7497078171641
 30
0.0
  0
VERTEX
  5
5A7
330
579
100
AcDbEntity
  8
0
100
AcDbVertex
100
AcDb2dVertex
 10
674.8051662452565
 20
-837.8603803437433
 30
0.0
  0
VERTEX
  5
5A8
330
579
100
AcDbEntity
  8
0
100
AcDbVertex
100
AcDb2dVertex
 10
670.1918759799623
 20
-842.8904963741445
 30
0.0
  0
VERTEX
  5
5A9
330
579
100
AcDbEntity
  8
0
100
AcDbVertex
100
AcDb2dVertex
 10
665.4906152370952
 20
-847.8384921076429
 30
0.0
  0
VERTEX
  5
5AA
330
579
100
AcDbEntity
  8
0
100
AcDbVertex
100
AcDb2dVertex
 10
660.7028455803448
 20
-852.7028292736966
 30
0.0
  0
VERTEX
  5
5AB
330
579
100
AcDbEntity
  8
0
100
AcDbVertex
100
AcDb2dVertex
 10
655.8300554679529
 20
-857.4819956101747
 30
0.0
  0
VERTEX
  5
5AC
330
579
100
AcDbEntity
  8
0
100
AcDbVertex
100
AcDb2dVertex
 10
650.8737597899664
 20
-862.1745053335021
 30
0.0
  0
VERTEX
  5
5AD
330
579
100
AcDbEntity
  8
0
100
AcDbVertex
100
AcDb2dVertex
 10
645.8354993972772
 20
-866.7788996005702
 30
0.0
  0
VERTEX
  5
5AE
330
579
100
AcDbEntity
  8
0
100
AcDbVertex
100
AcDb2dVertex
 10
640.7168406225908
 20
-871.2937469622736
 30
0.0
  0
VERTEX
  5
5AF
330
579
100
AcDbEntity
  8
0
100
AcDbVertex
100
AcDb2dVertex
 10
635.5193747934744
 20
-875.7176438085299
 30
0.0
  0
VERTEX
  5
5B0
330
579
100
AcDbEntity
  8
0
100
AcDbVertex
100
AcDb2dVertex
 10
630.2447177376304
 20
-880.0492148046446
 30
0.0
  0
VERTEX
  5
5B1
330
579
100
AcDbEntity
  8
0
100
AcDbVertex
100
AcDb2dVertex
 10
624.8945092805568
 20
-884.2871133188862
 30
0.0
  0
VERTEX
  5
5B2
330
579
100
AcDbEntity
  8
0
100
AcDbVertex
100
AcDb2dVertex
 10
619.4704127357464
 20
-888.4300218411354
 30
0.0
  0
VERTEX
  5
5B3
330
579
100
AcDbEntity
  8
0
100
AcDbVertex
100
AcDb2dVertex
 10
613.974114387582
 20
-892.476652392485
 30
0.0
  0
VERTEX
  5
5B4
330
579
100
AcDbEntity
  8
0
100
AcDbVertex
100
AcDb2dVertex
 10
608.4073229670926
 20
-896.4257469256557
 30
0.0
  0
VERTEX
  5
5B5
330
579
100
AcDbEntity
  8
0
100
AcDbVertex
100
AcDb2dVertex
 10
602.77176912073
 20
-900.2760777161064
 30
0.0
  0
VERTEX
  5
5B6
330
579
100
AcDbEntity
  8
0
100
AcDbVertex
100
AcDb2dVertex
 10
597.0692048723299
 20
-904.0264477437199
 30
0.0
  0
VERTEX
  5
5B7
330
579
100
AcDbEntity
  8
0
100
AcDbVertex
100
AcDb2dVertex
 10
591.301403078434
 20
-907.675691064942
 30
0.0
  0
VERTEX
  5
5B8
330
579
100
AcDbEntity
  8
0
100
AcDbVertex
100
AcDb2dVertex
 10
585.4701568771268
 20
-911.2226731752559
 30
0.0
  0
VERTEX
  5
5B9
330
579
100
AcDbEntity
  8
0
100
AcDbVertex
100
AcDb2dVertex
 10
579.5772791305726
 20
-914.66629136189
 30
0.0
  0
VERTEX
  5
5BA
330
579
100
AcDbEntity
  8
0
100
AcDbVertex
100
AcDb2dVertex
 10
573.6246018614197
 20
-918.0054750466338
 30
0.0
  0
VERTEX
  5
5BB
330
579
100
AcDbEntity
  8
0
100
AcDbVertex
100
AcDb2dVertex
 10
253.6246018614191
 20
-918.0054683029998
 30
0.0
  0
VERTEX
  5
5BC
330
579
100
AcDbEntity
  8
0
100
AcDbVertex
100
AcDb2dVertex
 10
253.6246029151124
 20
-868.0054683029999
 30
0.0
  0
VERTEX
  5
5BD
330
579
100
AcDbEntity
  8
0
100
AcDbVertex
100
AcDb2dVertex
 10
560.3067589295214
 20
-868.0054747659757
 30
0.0
  0
VERTEX
  5
5BE
330
579
100
AcDbEntity
  8
0
100
AcDbVertex
100
AcDb2dVertex
 10
564.9406545710897
 20
-865.1868071305682
 30
0.0
  0
VERTEX
  5
5BF
330
579
100
AcDbEntity
  8
0
100
AcDbVertex
100
AcDb2dVertex
 10
569.9634188743826
 20
-862.0089432332263
 30
0.0
  0
VERTEX
  5
5C0
330
579
100
AcDbEntity
  8
0
100
AcDbVertex
100
AcDb2dVertex
 10
574.9293724850579
 20
-858.7430153508317
 30
0.0
  0
VERTEX
  5
5C1
330
579
100
AcDbEntity
  8
0
100
AcDbVertex
100
AcDb2dVertex
 10
579.8369715496996
 20
-855.3900388198786
 30
0.0
  0
VERTEX
  5
5C2
330
579
100
AcDbEntity
  8
0
100
AcDbVertex
100
AcDb2dVertex
 10
584.6846903565897
 20
-851.9510560392089
 30
0.0
  0
VERTEX
  5
5C3
330
579
100
AcDbEntity
  8
0
100
AcDbVertex
100
AcDb2dVertex
 10
589.4710218100383
 20
-848.4271361459455
 30
0.0
  0
VERTEX
  5
5C4
330
579
100
AcDbEntity
  8
0
100
AcDbVertex
100
AcDb2dVertex
 10
594.1944778989215
 20
-844.8193746831025
 30
0.0
  0
VERTEX
  5
5C5
330
579
100
AcDbEntity
  8
0
100
AcDbVertex
100
AcDb2dVertex
 10
598.8535901592932
 20
-841.128893258999
 30
0.0
  0
VERTEX
  5
5C6
330
579
100
AcDbEntity
  8
0
100
AcDbVertex
100
AcDb2dVertex
 10
603.4469101309003
 20
-837.3568391985656
 30
0.0
  0
VERTEX
  5
5C7
330
579
100
AcDbEntity
  8
0
100
AcDbVertex
100
AcDb2dVertex
 10
607.9730098074999
 20
-833.5043851866543
 30
0.0
  0
VERTEX
  5
5C8
330
579
100
AcDbEntity
  8
0
100
AcDbVertex
100
AcDb2dVertex
 10
612.4304820808037
 20
-829.5727289034669
 30
0.0
  0
VERTEX
  5
5C9
330
579
100
AcDbEntity
  8
0
100
AcDbVertex
100
AcDb2dVertex
 10
616.8179411779319
 20
-825.5630926522063
 30
0.0
  0
VERTEX
  5
5CA
330
579
100
AcDbEntity
  8
0
100
AcDbVertex
100
AcDb2dVertex
 10
621.1340230922367
 20
-821.4767229790846
 30
0.0
  0
VERTEX
  5
5CB
330
579
100
AcDbEntity
  8
0
100
AcDbVertex
100
AcDb2dVertex
 10
625.3773860073485
 20
-817.3148902857803
 30
0.0
  0
VERTEX
  5
5CC
330
579
100
AcDbEntity
  8
0
100
AcDbVertex
100
AcDb2dVertex
 10
629.5467107143348
 20
-813.0788884344922
 30
0.0
  0
VERTEX
  5
5CD
330
579
100
AcDbEntity
  8
0
100
AcDbVertex
100
AcDb2dVertex
 10
633.6407010218178
 20
-808.7700343456881
 30
0.0
  0
VERTEX
  5
5CE
330
579
100
AcDbEntity
  8
0
100
AcDbVertex
100
AcDb2dVertex
 10
637.6580841589719
 20
-804.3896675886982
 30
0.0
  0
VERTEX
  5
5CF
330
579
100
AcDbEntity
  8
0
100
AcDbVertex
100
AcDb2dVertex
 10
641.5976111711559
 20
-799.9391499652504
 30
0.0
  0
VERTEX
  5
5D0
330
579
100
AcDbEntity
  8
0
100
AcDbVertex
100
AcDb2dVertex
 10
645.4580573082688
 20
-795.4198650861076
 30
0.0
  0
VERTEX
  5
5D1
330
579
100
AcDbEntity
  8
0
100
AcDbVertex
100
AcDb2dVertex
 10
649.2382224054586
 20
-790.8332179409201
 30
0.0
  0
VERTEX
  5
5D2
330
579
100
AcDbEntity
  8
0
100
AcDbVertex
100
AcDb2dVertex
 10
652.9369312562342
 20
-786.1806344614376
 30
0.0
  0
VERTEX
  5
5D3
330
579
100
AcDbEntity
  8
0
100
AcDbVertex
100
AcDb2dVertex
 10
656.5530339778819
 20
-781.4635610781926
 30
0.0
  0
VERTEX
  5
5D4
330
579
100
AcDbEntity
  8
0
100
AcDbVertex
100
AcDb2dVertex
 10
660.0854063688705
 20
-776.6834642708305
 30
0.0
  0
VERTEX
  5
5D5
330
579
100
AcDbEntity
  8
0
100
AcDbVertex
100
AcDb2dVertex
 10
663.5329502584179
 20
-771.8418301121951
 30
0.0
  0
VERTEX
  5
5D6
330
579
100
AcDbEntity
  8
0
100
AcDbVertex
100
AcDb2dVertex
 10
666.8945938478587
 20
-766.9401638063382
 30
0.0
  0
VERTEX
  5
5D7
330
579
100
AcDbEntity
  8
0
100
AcDbVertex
100
AcDb2dVertex
 10
670.1692920438638
 20
-761.9799892205548
 30
0.0
  0
VERTEX
  5
5D8
330
579
100
AcDbEntity
  8
0
100
AcDbVertex
100
AcDb2dVertex
 10
673.3560267833709
 20
-756.9628484116429
 30
0.0
  0
VERTEX
  5
5D9
330
579
100
AcDbEntity
  8
0
100
AcDbVertex
100
AcDb2dVertex
 10
676.4538073500331
 20
-751.8903011464911
 30
0.0
  0
VERTEX
  5
5DA
330
579
100
AcDbEntity
  8
0
100
AcDbVertex
100
AcDb2dVertex
 10
679.4616706822762
 20
-746.763924417167
 30
0.0
  0
VERTEX
  5
5DB
330
579
100
AcDbEntity
  8
0
100
AcDbVertex
100
AcDb2dVertex
 10
682.3786816726729
 20
-741.5853119506558
 30
0.0
  0
VERTEX
  5
5DC
330
579
100
AcDbEntity
  8
0
100
AcDbVertex
100
AcDb2dVertex
 10
685.203933458662
 20
-736.3560737133823
 30
0.0
  0
VERTEX
  5
5DD
330
579
100
AcDbEntity
  8
0
100
AcDbVertex
100
AcDb2dVertex
 10
687.9365477044843
 20
-731.0778354106978
 30
0.0
  0
VERTEX
  5
5DE
330
579
100
AcDbEntity
  8
0
100
AcDbVertex
100
AcDb2dVertex
 10
690.5756748742419
 20
-725.7522379814652
 30
0.0
  0
VERTEX
  5
5DF
330
579
100
AcDbEntity
  8
0
100
AcDbVertex
100
AcDb2dVertex
 10
693.1204944960048
 20
-720.3809370879123
 30
0.0
  0
VERTEX
  5
5E0
330
579
100
AcDbEntity
  8
0
100
AcDbVertex
100
AcDb2dVertex
 10
695.5702154169103
 20
-714.9656026009137
 30
0.0
  0
VERTEX
  5
5E1
330
579
100
AcDbEntity
  8
0
100
AcDbVertex
100
AcDb2dVertex
 10
697.9240760490743
 20
-709.5079180808309
 30
0.0
  0
VERTEX
  5
5E2
330
579
100
AcDbEntity
  8
0
100
AcDbVertex
100
AcDb2dVertex
 10
700.1813446064101
 20
-704.0095802541349
 30
0.0
  0
VERTEX
  5
5E3
330
579
100
AcDbEntity
  8
0
100
AcDbVertex
100
AcDb2dVertex
 10
702.341319332098
 20
-698.4722984859045
 30
0.0
  0
VERTEX
  5
5E4
330
579
100
AcDbEntity
  8
0
100
AcDbVertex
100
AcDb2dVertex
 10
704.4033287167722
 20
-692.8977942484044
 30
0.0
  0
VERTEX
  5
5E5
330
579
100
AcDbEntity
  8
0
100
AcDbVertex
100
AcDb2dVertex
 10
706.36673170727
 20
-687.2878005859031
 30
0.0
  0
VERTEX
  5
5E6
330
579
100
AcDbEntity
  8
0
100
AcDbVertex
100
AcDb2dVertex
 10
708.2309179059506
 20
-681.6440615758959
 30
0.0
  0
VERTEX
  5
5E7
330
579
100
AcDbEntity
  8
0
100
AcDbVertex
100
AcDb2dVertex
 10
709.9953077604174
 20
-675.9683317868847
 30
0.0
  0
VERTEX
  5
5E8
330
579
100
AcDbEntity
  8
0
100
AcDbVertex
100
AcDb2dVertex
 10
711.6593527437353
 20
-670.2623757329138
 30
0.0
  0
VERTEX
  5
5E9
330
579
100
AcDbEntity
  8
0
100
AcDbVertex
100
AcDb2dVertex
 10
713.2225355249608
 20
-664.5279673249847
 30
0.0
  0
VERTEX
  5
5EA
330
579
100
AcDbEntity
  8
0
100
AcDbVertex
100
AcDb2dVertex
 10
714.6843701299263
 20
-658.7668893196026
 30
0.0
  0
VERTEX
  5
5EB
330
579
100
AcDbEntity
  8
0
100
AcDbVertex
100
AcDb2dVertex
 10
716.0444020923744
 20
-652.9809327645032
 30
0.0
  0
VERTEX
  5
5EC
330
579
100
AcDbEntity
  8
0
100
AcDbVertex
100
AcDb2dVertex
 10
717.3022085952397
 20
-647.171896441861
 30
0.0
  0
VERTEX
  5
5ED
330
579
100
AcDbEntity
  8
0
100
AcDbVertex
100
AcDb2dVertex
 10
718.4573986020574
 20
-641.3415863090686
 30
0.0
  0
VERTEX
  5
5EE
330
579
100
AcDbEntity
  8
0
100
AcDbVertex
100
AcDb2dVertex
 10
719.5096129785773
 20
-635.491814937273
 30
0.0
  0
VERTEX
  5
5EF
330
579
100
AcDbEntity
  8
0
100
AcDbVertex
100
AcDb2dVertex
 10
720.4585246043916
 20
-629.6244009478941
 30
0.0
  0
VERTEX
  5
5F0
330
579
100
AcDbEntity
  8
0
100
AcDbVertex
100
AcDb2dVertex
 10
721.3038384746397
 20
-623.7411684472048
 30
0.0
  0
VERTEX
  5
5F1
330
579
100
AcDbEntity
  8
0
100
AcDbVertex
100
AcDb2dVertex
 10
722.0452917917153
 20
-617.8439464592686
 30
0.0
  0
VERTEX
  5
5F2
330
579
100
AcDbEntity
  8
0
100
AcDbVertex
100
AcDb2dVertex
 10
722.6826540469731
 20
-611.9345683573054
 30
0.0
  0
VERTEX
  5
5F3
330
579
100
AcDbEntity
  8
0
100
AcDbVertex
100
AcDb2dVertex
 10
723.215727092389
 20
-606.0148712937141
 30
0.0
  0
VERTEX
  5
5F4
330
579
100
AcDbEntity
  8
0
100
AcDbVertex
100
AcDb2dVertex
 10
723.6443452021593
 20
-600.0866956289457
 30
0.0
  0
VERTEX
  5
5F5
330
579
100
AcDbEntity
  8
0
100
AcDbVertex
100
AcDb2dVertex
 10
723.9683751242279
 20
-594.1518843593267
 30
0.0
  0
VERTEX
  5
5F6
330
579
100
AcDbEntity
  8
0
100
AcDbVertex
100
AcDb2dVertex
 10
724.1877161217076
 20
-588.2122825441193
 30
0.0
  0
VERTEX
  5
5F7
330
579
100
AcDbEntity
  8
0
100
AcDbVertex
100
AcDb2dVertex
 10
724.3023000042007
 20
-582.2697367319039
 30
0.0
  0
VERTEX
  5
5F8
330
579
100
AcDbEntity
  8
0
100
AcDbVertex
100
AcDb2dVertex
 10
724.3120911489993
 20
-576.3260943865148
 30
0.0
  0
VERTEX
  5
5F9
330
579
100
AcDbEntity
  8
0
100
AcDbVertex
100
AcDb2dVertex
 10
724.2170865121525
 20
-570.3832033126888
 30
0.0
  0
VERTEX
  5
5FA
330
579
100
AcDbEntity
  8
0
100
AcDbVertex
100
AcDb2dVertex
 10
724.017315629439
 20
-564.4429110815885
 30
0.0
  0
VERTEX
  5
5FB
330
579
100
AcDbEntity
  8
0
100
AcDbVertex
100
AcDb2dVertex
 10
723.6246107799166
 20
-556.7869932395149
 30
0.0
  0
VERTEX
  5
5FC
330
579
100
AcDbEntity
  8
0
100
AcDbVertex
100
AcDb2dVertex
 10
723.6246124937499
 20
-479.2239626603078
 30
0.0
  0
VERTEX
  5
5FD
330
579
100
AcDbEntity
  8
0
100
AcDbVertex
100
AcDb2dVertex
 10
724.0173175866709
 20
-471.5680447851867
 30
0.0
  0
VERTEX
  5
5FE
330
579
100
AcDbEntity
  8
0
100
AcDbVertex
100
AcDb2dVertex
 10
724.2170887197565
 20
-465.627752562509
 30
0.0
  0
VERTEX
  5
5FF
330
579
100
AcDbEntity
  8
0
100
AcDbVertex
100
AcDb2dVertex
 10
724.3120936070806
 20
-459.6848614926846
 30
0.0
  0
VERTEX
  5
600
330
579
100
AcDbEntity
  8
0
100
AcDbVertex
100
AcDb2dVertex
 10
724.3023027127929
 20
-453.7412191468853
 30
0.0
  0
VERTEX
  5
601
330
579
100
AcDbEntity
  8
0
100
AcDbVertex
100
AcDb2dVertex
 10
724.187719080764
 20
-447.7986733298405
 30
0.0
  0
VERTEX
  5
602
330
579
100
AcDbEntity
  8
0
100
AcDbVertex
100
AcDb2dVertex
 10
723.9683783336254
 20
-441.8590715053883
 30
0.0
  0
VERTEX
  5
603
330
579
100
AcDbEntity
  8
0
100
AcDbVertex
100
AcDb2dVertex
 10
723.6443486616954
 20
-435.9242602221109
 30
0.0
  0
VERTEX
  5
604
330
579
100
AcDbEntity
  8
0
100
AcDbVertex
100
AcDb2dVertex
 10
723.2157308017815
 20
-429.996084539276
 30
0.0
  0
VERTEX
  5
605
330
579
100
AcDbEntity
  8
0
100
AcDbVertex
100
AcDb2dVertex
 10
722.6826580058698
 20
-424.0763874532184
 30
0.0
  0
VERTEX
  5
606
330
579
100
AcDbEntity
  8
0
100
AcDbVertex
100
AcDb2dVertex
 10
722.0452959996794
 20
-418.1670093243902
 30
0.0
  0
VERTEX
  5
607
330
579
100
AcDbEntity
  8
0
100
AcDbVertex
100
AcDb2dVertex
 10
721.3038429311582
 20
-412.2697873052049
 30
0.0
  0
VERTEX
  5
608
330
579
100
AcDbEntity
  8
0
100
AcDbVertex
100
AcDb2dVertex
 10
720.4585293088746
 20
-406.3865547688887
 30
0.0
  0
VERTEX
  5
609
330
579
100
AcDbEntity
  8
0
100
AcDbVertex
100
AcDb2dVertex
 10
719.5096179985161
 20
-400.5191407272531
 30
0.0
  0
VERTEX
  5
60A
330
579
100
AcDbEntity
  8
0
100
AcDbVertex
100
AcDb2dVertex
 10
718.4574038672265
 20
-394.6693693101295
 30
0.0
  0
VERTEX
  5
60B
330
579
100
AcDbEntity
  8
0
100
AcDbVertex
100
AcDb2dVertex
 10
717.3022141185938
 20
-388.8390591914855
 30
0.0
  0
VERTEX
  5
60C
330
579
100
AcDbEntity
  8
0
100
AcDbVertex
100
AcDb2dVertex
 10
716.0444078453695
 20
-383.0300227511709
 30
0.0
  0
VERTEX
  5
60D
330
579
100
AcDbEntity
  8
0
100
AcDbVertex
100
AcDb2dVertex
 10
714.6843761419827
 20
-377.2440662034096
 30
0.0
  0
VERTEX
  5
60E
330
579
100
AcDbEntity
  8
0
100
AcDbVertex
100
AcDb2dVertex
 10
713.222541761765
 20
-371.482988070128
 30
0.0
  0
VERTEX
  5
60F
330
579
100
AcDbEntity
  8
0
100
AcDbVertex
100
AcDb2dVertex
 10
711.6593592207582
 20
-365.7485795955822
 30
0.0
  0
VERTEX
  5
610
330
579
100
AcDbEntity
  8
0
100
AcDbVertex
100
AcDb2dVertex
 10
709.9953144974729
 20
-360.0426235384916
 30
0.0
  0
VERTEX
  5
611
330
579
100
AcDbEntity
  8
0
100
AcDbVertex
100
AcDb2dVertex
 10
708.230924859658
 20
-354.3668936067882
 30
0.0
  0
VERTEX
  5
612
330
579
100
AcDbEntity
  8
0
100
AcDbVertex
100
AcDb2dVertex
 10
706.3667388973049
 20
-348.7231545176336
 30
0.0
  0
VERTEX
  5
613
330
579
100
AcDbEntity
  8
0
100
AcDbVertex
100
AcDb2dVertex
 10
704.4033361416887
 20
-343.1131607718594
 30
0.0
  0
VERTEX
  5
614
330
579
100
AcDbEntity
  8
0
100
AcDbVertex
100
AcDb2dVertex
 10
702.3413270176472
 20
-337.5386565168764
 30
0.0
  0
VERTEX
  5
615
330
579
100
AcDbEntity
  8
0
100
AcDbVertex
100
AcDb2dVertex
 10
700.1813524964834
 20
-332.0013745873089
 30
0.0
  0
VERTEX
  5
616
330
579
100
AcDbEntity
  8
0
100
AcDbVertex
100
AcDb2dVertex
 10
697.9240841692795
 20
-326.5030366651234
 30
0.0
  0
VERTEX
  5
617
330
579
100
AcDbEntity
  8
0
100
AcDbVertex
100
AcDb2dVertex
 10
695.5702237655219
 20
-321.0453520455361
 30
0.0
  0
VERTEX
  5
618
330
579
100
AcDbEntity
  8
0
100
AcDbVertex
100
AcDb2dVertex
 10
693.120503025672
 20
-315.6300174766347
 30
0.0
  0
VERTEX
  5
619
330
579
100
AcDbEntity
  8
0
100
AcDbVertex
100
AcDb2dVertex
 10
690.5756836302947
 20
-310.2587164758237
 30
0.0
  0
VERTEX
  5
61A
330
579
100
AcDbEntity
  8
0
100
AcDbVertex
100
AcDb2dVertex
 10
687.9365567642799
 20
-304.9331189849545
 30
0.0
  0
VERTEX
  5
61B
330
579
100
AcDbEntity
  8
0
100
AcDbVertex
100
AcDb2dVertex
 10
685.2039427022709
 20
-299.6548804955478
 30
0.0
  0
VERTEX
  5
61C
330
579
100
AcDbEntity
  8
0
100
AcDbVertex
100
AcDb2dVertex
 10
682.3786911753381
 20
-294.4256422107453
 30
0.0
  0
VERTEX
  5
61D
330
579
100
AcDbEntity
  8
0
100
AcDbVertex
100
AcDb2dVertex
 10
679.461680323924
 20
-289.2470295716919
 30
0.0
  0
VERTEX
  5
61E
330
579
100
AcDbEntity
  8
0
100
AcDbVertex
100
AcDb2dVertex
 10
676.4538172077459
 20
-284.1206527155918
 30
0.0
  0
VERTEX
  5
61F
330
579
100
AcDbEntity
  8
0
100
AcDbVertex
100
AcDb2dVertex
 10
673.356036934164
 20
-279.0481053694724
 30
0.0
  0
VERTEX
  5
620
330
579
100
AcDbEntity
  8
0
100
AcDbVertex
100
AcDb2dVertex
 10
670.1693023592492
 20
-274.0309643552529
 30
0.0
  0
VERTEX
  5
621
330
579
100
AcDbEntity
  8
0
100
AcDbVertex
100
AcDb2dVertex
 10
666.8946043398888
 20
-269.0707896528457
 30
0.0
  0
VERTEX
  5
622
330
579
100
AcDbEntity
  8
0
100
AcDbVertex
100
AcDb2dVertex
 10
663.5329609570421
 20
-264.1691232053033
 30
0.0
  0
VERTEX
  5
623
330
579
100
AcDbEntity
  8
0
100
AcDbVertex
100
AcDb2dVertex
 10
660.0854173508401
 20
-259.3274889509598
 30
0.0
  0
VERTEX
  5
624
330
579
100
AcDbEntity
  8
0
100
AcDbVertex
100
AcDb2dVertex
 10
656.5530451613212
 20
-254.5473919947148
 30
0.0
  0
VERTEX
  5
625
330
579
100
AcDbEntity
  8
0
100
AcDbVertex
100
AcDb2dVertex
 10
652.9369425836303
 20
-249.830318390048
 30
0.0
  0
VERTEX
  5
626
330
579
100
AcDbEntity
  8
0
100
AcDbVertex
100
AcDb2dVertex
 10
649.2382339273989
 20
-245.1777347552388
 30
0.0
  0
VERTEX
  5
627
330
579
100
AcDbEntity
  8
0
100
AcDbVertex
100
AcDb2dVertex
 10
645.45806907994
 20
-240.591087519173
 30
0.0
  0
VERTEX
  5
628
330
579
100
AcDbEntity
  8
0
100
AcDbVertex
100
AcDb2dVertex
 10
641.5976231333046
 20
-236.07180247732
 30
0.0
  0
VERTEX
  5
629
330
579
100
AcDbEntity
  8
0
100
AcDbVertex
100
AcDb2dVertex
 10
637.6580963086975
 20
-231.6212846878314
 30
0.0
  0
VERTEX
  5
62A
330
579
100
AcDbEntity
  8
0
100
AcDbVertex
100
AcDb2dVertex
 10
633.6407132937866
 20
-227.2409176958604
 30
0.0
  0
VERTEX
  5
62B
330
579
100
AcDbEntity
  8
0
100
AcDbVertex
100
AcDb2dVertex
 10
629.5467232302913
 20
-222.9320635001601
 30
0.0
  0
VERTEX
  5
62C
330
579
100
AcDbEntity
  8
0
100
AcDbVertex
100
AcDb2dVertex
 10
625.3773986366378
 20
-218.6960614091925
 30
0.0
  0
VERTEX
  5
62D
330
579
100
AcDbEntity
  8
0
100
AcDbVertex
100
AcDb2dVertex
 10
621.1340359621427
 20
-214.5342286009922
 30
0.0
  0
VERTEX
  5
62E
330
579
100
AcDbEntity
  8
0
100
AcDbVertex
100
AcDb2dVertex
 10
616.8179542200666
 20
-210.4478587459587
 30
0.0
  0
VERTEX
  5
62F
330
579
100
AcDbEntity
  8
0
100
AcDbVertex
100
AcDb2dVertex
 10
612.4304952227419
 20
-206.4382222487431
 30
0.0
  0
VERTEX
  5
630
330
579
100
AcDbEntity
  8
0
100
AcDbVertex
100
AcDb2dVertex
 10
607.9730231843444
 20
-202.506565838717
 30
0.0
  0
VERTEX
  5
631
330
579
100
AcDbEntity
  8
0
100
AcDbVertex
100
AcDb2dVertex
 10
603.4469235984409
 20
-198.6541115771801
 30
0.0
  0
VERTEX
  5
632
330
579
100
AcDbEntity
  8
0
100
AcDbVertex
100
AcDb2dVertex
 10
598.8536038574907
 20
-194.8820573820097
 30
0.0
  0
VERTEX
  5
633
330
579
100
AcDbEntity
  8
0
100
AcDbVertex
100
AcDb2dVertex
 10
594.1944917526673
 20
-191.1915757615351
 30
0.0
  0
VERTEX
  5
634
330
579
100
AcDbEntity
  8
0
100
AcDbVertex
100
AcDb2dVertex
 10
589.4710357407489
 20
-187.5838140443215
 30
0.0
  0
VERTEX
  5
635
330
579
100
AcDbEntity
  8
0
100
AcDbVertex
100
AcDb2dVertex
 10
584.6847044347728
 20
-184.0598939505925
 30
0.0
  0
VERTEX
  5
636
330
579
100
AcDbEntity
  8
0
100
AcDbVertex
100
AcDb2dVertex
 10
579.8369858489718
 20
-180.6209110196215
 30
0.0
  0
VERTEX
  5
637
330
579
100
AcDbEntity
  8
0
100
AcDbVertex
100
AcDb2dVertex
 10
574.9293868475384
 20
-177.2679342304515
 30
0.0
  0
VERTEX
  5
638
330
579
100
AcDbEntity
  8
0
100
AcDbVertex
100
AcDb2dVertex
 10
569.9634334526296
 20
-174.0020061901266
 30
0.0
  0
VERTEX
  5
639
330
579
100
AcDbEntity
  8
0
100
AcDbVertex
100
AcDb2dVertex
 10
564.9406692033865
 20
-170.8241420324897
 30
0.0
  0
VERTEX
  5
63A
330
579
100
AcDbEntity
  8
0
100
AcDbVertex
100
AcDb2dVertex
 10
560.3067737605088
 20
-168.0054742503705
 30
0.0
  0
VERTEX
  5
63B
330
579
100
AcDbEntity
  8
0
100
AcDbVertex
100
AcDb2dVertex
 10
253.6246177460968
 20
-168.0054677873907
 30
0.0
  0
VERTEX
  5
63C
330
579
100
AcDbEntity
  8
0
100
AcDbVertex
100
AcDb2dVertex
 10
253.6246187997897
 20
-118.0054677873908
 30
0.0
  0
VERTEX
  5
63D
330
579
100
AcDbEntity
  8
0
100
AcDbVertex
100
AcDb2dVertex
 10
573.6246187205062
 20
-118.0054744814321
 30
0.0
  0
VERTEX
  5
63E
330
579
100
AcDbEntity
  8
0
100
AcDbVertex
100
AcDb2dVertex
 10
579.5772958489231
 20
-121.3446584170681
 30
0.0
  0
VERTEX
  5
63F
330
579
100
AcDbEntity
  8
0
100
AcDbVertex
100
AcDb2dVertex
 10
585.4701734503365
 20
-124.788276852074
 30
0.0
  0
VERTEX
  5
640
330
579
100
AcDbEntity
  8
0
100
AcDbVertex
100
AcDb2dVertex
 10
591.3014195021437
 20
-128.3352592081611
 30
0.0
  0
VERTEX
  5
641
330
579
100
AcDbEntity
  8
0
100
AcDbVertex
100
AcDb2dVertex
 10
597.0692211422324
 20
-131.9845027724834
 30
0.0
  0
VERTEX
  5
642
330
579
100
AcDbEntity
  8
0
100
AcDbVertex
100
AcDb2dVertex
 10
602.7717852325654
 20
-135.7348730404464
 30
0.0
  0
VERTEX
  5
643
330
579
100
AcDbEntity
  8
0
100
AcDbVertex
100
AcDb2dVertex
 10
608.4073389166458
 20
-139.585204068423
 30
0.0
  0
VERTEX
  5
644
330
579
100
AcDbEntity
  8
0
100
AcDbVertex
100
AcDb2dVertex
 10
613.9741301706898
 20
-143.5342988362211
 30
0.0
  0
VERTEX
  5
645
330
579
100
AcDbEntity
  8
0
100
AcDbVertex
100
AcDb2dVertex
 10
619.4704283482951
 20
-147.5809296192275
 30
0.0
  0
VERTEX
  5
646
330
579
100
AcDbEntity
  8
0
100
AcDbVertex
100
AcDb2dVertex
 10
624.8945247184914
 20
-151.7238383700899
 30
0.0
  0
VERTEX
  5
647
330
579
100
AcDbEntity
  8
0
100
AcDbVertex
100
AcDb2dVertex
 10
630.2447329969497
 20
-155.9617371098304
 30
0.0
  0
VERTEX
  5
648
330
579
100
AcDbEntity
  8
0
100
AcDbVertex
100
AcDb2dVertex
 10
635.519389870228
 20
-160.29330832826
 30
0.0
  0
VERTEX
  5
649
330
579
100
AcDbEntity
  8
0
100
AcDbVertex
100
AcDb2dVertex
 10
640.7168555128873
 20
-164.7172053935779
 30
0.0
  0
VERTEX
  5
64A
330
579
100
AcDbEntity
  8
0
100
AcDbVertex
100
AcDb2dVertex
 10
645.8355141765667
 20
-169.2320530206185
 30
0.0
  0
VERTEX
  5
64B
330
579
100
AcDbEntity
  8
0
100
AcDbVertex
100
AcDb2dVertex
 10
650.8737743751913
 20
-173.8364475000376
 30
0.0
  0
VERTEX
  5
64C
330
579
100
AcDbEntity
  8
0
100
AcDbVertex
100
AcDb2dVertex
 10
655.8300698553992
 20
-178.5289574322614
 30
0.0
  0
VERTEX
  5
64D
330
579
100
AcDbEntity
  8
0
100
AcDbVertex
100
AcDb2dVertex
 10
660.7028597663601
 20
-183.308123974116
 30
0.0
  0
VERTEX
  5
64E
330
579
100
AcDbEntity
  8
0
100
AcDbVertex
100
AcDb2dVertex
 10
665.4906292180898
 20
-188.1724613419647
 30
0.0
  0
VERTEX
  5
64F
330
579
100
AcDbEntity
  8
0
100
AcDbVertex
100
AcDb2dVertex
 10
670.1918897524099
 20
-193.1204572736104
 30
0.0
  0
VERTEX
  5
650
330
579
100
AcDbEntity
  8
0
100
AcDbVertex
100
AcDb2dVertex
 10
674.8051798056964
 20
-198.1505734984499
 30
0.0
  0
VERTEX
  5
651
330
579
100
AcDbEntity
  8
0
100
AcDbVertex
100
AcDb2dVertex
 10
679.3290651632509
 20
-203.2612462157006
 30
0.0
  0
VERTEX
  5
652
330
579
100
AcDbEntity
  8
0
100
AcDbVertex
100
AcDb2dVertex
 10
683.7621394051888
 20
-208.4508865805628
 30
0.0
  0
VERTEX
  5
653
330
579
100
AcDbEntity
  8
0
100
AcDbVertex
100
AcDb2dVertex
 10
688.1030243436828
 20
-213.7178811981689
 30
0.0
  0
VERTEX
  5
654
330
579
100
AcDbEntity
  8
0
100
AcDbVertex
100
AcDb2dVertex
 10
692.3503704514114
 20
-219.0605926251835
 30
0.0
  0
VERTEX
  5
655
330
579
100
AcDbEntity
  8
0
100
AcDbVertex
100
AcDb2dVertex
 10
696.502857281111
 20
-224.4773598788437
 30
0.0
  0
VERTEX
  5
656
330
579
100
AcDbEntity
  8
0
100
AcDbVertex
100
AcDb2dVertex
 10
700.5591938760992
 20
-229.9664989533533
 30
0.0
  0
VERTEX
  5
657
330
579
100
AcDbEntity
  8
0
100
AcDbVertex
100
AcDb2dVertex
 10
704.5181191716076
 20
-235.5263033434136
 30
0.0
  0
VERTEX
  5
658
330
579
100
AcDbEntity
  8
0
100
AcDbVertex
100
AcDb2dVertex
 10
708.3784023868344
 20
-241.1550445747523
 30
0.0
  0
VERTEX
  5
659
330
579
100
AcDbEntity
  8
0
100
AcDbVertex
100
AcDb2dVertex
 10
712.1388434075761
 20
-246.8509727414949
 30
0.0
  0
VERTEX
  5
65A
330
579
100
AcDbEntity
  8
0
100
AcDbVertex
100
AcDb2dVertex
 10
715.7982731593315
 20
-252.6123170501715
 30
0.0
  0
VERTEX
  5
65B
330
579
100
AcDbEntity
  8
0
100
AcDbVertex
100
AcDb2dVertex
 10
719.3555539707493
 20
-258.4372863702492
 30
0.0
  0
VERTEX
  5
65C
330
579
100
AcDbEntity
  8
0
100
AcDbVertex
100
AcDb2dVertex
 10
722.8095799273184
 20
-264.3240697909722
 30
0.0
  0
VERTEX
  5
65D
330
579
100
AcDbEntity
  8
0
100
AcDbVertex
100
AcDb2dVertex
 10
726.1592772151829
 20
-270.2708371843426
 30
0.0
  0
VERTEX
  5
65E
330
579
100
AcDbEntity
  8
0
100
AcDbVertex
100
AcDb2dVertex
 10
729.403604454976
 20
-276.2757397740835
 30
0.0
  0
VERTEX
  5
65F
330
579
100
AcDbEntity
  8
0
100
AcDbVertex
100
AcDb2dVertex
 10
732.5415530255718
 20
-282.3369107104161
 30
0.0
  0
VERTEX
  5
660
330
579
100
AcDbEntity
  8
0
100
AcDbVertex
100
AcDb2dVertex
 10
735.572147377656
 20
-288.4524656504231
 30
0.0
  0
VERTEX
  5
661
330
579
100
AcDbEntity
  8
0
100
AcDbVertex
100
AcDb2dVertex
 10
738.49444533701
 20
-294.6205033438816
 30
0.0
  0
VERTEX
  5
662
330
579
100
AcDbEntity
  8
0
100
AcDbVertex
100
AcDb2dVertex
 10
741.3075383974195
 20
-300.8391062243223
 30
0.0
  0
VERTEX
  5
663
330
579
100
AcDbEntity
  8
0
100
AcDbVertex
100
AcDb2dVertex
 10
744.0105520031183
 20
-307.1063410051921
 30
0.0
  0
VERTEX
  5
664
330
579
100
AcDbEntity
  8
0
100
AcDbVertex
100
AcDb2dVertex
 10
746.6026458206869
 20
-313.4202592808803
 30
0.0
  0
VERTEX
  5
665
330
579
100
AcDbEntity
  8
0
100
AcDbVertex
100
AcDb2dVertex
 10
749.0830140002868
 20
-319.778898132457
 30
0.0
  0
VERTEX
  5
666
330
579
100
AcDbEntity
  8
0
100
AcDbVertex
100
AcDb2dVertex
 10
751.4508854261886
 20
-326.1802807379215
 30
0.0
  0
VERTEX
  5
667
330
579
100
AcDbEntity
  8
0
100
AcDbVertex
100
AcDb2dVertex
 10
753.7055239565207
 20
-332.6224169867687
 30
0.0
  0
VERTEX
  5
668
330
579
100
AcDbEntity
  8
0
100
AcDbVertex
100
AcDb2dVertex
 10
755.8462286521103
 20
-339.1033040986873
 30
0.0
  0
VERTEX
  5
669
330
579
100
AcDbEntity
  8
0
100
AcDbVertex
100
AcDb2dVertex
 10
757.8723339944019
 20
-345.6209272462074
 30
0.0
  0
VERTEX
  5
66A
330
579
100
AcDbEntity
  8
0
100
AcDbVertex
100
AcDb2dVertex
 10
759.7832100923575
 20
-352.1732601810793
 30
0.0
  0
VERTEX
  5
66B
330
579
100
AcDbEntity
  8
0
100
AcDbVertex
100
AcDb2dVertex
 10
761.5782628782856
 20
-358.7582658642117
 30
0.0
  0
VERTEX
  5
66C
330
579
100
AcDbEntity
  8
0
100
AcDbVertex
100
AcDb2dVertex
 10
763.2569342925235
 20
-365.3738970989592
 30
0.0
  0
VERTEX
  5
66D
330
579
100
AcDbEntity
  8
0
100
AcDbVertex
100
AcDb2dVertex
 10
764.8187024569372
 20
-372.0180971675723
 30
0.0
  0
VERTEX
  5
66E
330
579
100
AcDbEntity
  8
0
100
AcDbVertex
100
AcDb2dVertex
 10
766.2630818371623
 20
-378.6888004706093
 30
0.0
  0
VERTEX
  5
66F
330
579
100
AcDbEntity
  8
0
100
AcDbVertex
100
AcDb2dVertex
 10
767.58962339355
 20
-385.3839331690941
 30
0.0
  0
VERTEX
  5
670
330
579
100
AcDbEntity
  8
0
100
AcDbVertex
100
AcDb2dVertex
 10
768.7979147207818
 20
-392.1014138292595
 30
0.0
  0
VERTEX
  5
671
330
579
100
AcDbEntity
  8
0
100
AcDbVertex
100
AcDb2dVertex
 10
769.8875801760521
 20
-398.8391540696318
 30
0.0
  0
VERTEX
  5
672
330
579
100
AcDbEntity
  8
0
100
AcDbVertex
100
AcDb2dVertex
 10
770.8582809958808
 20
-405.5950592102875
 30
0.0
  0
VERTEX
  5
673
330
579
100
AcDbEntity
  8
0
100
AcDbVertex
100
AcDb2dVertex
 10
771.7097154014148
 20
-412.3670289240565
 30
0.0
  0
VERTEX
  5
674
330
579
100
AcDbEntity
  8
0
100
AcDbVertex
100
AcDb2dVertex
 10
772.4416186922506
 20
-419.1529578894988
 30
0.0
  0
VERTEX
  5
675
330
579
100
AcDbEntity
  8
0
100
AcDbVertex
100
AcDb2dVertex
 10
773.053763328729
 20
-425.9507364454083
 30
0.0
  0
VERTEX
  5
676
330
579
100
AcDbEntity
  8
0
100
AcDbVertex
100
AcDb2dVertex
 10
773.5459590026676
 20
-432.7582512466928
 30
0.0
  0
VERTEX
  5
677
330
579
100
AcDbEntity
  8
0
100
AcDbVertex
100
AcDb2dVertex
 10
773.9180526965345
 20
-439.573385921381
 30
0.0
  0
VERTEX
  5
678
330
579
100
AcDbEntity
  8
0
100
AcDbVertex
100
AcDb2dVertex
 10
774.1699287310105
 20
-446.3940217285755
 30
0.0
  0
VERTEX
  5
679
330
579
100
AcDbEntity
  8
0
100
AcDbVertex
100
AcDb2dVertex
 10
774.3015088009599
 20
-453.2180382171518
 30
0.0
  0
VERTEX
  5
67A
330
579
100
AcDbEntity
  8
0
100
AcDbVertex
100
AcDb2dVertex
 10
774.3127519997672
 20
-460.0433138849643
 30
0.0
  0
VERTEX
  5
67B
330
579
100
AcDbEntity
  8
0
100
AcDbVertex
100
AcDb2dVertex
 10
774.2036548320684
 20
-466.8677268384095
 30
0.0
  0
VERTEX
  5
67C
330
579
100
AcDbEntity
  8
0
100
AcDbVertex
100
AcDb2dVertex
 10
773.9742512148132
 20
-473.6891554520896
 30
0.0
  0
VERTEX
  5
67D
330
579
100
AcDbEntity
  8
0
100
AcDbVertex
100
AcDb2dVertex
 10
773.6246124690749
 20
-480.5054789829924
 30
0.0
  0
SEQEND
  5
67E
330
579
100
AcDbEntity
  8
0
  0
LINE
  5
67F
330
1F
100
AcDbEntity
  8
0
100
AcDbLine
 10
1066.331599467681
 20
-778.8507158093768
 30
0.0
 11
1047.197427849477
 21
-825.0446924349089
 31
0.0
  0
LINE
  5
680
330
1F
100
AcDbEntity
  8
0
100
AcDbLine
 10
1139.585381100933
 20
-863.3130356706589
 30
0.0
 11
1158.719552718751
 21
-817.1190590460608
 31
0.0
  0
LINE
  5
681
330
1F
100
AcDbEntity
  8
0
100
AcDbLine
 10
1066.331599467938
 20
-718.850715808589
 30
0.0
 11
1047.197427849714
 21
-765.0446924341235
 31
0.0
  0
LINE
  5
682
330
1F
100
AcDbEntity
  8
0
100
AcDbLine
 10
1139.585381100856
 20
-803.3130356706299
 30
0.0
 11
1158.71955271908
 21
-757.1190590450956
 31
0.0
  0
LINE
  5
683
330
1F
100
AcDbEntity
  8
0
100
AcDbLine
 10
102.1956435542676
 20
158.1554931218602
 30
0.0
 11
2.195643554255682
 21
158.1554946120164
 31
0.0
  0
LINE
  5
684
330
1F
100
AcDbEntity
  8
0
100
AcDbLine
 10
102.1956311637449
 20
-673.3360861383035
 30
0.0
 11
2.195631163733037
 21
-673.3360846481473
 31
0.0
  0
ENDSEC
  0
SECTION
  2
OBJECTS
  0
DICTIONARY
  5
C
330
0
100
AcDbDictionary
281
     1
  3
ACAD_DETAILVIEWSTYLE
350
6C0
  3
ACAD_GROUP
350
D
  3
ACAD_LAYOUT
350
1A
  3
ACAD_MATERIAL
350
43
  3
ACAD_MLEADERSTYLE
350
5B
  3
ACAD_MLINESTYLE
350
17
  3
ACAD_PLOTSETTINGS
350
19
  3
ACAD_PLOTSTYLENAME
350
E
  3
ACAD_SCALELIST
350
47
  3
ACAD_SECTIONVIEWSTYLE
350
6C1
  3
ACAD_TABLESTYLE
350
59
  3
ACAD_VISUALSTYLE
350
2A
  3
ACDB_RECOMPOSE_DATA
350
6BD
  3
AcDbVariableDictionary
350
685
  0
SUN
  5
5D
330
29
100
AcDbSun
 90
        1
290
     0
 63
     7
421
 16777215
 40
1.0
291
     1
 91
  2455826
 92
 54000000
292
     0
 70
     2
 71
   256
280
     1
  0
DICTIONARY
  5
6C0
102
{ACAD_REACTORS
330
C
102
}
330
C
100
AcDbDictionary
281
     1
  0
DICTIONARY
  5
D
102
{ACAD_REACTORS
330
C
102
}
330
C
100
AcDbDictionary
281
     1
  0
DICTIONARY
  5
1A
102
{ACAD_REACTORS
330
C
102
}
330
C
100
AcDbDictionary
281
     1
  3
Layout1
350
1E
  3
Layout2
350
26
  3
Model
350
22
  0
DICTIONARY
  5
43
102
{ACAD_REACTORS
330
C
102
}
330
C
100
AcDbDictionary
281
     1
  3
ByBlock
350
45
  3
ByLayer
350
44
  3
Global
350
46
  0
DICTIONARY
  5
5B
102
{ACAD_REACTORS
330
C
102
}
330
C
100
AcDbDictionary
281
     1
  3
Standard
350
5C
  0
DICTIONARY
  5
17
102
{ACAD_REACTORS
330
C
102
}
330
C
100
AcDbDictionary
281
     1
  3
Standard
350
18
  0
DICTIONARY
  5
19
102
{ACAD_REACTORS
330
C
102
}
330
C
100
AcDbDictionary
281
     1
  0
ACDBDICTIONARYWDFLT
  5
E
102
{ACAD_REACTORS
330
C
102
}
330
C
100
AcDbDictionary
281
     1
  3
Normal
350
F
100
AcDbDictionaryWithDefault
340
F
  0
DICTIONARY
  5
47
102
{ACAD_REACTORS
330
C
102
}
330
C
100
AcDbDictionary
281
     1
  3
A0
350
48
  3
A1
350
49
  3
A2
350
4A
  3
A3
350
4B
  3
A4
350
4C
  3
A5
350
4D
  3
A6
350
4E
  3
A7
350
4F
  3
A8
350
50
  3
A9
350
51
  3
B1
350
52
  3
B2
350
53
  3
B3
350
54
  3
B4
350
55
  3
B5
350
56
  3
B6
350
57
  3
B7
350
58
  0
DICTIONARY
  5
6C1
102
{ACAD_REACTORS
330
C
102
}
330
C
100
AcDbDictionary
281
     1
  0
DICTIONARY
  5
59
102
{ACAD_REACTORS
330
C
102
}
330
C
100
AcDbDictionary
281
     1
  3
Standard
350
5A
  0
DICTIONARY
  5
2A
102
{ACAD_REACTORS
330
C
102
}
330
C
100
AcDbDictionary
281
     1
  3
2dWireframe
350
2F
  3
Basic
350
32
  3
Brighten
350
36
  3
ColorChange
350
3A
  3
Conceptual
350
34
  3
Dim
350
35
  3
EdgeColorOff
350
3D
  3
Facepattern
350
39
  3
Flat
350
2B
  3
FlatWithEdges
350
2C
  3
Gouraud
350
2D
  3
GouraudWithEdges
350
2E
  3
Hidden
350
31
  3
JitterOff
350
3B
  3
Linepattern
350
38
  3
OverhangOff
350
3C
  3
Realistic
350
33
  3
Shaded
350
42
  3
Shaded with edges
350
41
  3
Shades of Gray
350
3E
  3
Sketchy
350
3F
  3
Thicken
350
37
  3
Wireframe
350
30
  3
X-Ray
350
40
  0
XRECORD
  5
6BD
102
{ACAD_REACTORS
330
C
102
}
330
C
100
AcDbXrecord
280
     1
 90
        1
330
5A
  0
DICTIONARY
  5
685
102
{ACAD_REACTORS
330
C
102
}
330
C
100
AcDbDictionary
281
     1
  3
CANNOSCALE
350
686
  3
CMLEADERSTYLE
350
6BF
  3
CTABLESTYLE
350
6BE
  3
XCLIPFRAME
350
687
  0
LAYOUT
  5
1E
102
{ACAD_REACTORS
330
1A
102
}
330
1A
100
AcDbPlotSettings
  1

  2
none_device
  4

  6

 40
0.0
 41
0.0
 42
0.0
 43
0.0
 44
0.0
 45
0.0
 46
0.0
 47
0.0
 48
0.0
 49
0.0
140
0.0
141
0.0
142
1.0
143
1.0
 70
   688
 72
     0
 73
     0
 74
     5
  7

 75
    16
 76
     0
 77
     2
 78
   300
147
1.0
148
0.0
149
0.0
100
AcDbLayout
  1
Layout1
 70
     1
 71
     1
 10
0.0
 20
0.0
 11
12.0
 21
9.0
 12
0.0
 22
0.0
 32
0.0
 14
1.000000000000000E+20
 24
1.000000000000000E+20
 34
1.000000000000000E+20
 15
-1.000000000000000E+20
 25
-1.000000000000000E+20
 35
-1.000000000000000E+20
146
0.0
 13
0.0
 23
0.0
 33
0.0
 16
1.0
 26
0.0
 36
0.0
 17
0.0
 27
1.0
 37
0.0
 76
     0
330
1B
  0
LAYOUT
  5
26
102
{ACAD_REACTORS
330
1A
102
}
330
1A
100
AcDbPlotSettings
  1

  2
none_device
  4

  6

 40
0.0
 41
0.0
 42
0.0
 43
0.0
 44
0.0
 45
0.0
 46
0.0
 47
0.0
 48
0.0
 49
0.0
140
0.0
141
0.0
142
1.0
143
1.0
 70
   688
 72
     0
 73
     0
 74
     5
  7

 75
    16
 76
     0
 77
     2
 78
   300
147
1.0
148
0.0
149
0.0
100
AcDbLayout
  1
Layout2
 70
     1
 71
     2
 10
0.0
 20
0.0
 11
0.0
 21
0.0
 12
0.0
 22
0.0
 32
0.0
 14
0.0
 24
0.0
 34
0.0
 15
0.0
 25
0.0
 35
0.0
146
0.0
 13
0.0
 23
0.0
 33
0.0
 16
1.0
 26
0.0
 36
0.0
 17
0.0
 27
1.0
 37
0.0
 76
     0
330
23
  0
LAYOUT
  5
22
102
{ACAD_REACTORS
330
1A
102
}
330
1A
100
AcDbPlotSettings
  1

  2
none_device
  4
Letter_(8.50_x_11.00_Inches)
  6

 40
6.35
 41
6.35
 42
6.35000508
 43
6.35000508
 44
215.9
 45
279.4
 46
0.0
 47
0.0
 48
0.0
 49
0.0
140
0.0
141
0.0
142
1.0
143
1.0
 70
  1712
 72
     0
 73
     0
 74
     0
  7

 75
     0
 76
     0
 77
     2
 78
   300
147
1.0
148
0.0
149
0.0
100
AcDbLayout
  1
Model
 70
     1
 71
     0
 10
0.0
 20
0.0
 11
12.0
 21
9.0
 12
0.0
 22
0.0
 32
0.0
 14
-1625.687257651252
 24
-918.0054792759072
 34
0.0
 15
2027.927441997731
 25
261.9945207240927
 35
0.0
146
0.0
 13
0.0
 23
0.0
 33
0.0
 16
1.0
 26
0.0
 36
0.0
 17
0.0
 27
1.0
 37
0.0
 76
     0
330
1F
331
29
  0
MATERIAL
  5
45
102
{ACAD_REACTORS
330
43
102
}
330
43
100
AcDbMaterial
  1
ByBlock
 72
     1
 94
      127
  0
MATERIAL
  5
44
102
{ACAD_REACTORS
330
43
102
}
330
43
100
AcDbMaterial
  1
ByLayer
 72
     1
 94
      127
  0
MATERIAL
  5
46
102
{ACAD_REACTORS
330
43
102
}
330
43
100
AcDbMaterial
  1
Global
 72
     1
 94
      127
  0
MLEADERSTYLE
  5
5C
102
{ACAD_REACTORS
330
5B
102
}
102
{ACAD_XDICTIONARY
360
6BB
102
}
330
5B
100
AcDbMLeaderStyle
170
     2
171
     1
172
     0
 90
        2
 40
0.0
 41
0.0
173
     1
 91
-1056964608
340
14
 92
       -2
290
     1
 42
0.09
291
     1
 43
0.36
  3
Standard
341
0
 44
0.18
300

342
11
174
     1
178
     6
175
     1
176
     0
 93
-1056964608
 45
0.18
292
     0
297
     0
 46
0.18
343
0
 94
-1056964608
 47
1.0
 49
1.0
140
1.0
293
     1
141
0.0
294
     1
177
     0
142
1.0
295
     0
296
     0
143
0.125
1001
ACAD_MLEADERVER
1070
     2
  0
MLINESTYLE
  5
18
102
{ACAD_REACTORS
330
17
102
}
330
17
100
AcDbMlineStyle
  2
Standard
 70
     0
  3

 62
   256
 51
90.0
 52
90.0
 71
     2
 49
0.5
 62
   256
  6
BYLAYER
 49
-0.5
 62
   256
  6
BYLAYER
  0
ACDBPLACEHOLDER
  5
F
102
{ACAD_REACTORS
330
E
102
}
330
E
  0
SCALE
  5
48
102
{ACAD_REACTORS
330
47
102
}
330
47
100
AcDbScale
 70
     0
300
1:1
140
1.0
141
1.0
290
     1
  0
SCALE
  5
49
102
{ACAD_REACTORS
330
47
102
}
330
47
100
AcDbScale
 70
     0
300
1/128" = 1'-0"
140
0.0078125
141
12.0
290
     0
  0
SCALE
  5
4A
102
{ACAD_REACTORS
330
47
102
}
330
47
100
AcDbScale
 70
     0
300
1/64" = 1'-0"
140
0.015625
141
12.0
290
     0
  0
SCALE
  5
4B
102
{ACAD_REACTORS
330
47
102
}
330
47
100
AcDbScale
 70
     0
300
1/32" = 1'-0"
140
0.03125
141
12.0
290
     0
  0
SCALE
  5
4C
102
{ACAD_REACTORS
330
47
102
}
330
47
100
AcDbScale
 70
     0
300
1/16" = 1'-0"
140
0.0625
141
12.0
290
     0
  0
SCALE
  5
4D
102
{ACAD_REACTORS
330
47
102
}
330
47
100
AcDbScale
 70
     0
300
3/32" = 1'-0"
140
0.09375
141
12.0
290
     0
  0
SCALE
  5
4E
102
{ACAD_REACTORS
330
47
102
}
330
47
100
AcDbScale
 70
     0
300
1/8" = 1'-0"
140
0.125
141
12.0
290
     0
  0
SCALE
  5
4F
102
{ACAD_REACTORS
330
47
102
}
330
47
100
AcDbScale
 70
     0
300
3/16" = 1'-0"
140
0.1875
141
12.0
290
     0
  0
SCALE
  5
50
102
{ACAD_REACTORS
330
47
102
}
330
47
100
AcDbScale
 70
     0
300
1/4" = 1'-0"
140
0.25
141
12.0
290
     0
  0
SCALE
  5
51
102
{ACAD_REACTORS
330
47
102
}
330
47
100
AcDbScale
 70
     0
300
3/8" = 1'-0"
140
0.375
141
12.0
290
     0
  0
SCALE
  5
52
102
{ACAD_REACTORS
330
47
102
}
330
47
100
AcDbScale
 70
     0
300
1/2" = 1'-0"
140
0.5
141
12.0
290
     0
  0
SCALE
  5
53
102
{ACAD_REACTORS
330
47
102
}
330
47
100
AcDbScale
 70
     0
300
3/4" = 1'-0"
140
0.75
141
12.0
290
     0
  0
SCALE
  5
54
102
{ACAD_REACTORS
330
47
102
}
330
47
100
AcDbScale
 70
     0
300
1" = 1'-0"
140
1.0
141
12.0
290
     0
  0
SCALE
  5
55
102
{ACAD_REACTORS
330
47
102
}
330
47
100
AcDbScale
 70
     0
300
1-1/2" = 1'-0"
140
1.5
141
12.0
290
     0
  0
SCALE
  5
56
102
{ACAD_REACTORS
330
47
102
}
330
47
100
AcDbScale
 70
     0
300
3" = 1'-0"
140
3.0
141
12.0
290
     0
  0
SCALE
  5
57
102
{ACAD_REACTORS
330
47
102
}
330
47
100
AcDbScale
 70
     0
300
6" = 1'-0"
140
6.0
141
12.0
290
     0
  0
SCALE
  5
58
102
{ACAD_REACTORS
330
47
102
}
330
47
100
AcDbScale
 70
     0
300
1'-0" = 1'-0"
140
12.0
141
12.0
290
     0
  0
TABLESTYLE
  5
5A
102
{ACAD_REACTORS
330
59
102
}
102
{ACAD_XDICTIONARY
360
6B8
102
}
330
59
100
AcDbTableStyle
  3
Standard
 70
     0
 71
     0
 40
0.06
 41
0.06
280
     0
281
     0
  7
Standard
140
0.18
170
     2
 62
     0
 63
   257
283
     0
 90
        4
 91
        0
  1

274
    -2
284
     1
 64
     0
275
    -2
285
     1
 65
     0
276
    -2
286
     1
 66
     0
277
    -2
287
     1
 67
     0
278
    -2
288
     1
 68
     0
279
    -2
289
     1
 69
     0
  7
Standard
140
0.25
170
     5
 62
     0
 63
   257
283
     0
 90
        4
 91
        0
  1

274
    -2
284
     1
 64
     0
275
    -2
285
     1
 65
     0
276
    -2
286
     1
 66
     0
277
    -2
287
     1
 67
     0
278
    -2
288
     1
 68
     0
279
    -2
289
     1
 69
     0
  7
Standard
140
0.18
170
     5
 62
     0
 63
   257
283
     0
 90
        4
 91
        0
  1

274
    -2
284
     1
 64
     0
275
    -2
285
     1
 65
     0
276
    -2
286
     1
 66
     0
277
    -2
287
     1
 67
     0
278
    -2
288
     1
 68
     0
279
    -2
289
     1
 69
     0
  0
VISUALSTYLE
  5
2F
102
{ACAD_REACTORS
330
2A
102
}
102
{ACAD_XDICTIONARY
360
690
102
}
330
2A
100
AcDbVisualStyle
  2
2dWireframe
 70
     4
 71
     0
 72
     2
 73
     0
 90
        0
 40
0.6
 41
30.0
 62
     5
 63
     7
421
 16777215
 74
     1
 91
        4
 64
     7
 65
   257
 75
     1
175
     1
 42
1.0
 92
        0
 66
   257
 43
1.0
 76
     1
 77
     6
 78
     2
 67
     7
 79
     5
170
     0
171
     0
290
     0
174
     0
 93
        1
 44
0.0
173
     0
291
     0
 45
0.0
  0
VISUALSTYLE
  5
32
102
{ACAD_REACTORS
330
2A
102
}
102
{ACAD_XDICTIONARY
360
696
102
}
330
2A
100
AcDbVisualStyle
  2
Basic
 70
     7
 71
     1
 72
     0
 73
     1
 90
        0
 40
0.6
 41
30.0
 62
     5
 63
     7
421
 16777215
 74
     0
 91
        4
 64
     7
 65
   257
 75
     1
175
     1
 42
1.0
 92
        8
 66
     7
 43
1.0
 76
     1
 77
     6
 78
     2
 67
     7
 79
     5
170
     0
171
     0
290
     0
174
     0
 93
        1
 44
0.0
173
     0
291
     1
 45
0.0
  0
VISUALSTYLE
  5
36
102
{ACAD_REACTORS
330
2A
102
}
102
{ACAD_XDICTIONARY
360
69E
102
}
330
2A
100
AcDbVisualStyle
  2
Brighten
 70
    12
 71
     2
 72
     2
 73
     0
 90
        0
 40
0.6
 41
30.0
 62
     5
 63
     7
421
 16777215
 74
     1
 91
        4
 64
     7
 65
   257
 75
     1
175
     1
 42
1.0
 92
        8
 66
     7
 43
1.0
 76
     1
 77
     6
 78
     2
 67
     7
 79
     5
170
     0
171
     0
290
     0
174
     0
 93
        1
 44
50.0
173
     0
291
     1
 45
0.0
  0
VISUALSTYLE
  5
3A
102
{ACAD_REACTORS
330
2A
102
}
102
{ACAD_XDICTIONARY
360
6A6
102
}
330
2A
100
AcDbVisualStyle
  2
ColorChange
 70
    16
 71
     2
 72
     2
 73
     3
 90
        0
 40
0.6
 41
30.0
 62
     5
 63
     8
421
  8421504
 74
     1
 91
        4
 64
     7
 65
   257
 75
     1
175
     1
 42
1.0
 92
        8
 66
     8
424
  8421504
 43
1.0
 76
     1
 77
     6
 78
     2
 67
     7
 79
     5
170
     0
171
     0
290
     0
174
     0
 93
        1
 44
0.0
173
     0
291
     1
 45
0.0
  0
VISUALSTYLE
  5
34
102
{ACAD_REACTORS
330
2A
102
}
102
{ACAD_XDICTIONARY
360
69A
102
}
330
2A
100
AcDbVisualStyle
  2
Conceptual
 70
     9
 71
     3
 72
     2
 73
     0
 90
        0
 40
0.6
 41
30.0
 62
     5
 63
     7
421
 16777215
 74
     2
 91
        2
 64
     7
 65
   257
 75
     1
175
     1
 42
179.0
 92
        8
 66
     7
 43
1.0
 76
     1
 77
     6
 78
     2
 67
     7
 79
     3
170
     0
171
     0
290
     0
174
     0
 93
        1
 44
0.0
173
     0
291
     0
 45
0.0
  0
VISUALSTYLE
  5
35
102
{ACAD_REACTORS
330
2A
102
}
102
{ACAD_XDICTIONARY
360
69C
102
}
330
2A
100
AcDbVisualStyle
  2
Dim
 70
    11
 71
     2
 72
     2
 73
     0
 90
        0
 40
0.6
 41
30.0
 62
     5
 63
     7
421
 16777215
 74
     1
 91
        4
 64
     7
 65
   257
 75
     1
175
     1
 42
1.0
 92
        8
 66
     7
 43
1.0
 76
     1
 77
     6
 78
     2
 67
     7
 79
     5
170
     0
171
     0
290
     0
174
     0
 93
        1
 44
-50.0
173
     0
291
     1
 45
0.0
  0
VISUALSTYLE
  5
3D
102
{ACAD_REACTORS
330
2A
102
}
102
{ACAD_XDICTIONARY
360
6AC
102
}
330
2A
100
AcDbVisualStyle
  2
EdgeColorOff
 70
    22
 71
     2
 72
     2
 73
     0
 90
        0
 40
0.6
 41
30.0
 62
     5
 63
     7
421
 16777215
 74
     1
 91
        4
 64
     7
 65
   257
 75
     1
175
     1
 42
1.0
 92
        8
 66
     7
 43
1.0
 76
     1
 77
     6
 78
     2
 67
     7
 79
     5
170
     0
171
     0
290
     0
174
     0
 93
        1
 44
0.0
173
     0
291
     1
 45
0.0
  0
VISUALSTYLE
  5
39
102
{ACAD_REACTORS
330
2A
102
}
102
{ACAD_XDICTIONARY
360
6A4
102
}
330
2A
100
AcDbVisualStyle
  2
Facepattern
 70
    15
 71
     2
 72
     2
 73
     0
 90
        0
 40
0.6
 41
30.0
 62
     5
 63
     7
421
 16777215
 74
     1
 91
        4
 64
     7
 65
   257
 75
     1
175
     1
 42
1.0
 92
        8
 66
     7
 43
1.0
 76
     1
 77
     6
 78
     2
 67
     7
 79
     5
170
     0
171
     0
290
     0
174
     0
 93
        1
 44
0.0
173
     0
291
     1
 45
0.0
  0
VISUALSTYLE
  5
2B
102
{ACAD_REACTORS
330
2A
102
}
102
{ACAD_XDICTIONARY
360
688
102
}
330
2A
100
AcDbVisualStyle
  2
Flat
 70
     0
 71
     2
 72
     1
 73
     1
 90
        2
 40
0.6
 41
30.0
 62
     5
 63
     7
421
 16777215
 74
     0
 91
        0
 64
     7
 65
   257
 75
     1
175
     1
 42
1.0
 92
        8
 66
     7
 43
1.0
 76
     1
 77
     6
 78
     2
 67
     7
 79
     5
170
     0
171
     0
290
     0
174
     0
 93
       13
 44
0.0
173
     0
291
     1
 45
0.0
  0
VISUALSTYLE
  5
2C
102
{ACAD_REACTORS
330
2A
102
}
102
{ACAD_XDICTIONARY
360
68A
102
}
330
2A
100
AcDbVisualStyle
  2
FlatWithEdges
 70
     1
 71
     2
 72
     1
 73
     1
 90
        2
 40
0.6
 41
30.0
 62
     5
 63
     7
421
 16777215
 74
     1
 91
        0
 64
     7
 65
   257
 75
     1
175
     1
 42
1.0
 92
        0
 66
   257
 43
1.0
 76
     1
 77
     6
 78
     2
 67
     7
 79
     5
170
     0
171
     0
290
     0
174
     0
 93
       13
 44
0.0
173
     0
291
     1
 45
0.0
  0
VISUALSTYLE
  5
2D
102
{ACAD_REACTORS
330
2A
102
}
102
{ACAD_XDICTIONARY
360
68C
102
}
330
2A
100
AcDbVisualStyle
  2
Gouraud
 70
     2
 71
     2
 72
     2
 73
     1
 90
        2
 40
0.6
 41
30.0
 62
     5
 63
     7
421
 16777215
 74
     0
 91
        0
 64
     7
 65
   257
 75
     1
175
     1
 42
1.0
 92
        0
 66
     7
 43
1.0
 76
     1
 77
     6
 78
     2
 67
     7
 79
     5
170
     0
171
     0
290
     0
174
     0
 93
       13
 44
0.0
173
     0
291
     1
 45
0.0
  0
VISUALSTYLE
  5
2E
102
{ACAD_REACTORS
330
2A
102
}
102
{ACAD_XDICTIONARY
360
68E
102
}
330
2A
100
AcDbVisualStyle
  2
GouraudWithEdges
 70
     3
 71
     2
 72
     2
 73
     1
 90
        2
 40
0.6
 41
30.0
 62
     5
 63
     7
421
 16777215
 74
     1
 91
        0
 64
     7
 65
   257
 75
     1
175
     1
 42
1.0
 92
        0
 66
   257
 43
1.0
 76
     1
 77
     6
 78
     2
 67
     7
 79
     5
170
     0
171
     0
290
     0
174
     0
 93
       13
 44
0.0
173
     0
291
     1
 45
0.0
  0
VISUALSTYLE
  5
31
102
{ACAD_REACTORS
330
2A
102
}
102
{ACAD_XDICTIONARY
360
694
102
}
330
2A
100
AcDbVisualStyle
  2
Hidden
 70
     6
 71
     1
 72
     2
 73
     2
 90
        0
 40
0.6
 41
30.0
 62
     5
 63
     7
421
 16777215
 74
     2
 91
        2
 64
     7
 65
   257
 75
     2
175
     1
 42
40.0
 92
        0
 66
   257
 43
1.0
 76
     1
 77
     6
 78
     2
 67
     7
 79
     3
170
     0
171
     0
290
     0
174
     0
 93
        1
 44
0.0
173
     0
291
     0
 45
0.0
  0
VISUALSTYLE
  5
3B
102
{ACAD_REACTORS
330
2A
102
}
102
{ACAD_XDICTIONARY
360
6A8
102
}
330
2A
100
AcDbVisualStyle
  2
JitterOff
 70
    20
 71
     2
 72
     2
 73
     0
 90
        0
 40
0.6
 41
30.0
 62
     5
 63
     7
421
 16777215
 74
     1
 91
        4
 64
     7
 65
   257
 75
     1
175
     1
 42
1.0
 92
       10
 66
     7
 43
1.0
 76
     1
 77
     6
 78
     2
 67
     7
 79
     5
170
     0
171
     0
290
     0
174
     0
 93
        1
 44
0.0
173
     0
291
     1
 45
0.0
  0
VISUALSTYLE
  5
38
102
{ACAD_REACTORS
330
2A
102
}
102
{ACAD_XDICTIONARY
360
6A2
102
}
330
2A
100
AcDbVisualStyle
  2
Linepattern
 70
    14
 71
     2
 72
     2
 73
     0
 90
        0
 40
0.6
 41
30.0
 62
     5
 63
     7
421
 16777215
 74
     1
 91
        4
 64
     7
 65
   257
 75
     7
175
     7
 42
1.0
 92
        8
 66
     7
 43
1.0
 76
     1
 77
     6
 78
     2
 67
     7
 79
     5
170
     0
171
     0
290
     0
174
     0
 93
        1
 44
0.0
173
     0
291
     1
 45
0.0
  0
VISUALSTYLE
  5
3C
102
{ACAD_REACTORS
330
2A
102
}
102
{ACAD_XDICTIONARY
360
6AA
102
}
330
2A
100
AcDbVisualStyle
  2
OverhangOff
 70
    21
 71
     2
 72
     2
 73
     0
 90
        0
 40
0.6
 41
30.0
 62
     5
 63
     7
421
 16777215
 74
     1
 91
        4
 64
     7
 65
   257
 75
     1
175
     1
 42
1.0
 92
        9
 66
     7
 43
1.0
 76
     1
 77
     6
 78
     2
 67
     7
 79
     5
170
     0
171
     0
290
     0
174
     0
 93
        1
 44
0.0
173
     0
291
     1
 45
0.0
  0
VISUALSTYLE
  5
33
102
{ACAD_REACTORS
330
2A
102
}
102
{ACAD_XDICTIONARY
360
698
102
}
330
2A
100
AcDbVisualStyle
  2
Realistic
 70
     8
 71
     2
 72
     3
 73
     0
 90
        2
 40
0.6
 41
30.0
 62
     5
 63
     7
421
 16777215
 74
     0
 91
        0
 64
     7
 65
   257
 75
     1
175
     1
 42
1.0
 92
        8
 66
   257
 43
1.0
 76
     1
 77
     6
 78
     2
 67
     7
 79
     3
170
     0
171
     0
290
     0
174
     0
 93
       13
 44
0.0
173
     0
291
     0
 45
0.0
  0
VISUALSTYLE
  5
42
102
{ACAD_REACTORS
330
2A
102
}
102
{ACAD_XDICTIONARY
360
6B6
102
}
330
2A
100
AcDbVisualStyle
  2
Shaded
 70
    27
 71
     2
 72
     2
 73
     1
 90
        2
 40
0.6
 41
30.0
 62
     5
 63
     7
421
 16777215
 74
     0
 91
        4
 64
     7
 65
   257
 75
     1
175
     1
 42
1.0
 92
        8
 66
   257
 43
1.0
 76
     1
 77
     6
 78
     2
 67
     8
425
  7895160
 79
     3
170
     0
171
     0
290
     0
174
     0
 93
        5
 44
0.0
173
     0
291
     0
 45
0.0
  0
VISUALSTYLE
  5
41
102
{ACAD_REACTORS
330
2A
102
}
102
{ACAD_XDICTIONARY
360
6B4
102
}
330
2A
100
AcDbVisualStyle
  2
Shaded with edges
 70
    26
 71
     2
 72
     2
 73
     1
 90
        2
 40
0.6
 41
30.0
 62
     5
 63
     7
421
 16777215
 74
     1
 91
       10
 64
     7
 65
   257
 75
     2
175
     1
 42
1.0
 92
        8
 66
   257
 43
1.0
 76
     1
 77
     6
 78
     2
 67
     7
 79
     3
170
     0
171
     0
290
     0
174
     0
 93
        5
 44
0.0
173
     0
291
     0
 45
0.0
  0
VISUALSTYLE
  5
3E
102
{ACAD_REACTORS
330
2A
102
}
102
{ACAD_XDICTIONARY
360
6AE
102
}
330
2A
100
AcDbVisualStyle
  2
Shades of Gray
 70
    23
 71
     2
 72
     2
 73
     3
 90
        0
 40
0.6
 41
30.0
 62
     5
 63
     7
421
 16777215
 74
     2
 91
        2
 64
     7
 65
     7
 75
     1
175
     1
 42
40.0
 92
        8
 66
     7
 43
1.0
 76
     1
 77
     6
 78
     2
 67
     7
 79
     3
170
     0
171
     0
290
     0
174
     0
 93
        1
 44
0.0
173
     0
291
     0
 45
0.0
  0
VISUALSTYLE
  5
3F
102
{ACAD_REACTORS
330
2A
102
}
102
{ACAD_XDICTIONARY
360
6B0
102
}
330
2A
100
AcDbVisualStyle
  2
Sketchy
 70
    24
 71
     1
 72
     2
 73
     2
 90
        0
 40
0.6
 41
30.0
 62
     5
 63
     7
421
 16777215
 74
     2
 91
        2
 64
     7
 65
     7
 75
     1
175
     1
 42
40.0
 92
       11
 66
     7
 43
1.0
 76
     1
 77
     6
 78
     2
 67
     7
 79
     6
170
     0
171
     0
290
     0
174
     0
 93
        1
 44
0.0
173
     0
291
     0
 45
0.0
  0
VISUALSTYLE
  5
37
102
{ACAD_REACTORS
330
2A
102
}
102
{ACAD_XDICTIONARY
360
6A0
102
}
330
2A
100
AcDbVisualStyle
  2
Thicken
 70
    13
 71
     2
 72
     2
 73
     0
 90
        0
 40
0.6
 41
30.0
 62
     5
 63
     7
421
 16777215
 74
     1
 91
        4
 64
     7
 65
   257
 75
     1
175
     1
 42
1.0
 92
       12
 66
     7
 43
1.0
 76
     1
 77
     6
 78
     2
 67
     7
 79
     5
170
     0
171
     0
290
     0
174
     0
 93
        1
 44
0.0
173
     0
291
     1
 45
0.0
  0
VISUALSTYLE
  5
30
102
{ACAD_REACTORS
330
2A
102
}
102
{ACAD_XDICTIONARY
360
692
102
}
330
2A
100
AcDbVisualStyle
  2
Wireframe
 70
     5
 71
     0
 72
     2
 73
     0
 90
        0
 40
0.6
 41
30.0
 62
     5
 63
     7
421
 16777215
 74
     1
 91
        4
 64
     7
 65
   257
 75
     1
175
     1
 42
1.0
 92
        0
 66
   257
 43
1.0
 76
     1
 77
     6
 78
     2
 67
     7
 79
     3
170
     0
171
     0
290
     0
174
     0
 93
        1
 44
0.0
173
     0
291
     0
 45
0.0
  0
VISUALSTYLE
  5
40
102
{ACAD_REACTORS
330
2A
102
}
102
{ACAD_XDICTIONARY
360
6B2
102
}
330
2A
100
AcDbVisualStyle
  2
X-Ray
 70
    25
 71
     2
 72
     2
 73
     1
 90
        1
 40
0.5
 41
30.0
 62
     5
 63
     7
421
 16777215
 74
     1
 91
        0
 64
     7
 65
   257
 75
     1
175
     1
 42
1.0
 92
        8
 66
     7
 43
1.0
 76
     1
 77
     6
 78
     2
 67
     7
 79
     3
170
     0
171
     0
290
     0
174
     0
 93
       13
 44
0.0
173
     0
291
     0
 45
0.0
  0
DICTIONARYVAR
  5
686
102
{ACAD_REACTORS
330
685
102
}
330
685
100
DictionaryVariables
280
     0
  1
1:1
  0
DICTIONARYVAR
  5
6BF
102
{ACAD_REACTORS
330
685
102
}
330
685
100
DictionaryVariables
280
     0
  1
Standard
  0
DICTIONARYVAR
  5
6BE
102
{ACAD_REACTORS
330
685
102
}
330
685
100
DictionaryVariables
280
     0
  1
Standard
  0
DICTIONARYVAR
  5
687
102
{ACAD_REACTORS
330
685
102
}
330
685
100
DictionaryVariables
280
     0
  1
2
  0
DICTIONARY
  5
6BB
330
5C
100
AcDbDictionary
280
     1
281
     1
  3
ACAD_XREC_ROUNDTRIP
360
6BC
  0
DICTIONARY
  5
6B8
330
5A
100
AcDbDictionary
280
     1
281
     1
  3
ACAD_ROUNDTRIP_2008_TABLESTYLE_CELLSTYLEMAP
360
6B9
  0
DICTIONARY
  5
690
330
2F
100
AcDbDictionary
280
     1
281
     1
  3
ACAD_XREC_ROUNDTRIP
360
691
  0
DICTIONARY
  5
696
330
32
100
AcDbDictionary
280
     1
281
     1
  3
ACAD_XREC_ROUNDTRIP
360
697
  0
DICTIONARY
  5
69E
330
36
100
AcDbDictionary
280
     1
281
     1
  3
ACAD_XREC_ROUNDTRIP
360
69F
  0
DICTIONARY
  5
6A6
330
3A
100
AcDbDictionary
280
     1
281
     1
  3
ACAD_XREC_ROUNDTRIP
360
6A7
  0
DICTIONARY
  5
69A
330
34
100
AcDbDictionary
280
     1
281
     1
  3
ACAD_XREC_ROUNDTRIP
360
69B
  0
DICTIONARY
  5
69C
330
35
100
AcDbDictionary
280
     1
281
     1
  3
ACAD_XREC_ROUNDTRIP
360
69D
  0
DICTIONARY
  5
6AC
330
3D
100
AcDbDictionary
280
     1
281
     1
  3
ACAD_XREC_ROUNDTRIP
360
6AD
  0
DICTIONARY
  5
6A4
330
39
100
AcDbDictionary
280
     1
281
     1
  3
ACAD_XREC_ROUNDTRIP
360
6A5
  0
DICTIONARY
  5
688
330
2B
100
AcDbDictionary
280
     1
281
     1
  3
ACAD_XREC_ROUNDTRIP
360
689
  0
DICTIONARY
  5
68A
330
2C
100
AcDbDictionary
280
     1
281
     1
  3
ACAD_XREC_ROUNDTRIP
360
68B
  0
DICTIONARY
  5
68C
330
2D
100
AcDbDictionary
280
     1
281
     1
  3
ACAD_XREC_ROUNDTRIP
360
68D
  0
DICTIONARY
  5
68E
330
2E
100
AcDbDictionary
280
     1
281
     1
  3
ACAD_XREC_ROUNDTRIP
360
68F
  0
DICTIONARY
  5
694
330
31
100
AcDbDictionary
280
     1
281
     1
  3
ACAD_XREC_ROUNDTRIP
360
695
  0
DICTIONARY
  5
6A8
330
3B
100
AcDbDictionary
280
     1
281
     1
  3
ACAD_XREC_ROUNDTRIP
360
6A9
  0
DICTIONARY
  5
6A2
330
38
100
AcDbDictionary
280
     1
281
     1
  3
ACAD_XREC_ROUNDTRIP
360
6A3
  0
DICTIONARY
  5
6AA
330
3C
100
AcDbDictionary
280
     1
281
     1
  3
ACAD_XREC_ROUNDTRIP
360
6AB
  0
DICTIONARY
  5
698
330
33
100
AcDbDictionary
280
     1
281
     1
  3
ACAD_XREC_ROUNDTRIP
360
699
  0
DICTIONARY
  5
6B6
330
42
100
AcDbDictionary
280
     1
281
     1
  3
ACAD_XREC_ROUNDTRIP
360
6B7
  0
DICTIONARY
  5
6B4
330
41
100
AcDbDictionary
280
     1
281
     1
  3
ACAD_XREC_ROUNDTRIP
360
6B5
  0
DICTIONARY
  5
6AE
330
3E
100
AcDbDictionary
280
     1
281
     1
  3
ACAD_XREC_ROUNDTRIP
360
6AF
  0
DICTIONARY
  5
6B0
330
3F
100
AcDbDictionary
280
     1
281
     1
  3
ACAD_XREC_ROUNDTRIP
360
6B1
  0
DICTIONARY
  5
6A0
330
37
100
AcDbDictionary
280
     1
281
     1
  3
ACAD_XREC_ROUNDTRIP
360
6A1
  0
DICTIONARY
  5
692
330
30
100
AcDbDictionary
280
     1
281
     1
  3
ACAD_XREC_ROUNDTRIP
360
693
  0
DICTIONARY
  5
6B2
330
40
100
AcDbDictionary
280
     1
281
     1
  3
ACAD_XREC_ROUNDTRIP
360
6B3
  0
XRECORD
  5
6BC
102
{ACAD_REACTORS
330
6BB
102
}
330
6BB
100
AcDbXrecord
280
     1
102
ACAD_ROUNDTRIP_2010_MLEADER_STYLE
  0
CELLSTYLEMAP
  5
6B9
102
{ACAD_REACTORS
330
6B8
102
}
330
6B8
100
AcDbCellStyleMap
 90
        3
300
CELLSTYLE
  1
TABLEFORMAT_BEGIN
 90
        5
170
     1
 91
        0
 92
    32768
 62
   257
 93
        1
300
CONTENTFORMAT
  1
CONTENTFORMAT_BEGIN
 90
        0
 91
        0
 92
        4
 93
        0
300

 40
0.0
140
1.0
 94
        5
 62
     0
340
11
144
0.25
309
CONTENTFORMAT_END
171
     1
301
MARGIN
  1
CELLMARGIN_BEGIN
 40
0.06
 40
0.06
 40
0.06
 40
0.06
 40
0.06
 40
0.06
309
CELLMARGIN_END
 94
        6
 95
        1
302
GRIDFORMAT
  1
GRIDFORMAT_BEGIN
 90
        0
 91
        1
 62
     0
 92
       -2
340
14
 93
        0
 40
0.045
309
GRIDFORMAT_END
 95
        2
302
GRIDFORMAT
  1
GRIDFORMAT_BEGIN
 90
        0
 91
        1
 62
     0
 92
       -2
340
14
 93
        0
 40
0.045
309
GRIDFORMAT_END
 95
        4
302
GRIDFORMAT
  1
GRIDFORMAT_BEGIN
 90
        0
 91
        1
 62
     0
 92
       -2
340
14
 93
        0
 40
0.045
309
GRIDFORMAT_END
 95
        8
302
GRIDFORMAT
  1
GRIDFORMAT_BEGIN
 90
        0
 91
        1
 62
     0
 92
       -2
340
14
 93
        0
 40
0.045
309
GRIDFORMAT_END
 95
       16
302
GRIDFORMAT
  1
GRIDFORMAT_BEGIN
 90
        0
 91
        1
 62
     0
 92
       -2
340
14
 93
        0
 40
0.045
309
GRIDFORMAT_END
 95
       32
302
GRIDFORMAT
  1
GRIDFORMAT_BEGIN
 90
        0
 91
        1
 62
     0
 92
       -2
340
14
 93
        0
 40
0.045
309
GRIDFORMAT_END
309
TABLEFORMAT_END
  1
CELLSTYLE_BEGIN
 90
        1
 91
        1
300
_TITLE
309
CELLSTYLE_END
300
CELLSTYLE
  1
TABLEFORMAT_BEGIN
 90
        5
170
     1
 91
        0
 92
        0
 62
   257
 93
        1
300
CONTENTFORMAT
  1
CONTENTFORMAT_BEGIN
 90
        0
 91
        0
 92
        4
 93
        0
300

 40
0.0
140
1.0
 94
        5
 62
     0
340
11
144
0.18
309
CONTENTFORMAT_END
171
     1
301
MARGIN
  1
CELLMARGIN_BEGIN
 40
0.06
 40
0.06
 40
0.06
 40
0.06
 40
0.06
 40
0.06
309
CELLMARGIN_END
 94
        6
 95
        1
302
GRIDFORMAT
  1
GRIDFORMAT_BEGIN
 90
        0
 91
        1
 62
     0
 92
       -2
340
14
 93
        0
 40
0.045
309
GRIDFORMAT_END
 95
        2
302
GRIDFORMAT
  1
GRIDFORMAT_BEGIN
 90
        0
 91
        1
 62
     0
 92
       -2
340
14
 93
        0
 40
0.045
309
GRIDFORMAT_END
 95
        4
302
GRIDFORMAT
  1
GRIDFORMAT_BEGIN
 90
        0
 91
        1
 62
     0
 92
       -2
340
14
 93
        0
 40
0.045
309
GRIDFORMAT_END
 95
        8
302
GRIDFORMAT
  1
GRIDFORMAT_BEGIN
 90
        0
 91
        1
 62
     0
 92
       -2
340
14
 93
        0
 40
0.045
309
GRIDFORMAT_END
 95
       16
302
GRIDFORMAT
  1
GRIDFORMAT_BEGIN
 90
        0
 91
        1
 62
     0
 92
       -2
340
14
 93
        0
 40
0.045
309
GRIDFORMAT_END
 95
       32
302
GRIDFORMAT
  1
GRIDFORMAT_BEGIN
 90
        0
 91
        1
 62
     0
 92
       -2
340
14
 93
        0
 40
0.045
309
GRIDFORMAT_END
309
TABLEFORMAT_END
  1
CELLSTYLE_BEGIN
 90
        2
 91
        1
300
_HEADER
309
CELLSTYLE_END
300
CELLSTYLE
  1
TABLEFORMAT_BEGIN
 90
        5
170
     1
 91
        0
 92
        0
 62
   257
 93
        1
300
CONTENTFORMAT
  1
CONTENTFORMAT_BEGIN
 90
        0
 91
        0
 92
        4
 93
        0
300

 40
0.0
140
1.0
 94
        2
 62
     0
340
11
144
0.18
309
CONTENTFORMAT_END
171
     1
301
MARGIN
  1
CELLMARGIN_BEGIN
 40
0.06
 40
0.06
 40
0.06
 40
0.06
 40
0.06
 40
0.06
309
CELLMARGIN_END
 94
        6
 95
        1
302
GRIDFORMAT
  1
GRIDFORMAT_BEGIN
 90
        0
 91
        1
 62
     0
 92
       -2
340
14
 93
        0
 40
0.045
309
GRIDFORMAT_END
 95
        2
302
GRIDFORMAT
  1
GRIDFORMAT_BEGIN
 90
        0
 91
        1
 62
     0
 92
       -2
340
14
 93
        0
 40
0.045
309
GRIDFORMAT_END
 95
        4
302
GRIDFORMAT
  1
GRIDFORMAT_BEGIN
 90
        0
 91
        1
 62
     0
 92
       -2
340
14
 93
        0
 40
0.045
309
GRIDFORMAT_END
 95
        8
302
GRIDFORMAT
  1
GRIDFORMAT_BEGIN
 90
        0
 91
        1
 62
     0
 92
       -2
340
14
 93
        0
 40
0.045
309
GRIDFORMAT_END
 95
       16
302
GRIDFORMAT
  1
GRIDFORMAT_BEGIN
 90
        0
 91
        1
 62
     0
 92
       -2
340
14
 93
        0
 40
0.045
309
GRIDFORMAT_END
 95
       32
302
GRIDFORMAT
  1
GRIDFORMAT_BEGIN
 90
        0
 91
        1
 62
     0
 92
       -2
340
14
 93
        0
 40
0.045
309
GRIDFORMAT_END
309
TABLEFORMAT_END
  1
CELLSTYLE_BEGIN
 90
        3
 91
        2
300
_DATA
309
CELLSTYLE_END
  0
XRECORD
  5
691
102
{ACAD_REACTORS
330
690
102
}
330
690
100
AcDbXrecord
280
     1
102
RTVSPropertyOp0
 70
     1
102
RTVSPropertyOp1
 70
     1
102
RTVSPropertyOp2
 70
     1
102
RTVSPropertyOp3
 70
     1
102
RTVSPropertyOp4
 70
     1
102
RTVSPropertyOp5
 70
     1
102
RTVSPropertyOp6
 70
     1
102
RTVSPropertyOp7
 70
     1
102
RTVSPropertyOp8
 70
     1
102
RTVSPropertyOp9
 70
     1
102
RTVSPropertyOp10
 70
     1
102
RTVSPropertyOp11
 70
     1
102
RTVSPropertyOp12
 70
     1
102
RTVSPropertyOp13
 70
     1
102
RTVSPropertyOp14
 70
     1
102
RTVSPropertyOp15
 70
     1
102
RTVSPropertyOp16
 70
     1
102
RTVSPropertyOp17
 70
     1
102
RTVSPropertyOp18
 70
     1
102
RTVSPropertyOp19
 70
     1
102
RTVSPropertyOp20
 70
     1
102
RTVSPropertyOp21
 70
     1
102
RTVSPropertyOp22
 70
     1
102
RTVSPropertyOp23
 70
     1
102
RTVSPropertyOp24
 70
     1
102
RTVSPropertyOp25
 70
     1
102
RTVSPropertyOp26
 70
     1
102
RTVSPropertyOp27
 70
     1
102
RTVSPropertyOp28
 70
     1
102
RTVSPropertyOp29
 70
     1
102
RTVSPropertyOp30
 70
     1
102
RTVSPropertyOp31
 70
     1
102
RTVSPropertyOp32
 70
     1
102
RTVSPropertyOp33
 70
     1
102
RTVSPropertyOp34
 70
     1
102
RTVSPropertyOp35
 70
     1
102
RTVSPropertyOp36
 70
     1
102
RTVSPropertyOp37
 70
     1
102
RTVSPropertyOp38
 70
     1
102
RTVSPropertyOp39
 70
     1
102
RTVSPropertyOp40
 70
     1
102
RTVSPropertyOp41
 70
     1
102
RTVSPropertyOp42
 70
     1
102
RTVSPropertyOp43
 70
     1
102
RTVSPropertyOp44
 70
     1
102
RTVSPropertyOp45
 70
     1
102
RTVSPropertyOp46
 70
     1
102
RTVSPropertyOp47
 70
     1
102
RTVSPropertyOp48
 70
     1
102
RTVSPropertyOp49
 70
     1
102
RTVSPropertyOp50
 70
     1
102
RTVSPropertyOp51
 70
     0
102
RTVSPropertyOp52
 70
     0
102
RTVSPropertyOp53
 70
     1
102
RTVSPropertyOp54
 70
     1
102
RTVSPropertyOp55
 70
     1
102
RTVSPropertyOp56
 70
     1
102
RTVSPropertyOp57
 70
     1
102
RTVSPost2010Prop28
280
     1
102
RTVSPost2010PropOp28
 70
     1
102
RTVSPost2010Prop29
280
     1
102
RTVSPost2010PropOp29
 70
     1
102
RTVSPost2010Prop30
280
     0
102
RTVSPost2010PropOp30
 70
     1
102
RTVSPost2010Prop31
280
     0
102
RTVSPost2010PropOp31
 70
     1
102
RTVSPost2010Prop32
280
     0
102
RTVSPost2010PropOp32
 70
     1
102
RTVSPost2010Prop33
280
     0
102
RTVSPost2010PropOp33
 70
     1
102
RTVSPost2010Prop34
280
     0
102
RTVSPost2010PropOp34
 70
     1
102
RTVSPost2010Prop35
280
     0
102
RTVSPost2010PropOp35
 70
     1
102
RTVSPost2010Prop36
280
     0
102
RTVSPost2010PropOp36
 70
     1
102
RTVSPost2010Prop37
 90
       50
102
RTVSPost2010PropOp37
 70
     1
102
RTVSPost2010Prop38
140
0.0
102
RTVSPost2010PropOp38
 70
     1
102
RTVSPost2010Prop39
140
1.0
102
RTVSPost2010PropOp39
 70
     1
102
RTVSPost2010Prop40
 90
        0
102
RTVSPost2010PropOp40
 70
     1
102
RTVSPost2010Prop41ColorIndex
 90
       18
102
RTVSPost2010Prop41ColorRGB
 90
        0
102
RTVSPost2010PropOp41
 70
     1
102
RTVSPost2010Prop42
 90
       50
102
RTVSPost2010PropOp42
 70
     1
102
RTVSPost2010Prop43
 90
        3
102
RTVSPost2010PropOp43
 70
     1
102
RTVSPost2010Prop44ColorIndex
 90
        5
102
RTVSPost2010Prop44ColorRGB
 90
      255
102
RTVSPost2010PropOp44
 70
     1
102
RTVSPost2010Prop45
280
     0
102
RTVSPost2010PropOp45
 70
     1
102
RTVSPost2010Prop46
 90
       50
102
RTVSPost2010PropOp46
 70
     1
102
RTVSPost2010Prop47
 90
       50
102
RTVSPost2010PropOp47
 70
     1
102
RTVSPost2010Prop48
 90
       50
102
RTVSPost2010PropOp48
 70
     1
102
RTVSPost2010Prop49
280
     0
102
RTVSPost2010PropOp49
 70
     1
102
RTVSPost2010Prop50
 90
       50
102
RTVSPost2010PropOp50
 70
     1
102
RTVSPost2010Prop51ColorIndex
 90
      256
102
RTVSPost2010Prop51ColorRGB
 90
-16777216
102
RTVSPost2010PropOp51
 70
     0
102
RTVSPost2010Prop52
140
1.0
102
RTVSPost2010PropOp52
 70
     0
102
RTVSPost2010Prop53
 90
        2
102
RTVSPost2010PropOp53
 70
     1
102
RTVSPost2010Prop54
  1
strokes_ogs.tif
102
RTVSPost2010PropOp54
 70
     1
102
RTVSPost2010Prop55
280
     0
102
RTVSPost2010PropOp55
 70
     1
102
RTVSPost2010Prop56
140
1.0
102
RTVSPost2010PropOp56
 70
     1
102
RTVSPost2010Prop57
140
1.0
102
RTVSPost2010PropOp57
 70
     1
  0
XRECORD
  5
697
102
{ACAD_REACTORS
330
696
102
}
330
696
100
AcDbXrecord
280
     1
102
RTVSPropertyOp0
 70
     1
102
RTVSPropertyOp1
 70
     1
102
RTVSPropertyOp2
 70
     1
102
RTVSPropertyOp3
 70
     1
102
RTVSPropertyOp4
 70
     1
102
RTVSPropertyOp5
 70
     1
102
RTVSPropertyOp6
 70
     1
102
RTVSPropertyOp7
 70
     1
102
RTVSPropertyOp8
 70
     1
102
RTVSPropertyOp9
 70
     1
102
RTVSPropertyOp10
 70
     1
102
RTVSPropertyOp11
 70
     1
102
RTVSPropertyOp12
 70
     1
102
RTVSPropertyOp13
 70
     1
102
RTVSPropertyOp14
 70
     1
102
RTVSPropertyOp15
 70
     1
102
RTVSPropertyOp16
 70
     1
102
RTVSPropertyOp17
 70
     1
102
RTVSPropertyOp18
 70
     1
102
RTVSPropertyOp19
 70
     1
102
RTVSPropertyOp20
 70
     1
102
RTVSPropertyOp21
 70
     1
102
RTVSPropertyOp22
 70
     1
102
RTVSPropertyOp23
 70
     1
102
RTVSPropertyOp24
 70
     1
102
RTVSPropertyOp25
 70
     1
102
RTVSPropertyOp26
 70
     1
102
RTVSPropertyOp27
 70
     1
102
RTVSPropertyOp28
 70
     1
102
RTVSPropertyOp29
 70
     1
102
RTVSPropertyOp30
 70
     1
102
RTVSPropertyOp31
 70
     1
102
RTVSPropertyOp32
 70
     1
102
RTVSPropertyOp33
 70
     1
102
RTVSPropertyOp34
 70
     1
102
RTVSPropertyOp35
 70
     1
102
RTVSPropertyOp36
 70
     1
102
RTVSPropertyOp37
 70
     1
102
RTVSPropertyOp38
 70
     1
102
RTVSPropertyOp39
 70
     1
102
RTVSPropertyOp40
 70
     1
102
RTVSPropertyOp41
 70
     1
102
RTVSPropertyOp42
 70
     1
102
RTVSPropertyOp43
 70
     1
102
RTVSPropertyOp44
 70
     1
102
RTVSPropertyOp45
 70
     1
102
RTVSPropertyOp46
 70
     1
102
RTVSPropertyOp47
 70
     1
102
RTVSPropertyOp48
 70
     1
102
RTVSPropertyOp49
 70
     1
102
RTVSPropertyOp50
 70
     1
102
RTVSPropertyOp51
 70
     0
102
RTVSPropertyOp52
 70
     0
102
RTVSPropertyOp53
 70
     1
102
RTVSPropertyOp54
 70
     1
102
RTVSPropertyOp55
 70
     1
102
RTVSPropertyOp56
 70
     1
102
RTVSPropertyOp57
 70
     1
102
RTVSPost2010Prop28
280
     0
102
RTVSPost2010PropOp28
 70
     1
102
RTVSPost2010Prop29
280
     1
102
RTVSPost2010PropOp29
 70
     1
102
RTVSPost2010Prop30
280
     1
102
RTVSPost2010PropOp30
 70
     1
102
RTVSPost2010Prop31
280
     0
102
RTVSPost2010PropOp31
 70
     1
102
RTVSPost2010Prop32
280
     0
102
RTVSPost2010PropOp32
 70
     1
102
RTVSPost2010Prop33
280
     0
102
RTVSPost2010PropOp33
 70
     1
102
RTVSPost2010Prop34
280
     0
102
RTVSPost2010PropOp34
 70
     1
102
RTVSPost2010Prop35
280
     0
102
RTVSPost2010PropOp35
 70
     1
102
RTVSPost2010Prop36
280
     0
102
RTVSPost2010PropOp36
 70
     1
102
RTVSPost2010Prop37
 90
       50
102
RTVSPost2010PropOp37
 70
     1
102
RTVSPost2010Prop38
140
0.0
102
RTVSPost2010PropOp38
 70
     1
102
RTVSPost2010Prop39
140
1.0
102
RTVSPost2010PropOp39
 70
     1
102
RTVSPost2010Prop40
 90
        0
102
RTVSPost2010PropOp40
 70
     1
102
RTVSPost2010Prop41ColorIndex
 90
       18
102
RTVSPost2010Prop41ColorRGB
 90
        0
102
RTVSPost2010PropOp41
 70
     1
102
RTVSPost2010Prop42
 90
       50
102
RTVSPost2010PropOp42
 70
     1
102
RTVSPost2010Prop43
 90
        3
102
RTVSPost2010PropOp43
 70
     1
102
RTVSPost2010Prop44ColorIndex
 90
        5
102
RTVSPost2010Prop44ColorRGB
 90
      255
102
RTVSPost2010PropOp44
 70
     1
102
RTVSPost2010Prop45
280
     0
102
RTVSPost2010PropOp45
 70
     1
102
RTVSPost2010Prop46
 90
       50
102
RTVSPost2010PropOp46
 70
     1
102
RTVSPost2010Prop47
 90
       50
102
RTVSPost2010PropOp47
 70
     1
102
RTVSPost2010Prop48
 90
       50
102
RTVSPost2010PropOp48
 70
     1
102
RTVSPost2010Prop49
280
     0
102
RTVSPost2010PropOp49
 70
     1
102
RTVSPost2010Prop50
 90
       50
102
RTVSPost2010PropOp50
 70
     1
102
RTVSPost2010Prop51ColorIndex
 90
      256
102
RTVSPost2010Prop51ColorRGB
 90
-16777216
102
RTVSPost2010PropOp51
 70
     0
102
RTVSPost2010Prop52
140
1.0
102
RTVSPost2010PropOp52
 70
     0
102
RTVSPost2010Prop53
 90
        2
102
RTVSPost2010PropOp53
 70
     1
102
RTVSPost2010Prop54
  1
strokes_ogs.tif
102
RTVSPost2010PropOp54
 70
     1
102
RTVSPost2010Prop55
280
     0
102
RTVSPost2010PropOp55
 70
     1
102
RTVSPost2010Prop56
140
1.0
102
RTVSPost2010PropOp56
 70
     1
102
RTVSPost2010Prop57
140
1.0
102
RTVSPost2010PropOp57
 70
     1
  0
XRECORD
  5
69F
102
{ACAD_REACTORS
330
69E
102
}
330
69E
100
AcDbXrecord
280
     1
102
RTVSPropertyOp0
 70
     1
102
RTVSPropertyOp1
 70
     1
102
RTVSPropertyOp2
 70
     1
102
RTVSPropertyOp3
 70
     1
102
RTVSPropertyOp4
 70
     1
102
RTVSPropertyOp5
 70
     1
102
RTVSPropertyOp6
 70
     1
102
RTVSPropertyOp7
 70
     1
102
RTVSPropertyOp8
 70
     1
102
RTVSPropertyOp9
 70
     1
102
RTVSPropertyOp10
 70
     1
102
RTVSPropertyOp11
 70
     1
102
RTVSPropertyOp12
 70
     1
102
RTVSPropertyOp13
 70
     1
102
RTVSPropertyOp14
 70
     1
102
RTVSPropertyOp15
 70
     1
102
RTVSPropertyOp16
 70
     1
102
RTVSPropertyOp17
 70
     1
102
RTVSPropertyOp18
 70
     1
102
RTVSPropertyOp19
 70
     1
102
RTVSPropertyOp20
 70
     1
102
RTVSPropertyOp21
 70
     1
102
RTVSPropertyOp22
 70
     1
102
RTVSPropertyOp23
 70
     1
102
RTVSPropertyOp24
 70
     1
102
RTVSPropertyOp25
 70
     1
102
RTVSPropertyOp26
 70
     1
102
RTVSPropertyOp27
 70
     1
102
RTVSPropertyOp28
 70
     1
102
RTVSPropertyOp29
 70
     1
102
RTVSPropertyOp30
 70
     1
102
RTVSPropertyOp31
 70
     1
102
RTVSPropertyOp32
 70
     1
102
RTVSPropertyOp33
 70
     1
102
RTVSPropertyOp34
 70
     1
102
RTVSPropertyOp35
 70
     1
102
RTVSPropertyOp36
 70
     1
102
RTVSPropertyOp37
 70
     1
102
RTVSPropertyOp38
 70
     1
102
RTVSPropertyOp39
 70
     1
102
RTVSPropertyOp40
 70
     1
102
RTVSPropertyOp41
 70
     1
102
RTVSPropertyOp42
 70
     1
102
RTVSPropertyOp43
 70
     1
102
RTVSPropertyOp44
 70
     1
102
RTVSPropertyOp45
 70
     1
102
RTVSPropertyOp46
 70
     1
102
RTVSPropertyOp47
 70
     1
102
RTVSPropertyOp48
 70
     1
102
RTVSPropertyOp49
 70
     1
102
RTVSPropertyOp50
 70
     1
102
RTVSPropertyOp51
 70
     0
102
RTVSPropertyOp52
 70
     0
102
RTVSPropertyOp53
 70
     1
102
RTVSPropertyOp54
 70
     1
102
RTVSPropertyOp55
 70
     1
102
RTVSPropertyOp56
 70
     1
102
RTVSPropertyOp57
 70
     1
102
RTVSPost2010Prop28
280
     0
102
RTVSPost2010PropOp28
 70
     1
102
RTVSPost2010Prop29
280
     1
102
RTVSPost2010PropOp29
 70
     1
102
RTVSPost2010Prop30
280
     1
102
RTVSPost2010PropOp30
 70
     1
102
RTVSPost2010Prop31
280
     0
102
RTVSPost2010PropOp31
 70
     1
102
RTVSPost2010Prop32
280
     0
102
RTVSPost2010PropOp32
 70
     1
102
RTVSPost2010Prop33
280
     0
102
RTVSPost2010PropOp33
 70
     1
102
RTVSPost2010Prop34
280
     0
102
RTVSPost2010PropOp34
 70
     1
102
RTVSPost2010Prop35
280
     0
102
RTVSPost2010PropOp35
 70
     1
102
RTVSPost2010Prop36
280
     0
102
RTVSPost2010PropOp36
 70
     1
102
RTVSPost2010Prop37
 90
       50
102
RTVSPost2010PropOp37
 70
     1
102
RTVSPost2010Prop38
140
0.0
102
RTVSPost2010PropOp38
 70
     1
102
RTVSPost2010Prop39
140
1.0
102
RTVSPost2010PropOp39
 70
     1
102
RTVSPost2010Prop40
 90
        0
102
RTVSPost2010PropOp40
 70
     1
102
RTVSPost2010Prop41ColorIndex
 90
       18
102
RTVSPost2010Prop41ColorRGB
 90
        0
102
RTVSPost2010PropOp41
 70
     1
102
RTVSPost2010Prop42
 90
       50
102
RTVSPost2010PropOp42
 70
     1
102
RTVSPost2010Prop43
 90
        3
102
RTVSPost2010PropOp43
 70
     1
102
RTVSPost2010Prop44ColorIndex
 90
        5
102
RTVSPost2010Prop44ColorRGB
 90
      255
102
RTVSPost2010PropOp44
 70
     1
102
RTVSPost2010Prop45
280
     0
102
RTVSPost2010PropOp45
 70
     1
102
RTVSPost2010Prop46
 90
       50
102
RTVSPost2010PropOp46
 70
     1
102
RTVSPost2010Prop47
 90
       50
102
RTVSPost2010PropOp47
 70
     1
102
RTVSPost2010Prop48
 90
       50
102
RTVSPost2010PropOp48
 70
     1
102
RTVSPost2010Prop49
280
     0
102
RTVSPost2010PropOp49
 70
     1
102
RTVSPost2010Prop50
 90
       50
102
RTVSPost2010PropOp50
 70
     1
102
RTVSPost2010Prop51ColorIndex
 90
      256
102
RTVSPost2010Prop51ColorRGB
 90
-16777216
102
RTVSPost2010PropOp51
 70
     0
102
RTVSPost2010Prop52
140
1.0
102
RTVSPost2010PropOp52
 70
     0
102
RTVSPost2010Prop53
 90
        2
102
RTVSPost2010PropOp53
 70
     1
102
RTVSPost2010Prop54
  1
strokes_ogs.tif
102
RTVSPost2010PropOp54
 70
     1
102
RTVSPost2010Prop55
280
     0
102
RTVSPost2010PropOp55
 70
     1
102
RTVSPost2010Prop56
140
1.0
102
RTVSPost2010PropOp56
 70
     1
102
RTVSPost2010Prop57
140
1.0
102
RTVSPost2010PropOp57
 70
     1
  0
XRECORD
  5
6A7
102
{ACAD_REACTORS
330
6A6
102
}
330
6A6
100
AcDbXrecord
280
     1
102
RTVSPropertyOp0
 70
     1
102
RTVSPropertyOp1
 70
     1
102
RTVSPropertyOp2
 70
     1
102
RTVSPropertyOp3
 70
     1
102
RTVSPropertyOp4
 70
     1
102
RTVSPropertyOp5
 70
     1
102
RTVSPropertyOp6
 70
     1
102
RTVSPropertyOp7
 70
     1
102
RTVSPropertyOp8
 70
     1
102
RTVSPropertyOp9
 70
     1
102
RTVSPropertyOp10
 70
     1
102
RTVSPropertyOp11
 70
     1
102
RTVSPropertyOp12
 70
     1
102
RTVSPropertyOp13
 70
     1
102
RTVSPropertyOp14
 70
     1
102
RTVSPropertyOp15
 70
     1
102
RTVSPropertyOp16
 70
     1
102
RTVSPropertyOp17
 70
     1
102
RTVSPropertyOp18
 70
     1
102
RTVSPropertyOp19
 70
     1
102
RTVSPropertyOp20
 70
     1
102
RTVSPropertyOp21
 70
     1
102
RTVSPropertyOp22
 70
     1
102
RTVSPropertyOp23
 70
     1
102
RTVSPropertyOp24
 70
     1
102
RTVSPropertyOp25
 70
     1
102
RTVSPropertyOp26
 70
     1
102
RTVSPropertyOp27
 70
     1
102
RTVSPropertyOp28
 70
     1
102
RTVSPropertyOp29
 70
     1
102
RTVSPropertyOp30
 70
     1
102
RTVSPropertyOp31
 70
     1
102
RTVSPropertyOp32
 70
     1
102
RTVSPropertyOp33
 70
     1
102
RTVSPropertyOp34
 70
     1
102
RTVSPropertyOp35
 70
     1
102
RTVSPropertyOp36
 70
     1
102
RTVSPropertyOp37
 70
     1
102
RTVSPropertyOp38
 70
     1
102
RTVSPropertyOp39
 70
     1
102
RTVSPropertyOp40
 70
     1
102
RTVSPropertyOp41
 70
     1
102
RTVSPropertyOp42
 70
     1
102
RTVSPropertyOp43
 70
     1
102
RTVSPropertyOp44
 70
     1
102
RTVSPropertyOp45
 70
     1
102
RTVSPropertyOp46
 70
     1
102
RTVSPropertyOp47
 70
     1
102
RTVSPropertyOp48
 70
     1
102
RTVSPropertyOp49
 70
     1
102
RTVSPropertyOp50
 70
     1
102
RTVSPropertyOp51
 70
     0
102
RTVSPropertyOp52
 70
     0
102
RTVSPropertyOp53
 70
     1
102
RTVSPropertyOp54
 70
     1
102
RTVSPropertyOp55
 70
     1
102
RTVSPropertyOp56
 70
     1
102
RTVSPropertyOp57
 70
     1
102
RTVSPost2010Prop28
280
     0
102
RTVSPost2010PropOp28
 70
     1
102
RTVSPost2010Prop29
280
     1
102
RTVSPost2010PropOp29
 70
     1
102
RTVSPost2010Prop30
280
     1
102
RTVSPost2010PropOp30
 70
     1
102
RTVSPost2010Prop31
280
     0
102
RTVSPost2010PropOp31
 70
     1
102
RTVSPost2010Prop32
280
     0
102
RTVSPost2010PropOp32
 70
     1
102
RTVSPost2010Prop33
280
     0
102
RTVSPost2010PropOp33
 70
     1
102
RTVSPost2010Prop34
280
     0
102
RTVSPost2010PropOp34
 70
     1
102
RTVSPost2010Prop35
280
     0
102
RTVSPost2010PropOp35
 70
     1
102
RTVSPost2010Prop36
280
     0
102
RTVSPost2010PropOp36
 70
     1
102
RTVSPost2010Prop37
 90
       50
102
RTVSPost2010PropOp37
 70
     1
102
RTVSPost2010Prop38
140
0.0
102
RTVSPost2010PropOp38
 70
     1
102
RTVSPost2010Prop39
140
1.0
102
RTVSPost2010PropOp39
 70
     1
102
RTVSPost2010Prop40
 90
        0
102
RTVSPost2010PropOp40
 70
     1
102
RTVSPost2010Prop41ColorIndex
 90
       18
102
RTVSPost2010Prop41ColorRGB
 90
        0
102
RTVSPost2010PropOp41
 70
     1
102
RTVSPost2010Prop42
 90
       50
102
RTVSPost2010PropOp42
 70
     1
102
RTVSPost2010Prop43
 90
        3
102
RTVSPost2010PropOp43
 70
     1
102
RTVSPost2010Prop44ColorIndex
 90
        5
102
RTVSPost2010Prop44ColorRGB
 90
      255
102
RTVSPost2010PropOp44
 70
     1
102
RTVSPost2010Prop45
280
     0
102
RTVSPost2010PropOp45
 70
     1
102
RTVSPost2010Prop46
 90
       50
102
RTVSPost2010PropOp46
 70
     1
102
RTVSPost2010Prop47
 90
       50
102
RTVSPost2010PropOp47
 70
     1
102
RTVSPost2010Prop48
 90
       50
102
RTVSPost2010PropOp48
 70
     1
102
RTVSPost2010Prop49
280
     0
102
RTVSPost2010PropOp49
 70
     1
102
RTVSPost2010Prop50
 90
       50
102
RTVSPost2010PropOp50
 70
     1
102
RTVSPost2010Prop51ColorIndex
 90
      256
102
RTVSPost2010Prop51ColorRGB
 90
-16777216
102
RTVSPost2010PropOp51
 70
     0
102
RTVSPost2010Prop52
140
1.0
102
RTVSPost2010PropOp52
 70
     0
102
RTVSPost2010Prop53
 90
        2
102
RTVSPost2010PropOp53
 70
     1
102
RTVSPost2010Prop54
  1
strokes_ogs.tif
102
RTVSPost2010PropOp54
 70
     1
102
RTVSPost2010Prop55
280
     0
102
RTVSPost2010PropOp55
 70
     1
102
RTVSPost2010Prop56
140
1.0
102
RTVSPost2010PropOp56
 70
     1
102
RTVSPost2010Prop57
140
1.0
102
RTVSPost2010PropOp57
 70
     1
  0
XRECORD
  5
69B
102
{ACAD_REACTORS
330
69A
102
}
330
69A
100
AcDbXrecord
280
     1
102
RTVSPropertyOp0
 70
     1
102
RTVSPropertyOp1
 70
     1
102
RTVSPropertyOp2
 70
     1
102
RTVSPropertyOp3
 70
     1
102
RTVSPropertyOp4
 70
     1
102
RTVSPropertyOp5
 70
     1
102
RTVSPropertyOp6
 70
     1
102
RTVSPropertyOp7
 70
     1
102
RTVSPropertyOp8
 70
     1
102
RTVSPropertyOp9
 70
     1
102
RTVSPropertyOp10
 70
     1
102
RTVSPropertyOp11
 70
     1
102
RTVSPropertyOp12
 70
     1
102
RTVSPropertyOp13
 70
     1
102
RTVSPropertyOp14
 70
     1
102
RTVSPropertyOp15
 70
     1
102
RTVSPropertyOp16
 70
     1
102
RTVSPropertyOp17
 70
     1
102
RTVSPropertyOp18
 70
     1
102
RTVSPropertyOp19
 70
     1
102
RTVSPropertyOp20
 70
     1
102
RTVSPropertyOp21
 70
     1
102
RTVSPropertyOp22
 70
     1
102
RTVSPropertyOp23
 70
     1
102
RTVSPropertyOp24
 70
     1
102
RTVSPropertyOp25
 70
     1
102
RTVSPropertyOp26
 70
     1
102
RTVSPropertyOp27
 70
     1
102
RTVSPropertyOp28
 70
     1
102
RTVSPropertyOp29
 70
     1
102
RTVSPropertyOp30
 70
     1
102
RTVSPropertyOp31
 70
     1
102
RTVSPropertyOp32
 70
     1
102
RTVSPropertyOp33
 70
     1
102
RTVSPropertyOp34
 70
     1
102
RTVSPropertyOp35
 70
     1
102
RTVSPropertyOp36
 70
     1
102
RTVSPropertyOp37
 70
     1
102
RTVSPropertyOp38
 70
     1
102
RTVSPropertyOp39
 70
     1
102
RTVSPropertyOp40
 70
     1
102
RTVSPropertyOp41
 70
     1
102
RTVSPropertyOp42
 70
     1
102
RTVSPropertyOp43
 70
     1
102
RTVSPropertyOp44
 70
     1
102
RTVSPropertyOp45
 70
     1
102
RTVSPropertyOp46
 70
     1
102
RTVSPropertyOp47
 70
     1
102
RTVSPropertyOp48
 70
     1
102
RTVSPropertyOp49
 70
     1
102
RTVSPropertyOp50
 70
     1
102
RTVSPropertyOp51
 70
     0
102
RTVSPropertyOp52
 70
     0
102
RTVSPropertyOp53
 70
     1
102
RTVSPropertyOp54
 70
     1
102
RTVSPropertyOp55
 70
     1
102
RTVSPropertyOp56
 70
     1
102
RTVSPropertyOp57
 70
     1
102
RTVSPost2010Prop28
280
     0
102
RTVSPost2010PropOp28
 70
     1
102
RTVSPost2010Prop29
280
     1
102
RTVSPost2010PropOp29
 70
     1
102
RTVSPost2010Prop30
280
     1
102
RTVSPost2010PropOp30
 70
     1
102
RTVSPost2010Prop31
280
     0
102
RTVSPost2010PropOp31
 70
     1
102
RTVSPost2010Prop32
280
     0
102
RTVSPost2010PropOp32
 70
     1
102
RTVSPost2010Prop33
280
     0
102
RTVSPost2010PropOp33
 70
     1
102
RTVSPost2010Prop34
280
     0
102
RTVSPost2010PropOp34
 70
     1
102
RTVSPost2010Prop35
280
     0
102
RTVSPost2010PropOp35
 70
     1
102
RTVSPost2010Prop36
280
     0
102
RTVSPost2010PropOp36
 70
     1
102
RTVSPost2010Prop37
 90
       50
102
RTVSPost2010PropOp37
 70
     1
102
RTVSPost2010Prop38
140
0.0
102
RTVSPost2010PropOp38
 70
     1
102
RTVSPost2010Prop39
140
1.0
102
RTVSPost2010PropOp39
 70
     1
102
RTVSPost2010Prop40
 90
        0
102
RTVSPost2010PropOp40
 70
     1
102
RTVSPost2010Prop41ColorIndex
 90
       18
102
RTVSPost2010Prop41ColorRGB
 90
        0
102
RTVSPost2010PropOp41
 70
     1
102
RTVSPost2010Prop42
 90
       50
102
RTVSPost2010PropOp42
 70
     1
102
RTVSPost2010Prop43
 90
        3
102
RTVSPost2010PropOp43
 70
     1
102
RTVSPost2010Prop44ColorIndex
 90
        5
102
RTVSPost2010Prop44ColorRGB
 90
      255
102
RTVSPost2010PropOp44
 70
     1
102
RTVSPost2010Prop45
280
     0
102
RTVSPost2010PropOp45
 70
     1
102
RTVSPost2010Prop46
 90
       50
102
RTVSPost2010PropOp46
 70
     1
102
RTVSPost2010Prop47
 90
       50
102
RTVSPost2010PropOp47
 70
     1
102
RTVSPost2010Prop48
 90
       50
102
RTVSPost2010PropOp48
 70
     1
102
RTVSPost2010Prop49
280
     0
102
RTVSPost2010PropOp49
 70
     1
102
RTVSPost2010Prop50
 90
       50
102
RTVSPost2010PropOp50
 70
     1
102
RTVSPost2010Prop51ColorIndex
 90
      256
102
RTVSPost2010Prop51ColorRGB
 90
-16777216
102
RTVSPost2010PropOp51
 70
     0
102
RTVSPost2010Prop52
140
1.0
102
RTVSPost2010PropOp52
 70
     0
102
RTVSPost2010Prop53
 90
        2
102
RTVSPost2010PropOp53
 70
     1
102
RTVSPost2010Prop54
  1
strokes_ogs.tif
102
RTVSPost2010PropOp54
 70
     1
102
RTVSPost2010Prop55
280
     0
102
RTVSPost2010PropOp55
 70
     1
102
RTVSPost2010Prop56
140
1.0
102
RTVSPost2010PropOp56
 70
     1
102
RTVSPost2010Prop57
140
1.0
102
RTVSPost2010PropOp57
 70
     1
  0
XRECORD
  5
69D
102
{ACAD_REACTORS
330
69C
102
}
330
69C
100
AcDbXrecord
280
     1
102
RTVSPropertyOp0
 70
     1
102
RTVSPropertyOp1
 70
     1
102
RTVSPropertyOp2
 70
     1
102
RTVSPropertyOp3
 70
     1
102
RTVSPropertyOp4
 70
     1
102
RTVSPropertyOp5
 70
     1
102
RTVSPropertyOp6
 70
     1
102
RTVSPropertyOp7
 70
     1
102
RTVSPropertyOp8
 70
     1
102
RTVSPropertyOp9
 70
     1
102
RTVSPropertyOp10
 70
     1
102
RTVSPropertyOp11
 70
     1
102
RTVSPropertyOp12
 70
     1
102
RTVSPropertyOp13
 70
     1
102
RTVSPropertyOp14
 70
     1
102
RTVSPropertyOp15
 70
     1
102
RTVSPropertyOp16
 70
     1
102
RTVSPropertyOp17
 70
     1
102
RTVSPropertyOp18
 70
     1
102
RTVSPropertyOp19
 70
     1
102
RTVSPropertyOp20
 70
     1
102
RTVSPropertyOp21
 70
     1
102
RTVSPropertyOp22
 70
     1
102
RTVSPropertyOp23
 70
     1
102
RTVSPropertyOp24
 70
     1
102
RTVSPropertyOp25
 70
     1
102
RTVSPropertyOp26
 70
     1
102
RTVSPropertyOp27
 70
     1
102
RTVSPropertyOp28
 70
     1
102
RTVSPropertyOp29
 70
     1
102
RTVSPropertyOp30
 70
     1
102
RTVSPropertyOp31
 70
     1
102
RTVSPropertyOp32
 70
     1
102
RTVSPropertyOp33
 70
     1
102
RTVSPropertyOp34
 70
     1
102
RTVSPropertyOp35
 70
     1
102
RTVSPropertyOp36
 70
     1
102
RTVSPropertyOp37
 70
     1
102
RTVSPropertyOp38
 70
     1
102
RTVSPropertyOp39
 70
     1
102
RTVSPropertyOp40
 70
     1
102
RTVSPropertyOp41
 70
     1
102
RTVSPropertyOp42
 70
     1
102
RTVSPropertyOp43
 70
     1
102
RTVSPropertyOp44
 70
     1
102
RTVSPropertyOp45
 70
     1
102
RTVSPropertyOp46
 70
     1
102
RTVSPropertyOp47
 70
     1
102
RTVSPropertyOp48
 70
     1
102
RTVSPropertyOp49
 70
     1
102
RTVSPropertyOp50
 70
     1
102
RTVSPropertyOp51
 70
     0
102
RTVSPropertyOp52
 70
     0
102
RTVSPropertyOp53
 70
     1
102
RTVSPropertyOp54
 70
     1
102
RTVSPropertyOp55
 70
     1
102
RTVSPropertyOp56
 70
     1
102
RTVSPropertyOp57
 70
     1
102
RTVSPost2010Prop28
280
     0
102
RTVSPost2010PropOp28
 70
     1
102
RTVSPost2010Prop29
280
     1
102
RTVSPost2010PropOp29
 70
     1
102
RTVSPost2010Prop30
280
     1
102
RTVSPost2010PropOp30
 70
     1
102
RTVSPost2010Prop31
280
     0
102
RTVSPost2010PropOp31
 70
     1
102
RTVSPost2010Prop32
280
     0
102
RTVSPost2010PropOp32
 70
     1
102
RTVSPost2010Prop33
280
     0
102
RTVSPost2010PropOp33
 70
     1
102
RTVSPost2010Prop34
280
     0
102
RTVSPost2010PropOp34
 70
     1
102
RTVSPost2010Prop35
280
     0
102
RTVSPost2010PropOp35
 70
     1
102
RTVSPost2010Prop36
280
     0
102
RTVSPost2010PropOp36
 70
     1
102
RTVSPost2010Prop37
 90
       50
102
RTVSPost2010PropOp37
 70
     1
102
RTVSPost2010Prop38
140
0.0
102
RTVSPost2010PropOp38
 70
     1
102
RTVSPost2010Prop39
140
1.0
102
RTVSPost2010PropOp39
 70
     1
102
RTVSPost2010Prop40
 90
        0
102
RTVSPost2010PropOp40
 70
     1
102
RTVSPost2010Prop41ColorIndex
 90
       18
102
RTVSPost2010Prop41ColorRGB
 90
        0
102
RTVSPost2010PropOp41
 70
     1
102
RTVSPost2010Prop42
 90
       50
102
RTVSPost2010PropOp42
 70
     1
102
RTVSPost2010Prop43
 90
        3
102
RTVSPost2010PropOp43
 70
     1
102
RTVSPost2010Prop44ColorIndex
 90
        5
102
RTVSPost2010Prop44ColorRGB
 90
      255
102
RTVSPost2010PropOp44
 70
     1
102
RTVSPost2010Prop45
280
     0
102
RTVSPost2010PropOp45
 70
     1
102
RTVSPost2010Prop46
 90
       50
102
RTVSPost2010PropOp46
 70
     1
102
RTVSPost2010Prop47
 90
       50
102
RTVSPost2010PropOp47
 70
     1
102
RTVSPost2010Prop48
 90
       50
102
RTVSPost2010PropOp48
 70
     1
102
RTVSPost2010Prop49
280
     0
102
RTVSPost2010PropOp49
 70
     1
102
RTVSPost2010Prop50
 90
       50
102
RTVSPost2010PropOp50
 70
     1
102
RTVSPost2010Prop51ColorIndex
 90
      256
102
RTVSPost2010Prop51ColorRGB
 90
-16777216
102
RTVSPost2010PropOp51
 70
     0
102
RTVSPost2010Prop52
140
1.0
102
RTVSPost2010PropOp52
 70
     0
102
RTVSPost2010Prop53
 90
        2
102
RTVSPost2010PropOp53
 70
     1
102
RTVSPost2010Prop54
  1
strokes_ogs.tif
102
RTVSPost2010PropOp54
 70
     1
102
RTVSPost2010Prop55
280
     0
102
RTVSPost2010PropOp55
 70
     1
102
RTVSPost2010Prop56
140
1.0
102
RTVSPost2010PropOp56
 70
     1
102
RTVSPost2010Prop57
140
1.0
102
RTVSPost2010PropOp57
 70
     1
  0
XRECORD
  5
6AD
102
{ACAD_REACTORS
330
6AC
102
}
330
6AC
100
AcDbXrecord
280
     1
102
RTVSPropertyOp0
 70
     0
102
RTVSPropertyOp1
 70
     0
102
RTVSPropertyOp2
 70
     0
102
RTVSPropertyOp3
 70
     0
102
RTVSPropertyOp4
 70
     0
102
RTVSPropertyOp5
 70
     0
102
RTVSPropertyOp6
 70
     0
102
RTVSPropertyOp7
 70
     0
102
RTVSPropertyOp8
 70
     0
102
RTVSPropertyOp9
 70
     0
102
RTVSPropertyOp10
 70
     0
102
RTVSPropertyOp11
 70
     0
102
RTVSPropertyOp12
 70
     0
102
RTVSPropertyOp13
 70
     0
102
RTVSPropertyOp14
 70
     2
102
RTVSPropertyOp15
 70
     0
102
RTVSPropertyOp16
 70
     0
102
RTVSPropertyOp17
 70
     0
102
RTVSPropertyOp18
 70
     0
102
RTVSPropertyOp19
 70
     0
102
RTVSPropertyOp20
 70
     0
102
RTVSPropertyOp21
 70
     0
102
RTVSPropertyOp22
 70
     0
102
RTVSPropertyOp23
 70
     0
102
RTVSPropertyOp24
 70
     0
102
RTVSPropertyOp25
 70
     0
102
RTVSPropertyOp26
 70
     0
102
RTVSPropertyOp27
 70
     0
102
RTVSPropertyOp28
 70
     0
102
RTVSPropertyOp29
 70
     0
102
RTVSPropertyOp30
 70
     0
102
RTVSPropertyOp31
 70
     0
102
RTVSPropertyOp32
 70
     0
102
RTVSPropertyOp33
 70
     0
102
RTVSPropertyOp34
 70
     0
102
RTVSPropertyOp35
 70
     0
102
RTVSPropertyOp36
 70
     0
102
RTVSPropertyOp37
 70
     0
102
RTVSPropertyOp38
 70
     0
102
RTVSPropertyOp39
 70
     0
102
RTVSPropertyOp40
 70
     0
102
RTVSPropertyOp41
 70
     0
102
RTVSPropertyOp42
 70
     0
102
RTVSPropertyOp43
 70
     0
102
RTVSPropertyOp44
 70
     0
102
RTVSPropertyOp45
 70
     0
102
RTVSPropertyOp46
 70
     0
102
RTVSPropertyOp47
 70
     0
102
RTVSPropertyOp48
 70
     0
102
RTVSPropertyOp49
 70
     0
102
RTVSPropertyOp50
 70
     0
102
RTVSPropertyOp51
 70
     0
102
RTVSPropertyOp52
 70
     0
102
RTVSPropertyOp53
 70
     0
102
RTVSPropertyOp54
 70
     0
102
RTVSPropertyOp55
 70
     0
102
RTVSPropertyOp56
 70
     0
102
RTVSPropertyOp57
 70
     0
102
RTVSPost2010Prop28
280
     0
102
RTVSPost2010PropOp28
 70
     0
102
RTVSPost2010Prop29
280
     1
102
RTVSPost2010PropOp29
 70
     0
102
RTVSPost2010Prop30
280
     1
102
RTVSPost2010PropOp30
 70
     0
102
RTVSPost2010Prop31
280
     0
102
RTVSPost2010PropOp31
 70
     0
102
RTVSPost2010Prop32
280
     0
102
RTVSPost2010PropOp32
 70
     0
102
RTVSPost2010Prop33
280
     0
102
RTVSPost2010PropOp33
 70
     0
102
RTVSPost2010Prop34
280
     0
102
RTVSPost2010PropOp34
 70
     0
102
RTVSPost2010Prop35
280
     0
102
RTVSPost2010PropOp35
 70
     0
102
RTVSPost2010Prop36
280
     0
102
RTVSPost2010PropOp36
 70
     0
102
RTVSPost2010Prop37
 90
       50
102
RTVSPost2010PropOp37
 70
     0
102
RTVSPost2010Prop38
140
0.0
102
RTVSPost2010PropOp38
 70
     0
102
RTVSPost2010Prop39
140
1.0
102
RTVSPost2010PropOp39
 70
     0
102
RTVSPost2010Prop40
 90
        0
102
RTVSPost2010PropOp40
 70
     0
102
RTVSPost2010Prop41ColorIndex
 90
       18
102
RTVSPost2010Prop41ColorRGB
 90
        0
102
RTVSPost2010PropOp41
 70
     0
102
RTVSPost2010Prop42
 90
       50
102
RTVSPost2010PropOp42
 70
     0
102
RTVSPost2010Prop43
 90
        3
102
RTVSPost2010PropOp43
 70
     0
102
RTVSPost2010Prop44ColorIndex
 90
        5
102
RTVSPost2010Prop44ColorRGB
 90
      255
102
RTVSPost2010PropOp44
 70
     0
102
RTVSPost2010Prop45
280
     0
102
RTVSPost2010PropOp45
 70
     0
102
RTVSPost2010Prop46
 90
       50
102
RTVSPost2010PropOp46
 70
     0
102
RTVSPost2010Prop47
 90
       50
102
RTVSPost2010PropOp47
 70
     0
102
RTVSPost2010Prop48
 90
       50
102
RTVSPost2010PropOp48
 70
     0
102
RTVSPost2010Prop49
280
     0
102
RTVSPost2010PropOp49
 70
     0
102
RTVSPost2010Prop50
 90
       50
102
RTVSPost2010PropOp50
 70
     0
102
RTVSPost2010Prop51ColorIndex
 90
      256
102
RTVSPost2010Prop51ColorRGB
 90
-16777216
102
RTVSPost2010PropOp51
 70
     0
102
RTVSPost2010Prop52
140
1.0
102
RTVSPost2010PropOp52
 70
     0
102
RTVSPost2010Prop53
 90
        2
102
RTVSPost2010PropOp53
 70
     0
102
RTVSPost2010Prop54
  1
strokes_ogs.tif
102
RTVSPost2010PropOp54
 70
     0
102
RTVSPost2010Prop55
280
     0
102
RTVSPost2010PropOp55
 70
     0
102
RTVSPost2010Prop56
140
1.0
102
RTVSPost2010PropOp56
 70
     0
102
RTVSPost2010Prop57
140
1.0
102
RTVSPost2010PropOp57
 70
     0
  0
XRECORD
  5
6A5
102
{ACAD_REACTORS
330
6A4
102
}
330
6A4
100
AcDbXrecord
280
     1
102
RTVSPropertyOp0
 70
     1
102
RTVSPropertyOp1
 70
     1
102
RTVSPropertyOp2
 70
     1
102
RTVSPropertyOp3
 70
     1
102
RTVSPropertyOp4
 70
     1
102
RTVSPropertyOp5
 70
     1
102
RTVSPropertyOp6
 70
     1
102
RTVSPropertyOp7
 70
     1
102
RTVSPropertyOp8
 70
     1
102
RTVSPropertyOp9
 70
     1
102
RTVSPropertyOp10
 70
     1
102
RTVSPropertyOp11
 70
     1
102
RTVSPropertyOp12
 70
     1
102
RTVSPropertyOp13
 70
     1
102
RTVSPropertyOp14
 70
     1
102
RTVSPropertyOp15
 70
     1
102
RTVSPropertyOp16
 70
     1
102
RTVSPropertyOp17
 70
     1
102
RTVSPropertyOp18
 70
     1
102
RTVSPropertyOp19
 70
     1
102
RTVSPropertyOp20
 70
     1
102
RTVSPropertyOp21
 70
     1
102
RTVSPropertyOp22
 70
     1
102
RTVSPropertyOp23
 70
     1
102
RTVSPropertyOp24
 70
     1
102
RTVSPropertyOp25
 70
     1
102
RTVSPropertyOp26
 70
     1
102
RTVSPropertyOp27
 70
     1
102
RTVSPropertyOp28
 70
     1
102
RTVSPropertyOp29
 70
     1
102
RTVSPropertyOp30
 70
     1
102
RTVSPropertyOp31
 70
     1
102
RTVSPropertyOp32
 70
     1
102
RTVSPropertyOp33
 70
     1
102
RTVSPropertyOp34
 70
     1
102
RTVSPropertyOp35
 70
     1
102
RTVSPropertyOp36
 70
     1
102
RTVSPropertyOp37
 70
     1
102
RTVSPropertyOp38
 70
     1
102
RTVSPropertyOp39
 70
     1
102
RTVSPropertyOp40
 70
     1
102
RTVSPropertyOp41
 70
     1
102
RTVSPropertyOp42
 70
     1
102
RTVSPropertyOp43
 70
     1
102
RTVSPropertyOp44
 70
     1
102
RTVSPropertyOp45
 70
     1
102
RTVSPropertyOp46
 70
     1
102
RTVSPropertyOp47
 70
     1
102
RTVSPropertyOp48
 70
     1
102
RTVSPropertyOp49
 70
     1
102
RTVSPropertyOp50
 70
     1
102
RTVSPropertyOp51
 70
     0
102
RTVSPropertyOp52
 70
     0
102
RTVSPropertyOp53
 70
     1
102
RTVSPropertyOp54
 70
     1
102
RTVSPropertyOp55
 70
     1
102
RTVSPropertyOp56
 70
     1
102
RTVSPropertyOp57
 70
     1
102
RTVSPost2010Prop28
280
     0
102
RTVSPost2010PropOp28
 70
     1
102
RTVSPost2010Prop29
280
     1
102
RTVSPost2010PropOp29
 70
     1
102
RTVSPost2010Prop30
280
     1
102
RTVSPost2010PropOp30
 70
     1
102
RTVSPost2010Prop31
280
     0
102
RTVSPost2010PropOp31
 70
     1
102
RTVSPost2010Prop32
280
     0
102
RTVSPost2010PropOp32
 70
     1
102
RTVSPost2010Prop33
280
     0
102
RTVSPost2010PropOp33
 70
     1
102
RTVSPost2010Prop34
280
     0
102
RTVSPost2010PropOp34
 70
     1
102
RTVSPost2010Prop35
280
     0
102
RTVSPost2010PropOp35
 70
     1
102
RTVSPost2010Prop36
280
     0
102
RTVSPost2010PropOp36
 70
     1
102
RTVSPost2010Prop37
 90
       50
102
RTVSPost2010PropOp37
 70
     1
102
RTVSPost2010Prop38
140
0.0
102
RTVSPost2010PropOp38
 70
     1
102
RTVSPost2010Prop39
140
1.0
102
RTVSPost2010PropOp39
 70
     1
102
RTVSPost2010Prop40
 90
        0
102
RTVSPost2010PropOp40
 70
     1
102
RTVSPost2010Prop41ColorIndex
 90
       18
102
RTVSPost2010Prop41ColorRGB
 90
        0
102
RTVSPost2010PropOp41
 70
     1
102
RTVSPost2010Prop42
 90
       50
102
RTVSPost2010PropOp42
 70
     1
102
RTVSPost2010Prop43
 90
        3
102
RTVSPost2010PropOp43
 70
     1
102
RTVSPost2010Prop44ColorIndex
 90
        5
102
RTVSPost2010Prop44ColorRGB
 90
      255
102
RTVSPost2010PropOp44
 70
     1
102
RTVSPost2010Prop45
280
     0
102
RTVSPost2010PropOp45
 70
     1
102
RTVSPost2010Prop46
 90
       50
102
RTVSPost2010PropOp46
 70
     1
102
RTVSPost2010Prop47
 90
       50
102
RTVSPost2010PropOp47
 70
     1
102
RTVSPost2010Prop48
 90
       50
102
RTVSPost2010PropOp48
 70
     1
102
RTVSPost2010Prop49
280
     0
102
RTVSPost2010PropOp49
 70
     1
102
RTVSPost2010Prop50
 90
       50
102
RTVSPost2010PropOp50
 70
     1
102
RTVSPost2010Prop51ColorIndex
 90
      256
102
RTVSPost2010Prop51ColorRGB
 90
-16777216
102
RTVSPost2010PropOp51
 70
     0
102
RTVSPost2010Prop52
140
1.0
102
RTVSPost2010PropOp52
 70
     0
102
RTVSPost2010Prop53
 90
        2
102
RTVSPost2010PropOp53
 70
     1
102
RTVSPost2010Prop54
  1
strokes_ogs.tif
102
RTVSPost2010PropOp54
 70
     1
102
RTVSPost2010Prop55
280
     0
102
RTVSPost2010PropOp55
 70
     1
102
RTVSPost2010Prop56
140
1.0
102
RTVSPost2010PropOp56
 70
     1
102
RTVSPost2010Prop57
140
1.0
102
RTVSPost2010PropOp57
 70
     1
  0
XRECORD
  5
689
102
{ACAD_REACTORS
330
688
102
}
330
688
100
AcDbXrecord
280
     1
102
RTVSPropertyOp0
 70
     1
102
RTVSPropertyOp1
 70
     1
102
RTVSPropertyOp2
 70
     1
102
RTVSPropertyOp3
 70
     1
102
RTVSPropertyOp4
 70
     1
102
RTVSPropertyOp5
 70
     1
102
RTVSPropertyOp6
 70
     1
102
RTVSPropertyOp7
 70
     1
102
RTVSPropertyOp8
 70
     1
102
RTVSPropertyOp9
 70
     1
102
RTVSPropertyOp10
 70
     1
102
RTVSPropertyOp11
 70
     1
102
RTVSPropertyOp12
 70
     1
102
RTVSPropertyOp13
 70
     1
102
RTVSPropertyOp14
 70
     1
102
RTVSPropertyOp15
 70
     1
102
RTVSPropertyOp16
 70
     1
102
RTVSPropertyOp17
 70
     1
102
RTVSPropertyOp18
 70
     1
102
RTVSPropertyOp19
 70
     1
102
RTVSPropertyOp20
 70
     1
102
RTVSPropertyOp21
 70
     1
102
RTVSPropertyOp22
 70
     1
102
RTVSPropertyOp23
 70
     1
102
RTVSPropertyOp24
 70
     1
102
RTVSPropertyOp25
 70
     1
102
RTVSPropertyOp26
 70
     1
102
RTVSPropertyOp27
 70
     1
102
RTVSPropertyOp28
 70
     1
102
RTVSPropertyOp29
 70
     1
102
RTVSPropertyOp30
 70
     1
102
RTVSPropertyOp31
 70
     1
102
RTVSPropertyOp32
 70
     1
102
RTVSPropertyOp33
 70
     1
102
RTVSPropertyOp34
 70
     1
102
RTVSPropertyOp35
 70
     1
102
RTVSPropertyOp36
 70
     1
102
RTVSPropertyOp37
 70
     1
102
RTVSPropertyOp38
 70
     1
102
RTVSPropertyOp39
 70
     1
102
RTVSPropertyOp40
 70
     1
102
RTVSPropertyOp41
 70
     1
102
RTVSPropertyOp42
 70
     1
102
RTVSPropertyOp43
 70
     1
102
RTVSPropertyOp44
 70
     1
102
RTVSPropertyOp45
 70
     1
102
RTVSPropertyOp46
 70
     1
102
RTVSPropertyOp47
 70
     1
102
RTVSPropertyOp48
 70
     1
102
RTVSPropertyOp49
 70
     1
102
RTVSPropertyOp50
 70
     1
102
RTVSPropertyOp51
 70
     0
102
RTVSPropertyOp52
 70
     0
102
RTVSPropertyOp53
 70
     1
102
RTVSPropertyOp54
 70
     1
102
RTVSPropertyOp55
 70
     1
102
RTVSPropertyOp56
 70
     1
102
RTVSPropertyOp57
 70
     1
102
RTVSPost2010Prop28
280
     0
102
RTVSPost2010PropOp28
 70
     1
102
RTVSPost2010Prop29
280
     1
102
RTVSPost2010PropOp29
 70
     1
102
RTVSPost2010Prop30
280
     1
102
RTVSPost2010PropOp30
 70
     1
102
RTVSPost2010Prop31
280
     0
102
RTVSPost2010PropOp31
 70
     1
102
RTVSPost2010Prop32
280
     0
102
RTVSPost2010PropOp32
 70
     1
102
RTVSPost2010Prop33
280
     0
102
RTVSPost2010PropOp33
 70
     1
102
RTVSPost2010Prop34
280
     0
102
RTVSPost2010PropOp34
 70
     1
102
RTVSPost2010Prop35
280
     0
102
RTVSPost2010PropOp35
 70
     1
102
RTVSPost2010Prop36
280
     0
102
RTVSPost2010PropOp36
 70
     1
102
RTVSPost2010Prop37
 90
       50
102
RTVSPost2010PropOp37
 70
     1
102
RTVSPost2010Prop38
140
0.0
102
RTVSPost2010PropOp38
 70
     1
102
RTVSPost2010Prop39
140
1.0
102
RTVSPost2010PropOp39
 70
     1
102
RTVSPost2010Prop40
 90
        0
102
RTVSPost2010PropOp40
 70
     1
102
RTVSPost2010Prop41ColorIndex
 90
       18
102
RTVSPost2010Prop41ColorRGB
 90
        0
102
RTVSPost2010PropOp41
 70
     1
102
RTVSPost2010Prop42
 90
       50
102
RTVSPost2010PropOp42
 70
     1
102
RTVSPost2010Prop43
 90
        3
102
RTVSPost2010PropOp43
 70
     1
102
RTVSPost2010Prop44ColorIndex
 90
        5
102
RTVSPost2010Prop44ColorRGB
 90
      255
102
RTVSPost2010PropOp44
 70
     1
102
RTVSPost2010Prop45
280
     0
102
RTVSPost2010PropOp45
 70
     1
102
RTVSPost2010Prop46
 90
       50
102
RTVSPost2010PropOp46
 70
     1
102
RTVSPost2010Prop47
 90
       50
102
RTVSPost2010PropOp47
 70
     1
102
RTVSPost2010Prop48
 90
       50
102
RTVSPost2010PropOp48
 70
     1
102
RTVSPost2010Prop49
280
     0
102
RTVSPost2010PropOp49
 70
     1
102
RTVSPost2010Prop50
 90
       50
102
RTVSPost2010PropOp50
 70
     1
102
RTVSPost2010Prop51ColorIndex
 90
      256
102
RTVSPost2010Prop51ColorRGB
 90
-16777216
102
RTVSPost2010PropOp51
 70
     0
102
RTVSPost2010Prop52
140
1.0
102
RTVSPost2010PropOp52
 70
     0
102
RTVSPost2010Prop53
 90
        2
102
RTVSPost2010PropOp53
 70
     1
102
RTVSPost2010Prop54
  1
strokes_ogs.tif
102
RTVSPost2010PropOp54
 70
     1
102
RTVSPost2010Prop55
280
     0
102
RTVSPost2010PropOp55
 70
     1
102
RTVSPost2010Prop56
140
1.0
102
RTVSPost2010PropOp56
 70
     1
102
RTVSPost2010Prop57
140
1.0
102
RTVSPost2010PropOp57
 70
     1
  0
XRECORD
  5
68B
102
{ACAD_REACTORS
330
68A
102
}
330
68A
100
AcDbXrecord
280
     1
102
RTVSPropertyOp0
 70
     1
102
RTVSPropertyOp1
 70
     1
102
RTVSPropertyOp2
 70
     1
102
RTVSPropertyOp3
 70
     1
102
RTVSPropertyOp4
 70
     1
102
RTVSPropertyOp5
 70
     1
102
RTVSPropertyOp6
 70
     1
102
RTVSPropertyOp7
 70
     1
102
RTVSPropertyOp8
 70
     1
102
RTVSPropertyOp9
 70
     1
102
RTVSPropertyOp10
 70
     1
102
RTVSPropertyOp11
 70
     1
102
RTVSPropertyOp12
 70
     1
102
RTVSPropertyOp13
 70
     1
102
RTVSPropertyOp14
 70
     1
102
RTVSPropertyOp15
 70
     1
102
RTVSPropertyOp16
 70
     1
102
RTVSPropertyOp17
 70
     1
102
RTVSPropertyOp18
 70
     1
102
RTVSPropertyOp19
 70
     1
102
RTVSPropertyOp20
 70
     1
102
RTVSPropertyOp21
 70
     1
102
RTVSPropertyOp22
 70
     1
102
RTVSPropertyOp23
 70
     1
102
RTVSPropertyOp24
 70
     1
102
RTVSPropertyOp25
 70
     1
102
RTVSPropertyOp26
 70
     1
102
RTVSPropertyOp27
 70
     1
102
RTVSPropertyOp28
 70
     1
102
RTVSPropertyOp29
 70
     1
102
RTVSPropertyOp30
 70
     1
102
RTVSPropertyOp31
 70
     1
102
RTVSPropertyOp32
 70
     1
102
RTVSPropertyOp33
 70
     1
102
RTVSPropertyOp34
 70
     1
102
RTVSPropertyOp35
 70
     1
102
RTVSPropertyOp36
 70
     1
102
RTVSPropertyOp37
 70
     1
102
RTVSPropertyOp38
 70
     1
102
RTVSPropertyOp39
 70
     1
102
RTVSPropertyOp40
 70
     1
102
RTVSPropertyOp41
 70
     1
102
RTVSPropertyOp42
 70
     1
102
RTVSPropertyOp43
 70
     1
102
RTVSPropertyOp44
 70
     1
102
RTVSPropertyOp45
 70
     1
102
RTVSPropertyOp46
 70
     1
102
RTVSPropertyOp47
 70
     1
102
RTVSPropertyOp48
 70
     1
102
RTVSPropertyOp49
 70
     1
102
RTVSPropertyOp50
 70
     1
102
RTVSPropertyOp51
 70
     0
102
RTVSPropertyOp52
 70
     0
102
RTVSPropertyOp53
 70
     1
102
RTVSPropertyOp54
 70
     1
102
RTVSPropertyOp55
 70
     1
102
RTVSPropertyOp56
 70
     1
102
RTVSPropertyOp57
 70
     1
102
RTVSPost2010Prop28
280
     0
102
RTVSPost2010PropOp28
 70
     1
102
RTVSPost2010Prop29
280
     1
102
RTVSPost2010PropOp29
 70
     1
102
RTVSPost2010Prop30
280
     1
102
RTVSPost2010PropOp30
 70
     1
102
RTVSPost2010Prop31
280
     0
102
RTVSPost2010PropOp31
 70
     1
102
RTVSPost2010Prop32
280
     0
102
RTVSPost2010PropOp32
 70
     1
102
RTVSPost2010Prop33
280
     0
102
RTVSPost2010PropOp33
 70
     1
102
RTVSPost2010Prop34
280
     0
102
RTVSPost2010PropOp34
 70
     1
102
RTVSPost2010Prop35
280
     0
102
RTVSPost2010PropOp35
 70
     1
102
RTVSPost2010Prop36
280
     0
102
RTVSPost2010PropOp36
 70
     1
102
RTVSPost2010Prop37
 90
       50
102
RTVSPost2010PropOp37
 70
     1
102
RTVSPost2010Prop38
140
0.0
102
RTVSPost2010PropOp38
 70
     1
102
RTVSPost2010Prop39
140
1.0
102
RTVSPost2010PropOp39
 70
     1
102
RTVSPost2010Prop40
 90
        0
102
RTVSPost2010PropOp40
 70
     1
102
RTVSPost2010Prop41ColorIndex
 90
       18
102
RTVSPost2010Prop41ColorRGB
 90
        0
102
RTVSPost2010PropOp41
 70
     1
102
RTVSPost2010Prop42
 90
       50
102
RTVSPost2010PropOp42
 70
     1
102
RTVSPost2010Prop43
 90
        3
102
RTVSPost2010PropOp43
 70
     1
102
RTVSPost2010Prop44ColorIndex
 90
        5
102
RTVSPost2010Prop44ColorRGB
 90
      255
102
RTVSPost2010PropOp44
 70
     1
102
RTVSPost2010Prop45
280
     0
102
RTVSPost2010PropOp45
 70
     1
102
RTVSPost2010Prop46
 90
       50
102
RTVSPost2010PropOp46
 70
     1
102
RTVSPost2010Prop47
 90
       50
102
RTVSPost2010PropOp47
 70
     1
102
RTVSPost2010Prop48
 90
       50
102
RTVSPost2010PropOp48
 70
     1
102
RTVSPost2010Prop49
280
     0
102
RTVSPost2010PropOp49
 70
     1
102
RTVSPost2010Prop50
 90
       50
102
RTVSPost2010PropOp50
 70
     1
102
RTVSPost2010Prop51ColorIndex
 90
      256
102
RTVSPost2010Prop51ColorRGB
 90
-16777216
102
RTVSPost2010PropOp51
 70
     0
102
RTVSPost2010Prop52
140
1.0
102
RTVSPost2010PropOp52
 70
     0
102
RTVSPost2010Prop53
 90
        2
102
RTVSPost2010PropOp53
 70
     1
102
RTVSPost2010Prop54
  1
strokes_ogs.tif
102
RTVSPost2010PropOp54
 70
     1
102
RTVSPost2010Prop55
280
     0
102
RTVSPost2010PropOp55
 70
     1
102
RTVSPost2010Prop56
140
1.0
102
RTVSPost2010PropOp56
 70
     1
102
RTVSPost2010Prop57
140
1.0
102
RTVSPost2010PropOp57
 70
     1
  0
XRECORD
  5
68D
102
{ACAD_REACTORS
330
68C
102
}
330
68C
100
AcDbXrecord
280
     1
102
RTVSPropertyOp0
 70
     1
102
RTVSPropertyOp1
 70
     1
102
RTVSPropertyOp2
 70
     1
102
RTVSPropertyOp3
 70
     1
102
RTVSPropertyOp4
 70
     1
102
RTVSPropertyOp5
 70
     1
102
RTVSPropertyOp6
 70
     1
102
RTVSPropertyOp7
 70
     1
102
RTVSPropertyOp8
 70
     1
102
RTVSPropertyOp9
 70
     1
102
RTVSPropertyOp10
 70
     1
102
RTVSPropertyOp11
 70
     1
102
RTVSPropertyOp12
 70
     1
102
RTVSPropertyOp13
 70
     1
102
RTVSPropertyOp14
 70
     1
102
RTVSPropertyOp15
 70
     1
102
RTVSPropertyOp16
 70
     1
102
RTVSPropertyOp17
 70
     1
102
RTVSPropertyOp18
 70
     1
102
RTVSPropertyOp19
 70
     1
102
RTVSPropertyOp20
 70
     1
102
RTVSPropertyOp21
 70
     1
102
RTVSPropertyOp22
 70
     1
102
RTVSPropertyOp23
 70
     1
102
RTVSPropertyOp24
 70
     1
102
RTVSPropertyOp25
 70
     1
102
RTVSPropertyOp26
 70
     1
102
RTVSPropertyOp27
 70
     1
102
RTVSPropertyOp28
 70
     1
102
RTVSPropertyOp29
 70
     1
102
RTVSPropertyOp30
 70
     1
102
RTVSPropertyOp31
 70
     1
102
RTVSPropertyOp32
 70
     1
102
RTVSPropertyOp33
 70
     1
102
RTVSPropertyOp34
 70
     1
102
RTVSPropertyOp35
 70
     1
102
RTVSPropertyOp36
 70
     1
102
RTVSPropertyOp37
 70
     1
102
RTVSPropertyOp38
 70
     1
102
RTVSPropertyOp39
 70
     1
102
RTVSPropertyOp40
 70
     1
102
RTVSPropertyOp41
 70
     1
102
RTVSPropertyOp42
 70
     1
102
RTVSPropertyOp43
 70
     1
102
RTVSPropertyOp44
 70
     1
102
RTVSPropertyOp45
 70
     1
102
RTVSPropertyOp46
 70
     1
102
RTVSPropertyOp47
 70
     1
102
RTVSPropertyOp48
 70
     1
102
RTVSPropertyOp49
 70
     1
102
RTVSPropertyOp50
 70
     1
102
RTVSPropertyOp51
 70
     0
102
RTVSPropertyOp52
 70
     0
102
RTVSPropertyOp53
 70
     1
102
RTVSPropertyOp54
 70
     1
102
RTVSPropertyOp55
 70
     1
102
RTVSPropertyOp56
 70
     1
102
RTVSPropertyOp57
 70
     1
102
RTVSPost2010Prop28
280
     0
102
RTVSPost2010PropOp28
 70
     1
102
RTVSPost2010Prop29
280
     1
102
RTVSPost2010PropOp29
 70
     1
102
RTVSPost2010Prop30
280
     1
102
RTVSPost2010PropOp30
 70
     1
102
RTVSPost2010Prop31
280
     0
102
RTVSPost2010PropOp31
 70
     1
102
RTVSPost2010Prop32
280
     0
102
RTVSPost2010PropOp32
 70
     1
102
RTVSPost2010Prop33
280
     0
102
RTVSPost2010PropOp33
 70
     1
102
RTVSPost2010Prop34
280
     0
102
RTVSPost2010PropOp34
 70
     1
102
RTVSPost2010Prop35
280
     0
102
RTVSPost2010PropOp35
 70
     1
102
RTVSPost2010Prop36
280
     0
102
RTVSPost2010PropOp36
 70
     1
102
RTVSPost2010Prop37
 90
       50
102
RTVSPost2010PropOp37
 70
     1
102
RTVSPost2010Prop38
140
0.0
102
RTVSPost2010PropOp38
 70
     1
102
RTVSPost2010Prop39
140
1.0
102
RTVSPost2010PropOp39
 70
     1
102
RTVSPost2010Prop40
 90
        0
102
RTVSPost2010PropOp40
 70
     1
102
RTVSPost2010Prop41ColorIndex
 90
       18
102
RTVSPost2010Prop41ColorRGB
 90
        0
102
RTVSPost2010PropOp41
 70
     1
102
RTVSPost2010Prop42
 90
       50
102
RTVSPost2010PropOp42
 70
     1
102
RTVSPost2010Prop43
 90
        3
102
RTVSPost2010PropOp43
 70
     1
102
RTVSPost2010Prop44ColorIndex
 90
        5
102
RTVSPost2010Prop44ColorRGB
 90
      255
102
RTVSPost2010PropOp44
 70
     1
102
RTVSPost2010Prop45
280
     0
102
RTVSPost2010PropOp45
 70
     1
102
RTVSPost2010Prop46
 90
       50
102
RTVSPost2010PropOp46
 70
     1
102
RTVSPost2010Prop47
 90
       50
102
RTVSPost2010PropOp47
 70
     1
102
RTVSPost2010Prop48
 90
       50
102
RTVSPost2010PropOp48
 70
     1
102
RTVSPost2010Prop49
280
     0
102
RTVSPost2010PropOp49
 70
     1
102
RTVSPost2010Prop50
 90
       50
102
RTVSPost2010PropOp50
 70
     1
102
RTVSPost2010Prop51ColorIndex
 90
      256
102
RTVSPost2010Prop51ColorRGB
 90
-16777216
102
RTVSPost2010PropOp51
 70
     0
102
RTVSPost2010Prop52
140
1.0
102
RTVSPost2010PropOp52
 70
     0
102
RTVSPost2010Prop53
 90
        2
102
RTVSPost2010PropOp53
 70
     1
102
RTVSPost2010Prop54
  1
strokes_ogs.tif
102
RTVSPost2010PropOp54
 70
     1
102
RTVSPost2010Prop55
280
     0
102
RTVSPost2010PropOp55
 70
     1
102
RTVSPost2010Prop56
140
1.0
102
RTVSPost2010PropOp56
 70
     1
102
RTVSPost2010Prop57
140
1.0
102
RTVSPost2010PropOp57
 70
     1
  0
XRECORD
  5
68F
102
{ACAD_REACTORS
330
68E
102
}
330
68E
100
AcDbXrecord
280
     1
102
RTVSPropertyOp0
 70
     1
102
RTVSPropertyOp1
 70
     1
102
RTVSPropertyOp2
 70
     1
102
RTVSPropertyOp3
 70
     1
102
RTVSPropertyOp4
 70
     1
102
RTVSPropertyOp5
 70
     1
102
RTVSPropertyOp6
 70
     1
102
RTVSPropertyOp7
 70
     1
102
RTVSPropertyOp8
 70
     1
102
RTVSPropertyOp9
 70
     1
102
RTVSPropertyOp10
 70
     1
102
RTVSPropertyOp11
 70
     1
102
RTVSPropertyOp12
 70
     1
102
RTVSPropertyOp13
 70
     1
102
RTVSPropertyOp14
 70
     1
102
RTVSPropertyOp15
 70
     1
102
RTVSPropertyOp16
 70
     1
102
RTVSPropertyOp17
 70
     1
102
RTVSPropertyOp18
 70
     1
102
RTVSPropertyOp19
 70
     1
102
RTVSPropertyOp20
 70
     1
102
RTVSPropertyOp21
 70
     1
102
RTVSPropertyOp22
 70
     1
102
RTVSPropertyOp23
 70
     1
102
RTVSPropertyOp24
 70
     1
102
RTVSPropertyOp25
 70
     1
102
RTVSPropertyOp26
 70
     1
102
RTVSPropertyOp27
 70
     1
102
RTVSPropertyOp28
 70
     1
102
RTVSPropertyOp29
 70
     1
102
RTVSPropertyOp30
 70
     1
102
RTVSPropertyOp31
 70
     1
102
RTVSPropertyOp32
 70
     1
102
RTVSPropertyOp33
 70
     1
102
RTVSPropertyOp34
 70
     1
102
RTVSPropertyOp35
 70
     1
102
RTVSPropertyOp36
 70
     1
102
RTVSPropertyOp37
 70
     1
102
RTVSPropertyOp38
 70
     1
102
RTVSPropertyOp39
 70
     1
102
RTVSPropertyOp40
 70
     1
102
RTVSPropertyOp41
 70
     1
102
RTVSPropertyOp42
 70
     1
102
RTVSPropertyOp43
 70
     1
102
RTVSPropertyOp44
 70
     1
102
RTVSPropertyOp45
 70
     1
102
RTVSPropertyOp46
 70
     1
102
RTVSPropertyOp47
 70
     1
102
RTVSPropertyOp48
 70
     1
102
RTVSPropertyOp49
 70
     1
102
RTVSPropertyOp50
 70
     1
102
RTVSPropertyOp51
 70
     0
102
RTVSPropertyOp52
 70
     0
102
RTVSPropertyOp53
 70
     1
102
RTVSPropertyOp54
 70
     1
102
RTVSPropertyOp55
 70
     1
102
RTVSPropertyOp56
 70
     1
102
RTVSPropertyOp57
 70
     1
102
RTVSPost2010Prop28
280
     0
102
RTVSPost2010PropOp28
 70
     1
102
RTVSPost2010Prop29
280
     1
102
RTVSPost2010PropOp29
 70
     1
102
RTVSPost2010Prop30
280
     1
102
RTVSPost2010PropOp30
 70
     1
102
RTVSPost2010Prop31
280
     0
102
RTVSPost2010PropOp31
 70
     1
102
RTVSPost2010Prop32
280
     0
102
RTVSPost2010PropOp32
 70
     1
102
RTVSPost2010Prop33
280
     0
102
RTVSPost2010PropOp33
 70
     1
102
RTVSPost2010Prop34
280
     0
102
RTVSPost2010PropOp34
 70
     1
102
RTVSPost2010Prop35
280
     0
102
RTVSPost2010PropOp35
 70
     1
102
RTVSPost2010Prop36
280
     0
102
RTVSPost2010PropOp36
 70
     1
102
RTVSPost2010Prop37
 90
       50
102
RTVSPost2010PropOp37
 70
     1
102
RTVSPost2010Prop38
140
0.0
102
RTVSPost2010PropOp38
 70
     1
102
RTVSPost2010Prop39
140
1.0
102
RTVSPost2010PropOp39
 70
     1
102
RTVSPost2010Prop40
 90
        0
102
RTVSPost2010PropOp40
 70
     1
102
RTVSPost2010Prop41ColorIndex
 90
       18
102
RTVSPost2010Prop41ColorRGB
 90
        0
102
RTVSPost2010PropOp41
 70
     1
102
RTVSPost2010Prop42
 90
       50
102
RTVSPost2010PropOp42
 70
     1
102
RTVSPost2010Prop43
 90
        3
102
RTVSPost2010PropOp43
 70
     1
102
RTVSPost2010Prop44ColorIndex
 90
        5
102
RTVSPost2010Prop44ColorRGB
 90
      255
102
RTVSPost2010PropOp44
 70
     1
102
RTVSPost2010Prop45
280
     0
102
RTVSPost2010PropOp45
 70
     1
102
RTVSPost2010Prop46
 90
       50
102
RTVSPost2010PropOp46
 70
     1
102
RTVSPost2010Prop47
 90
       50
102
RTVSPost2010PropOp47
 70
     1
102
RTVSPost2010Prop48
 90
       50
102
RTVSPost2010PropOp48
 70
     1
102
RTVSPost2010Prop49
280
     0
102
RTVSPost2010PropOp49
 70
     1
102
RTVSPost2010Prop50
 90
       50
102
RTVSPost2010PropOp50
 70
     1
102
RTVSPost2010Prop51ColorIndex
 90
      256
102
RTVSPost2010Prop51ColorRGB
 90
-16777216
102
RTVSPost2010PropOp51
 70
     0
102
RTVSPost2010Prop52
140
1.0
102
RTVSPost2010PropOp52
 70
     0
102
RTVSPost2010Prop53
 90
        2
102
RTVSPost2010PropOp53
 70
     1
102
RTVSPost2010Prop54
  1
strokes_ogs.tif
102
RTVSPost2010PropOp54
 70
     1
102
RTVSPost2010Prop55
280
     0
102
RTVSPost2010PropOp55
 70
     1
102
RTVSPost2010Prop56
140
1.0
102
RTVSPost2010PropOp56
 70
     1
102
RTVSPost2010Prop57
140
1.0
102
RTVSPost2010PropOp57
 70
     1
  0
XRECORD
  5
695
102
{ACAD_REACTORS
330
694
102
}
330
694
100
AcDbXrecord
280
     1
102
RTVSPropertyOp0
 70
     1
102
RTVSPropertyOp1
 70
     1
102
RTVSPropertyOp2
 70
     1
102
RTVSPropertyOp3
 70
     1
102
RTVSPropertyOp4
 70
     1
102
RTVSPropertyOp5
 70
     1
102
RTVSPropertyOp6
 70
     1
102
RTVSPropertyOp7
 70
     1
102
RTVSPropertyOp8
 70
     1
102
RTVSPropertyOp9
 70
     1
102
RTVSPropertyOp10
 70
     1
102
RTVSPropertyOp11
 70
     1
102
RTVSPropertyOp12
 70
     1
102
RTVSPropertyOp13
 70
     1
102
RTVSPropertyOp14
 70
     1
102
RTVSPropertyOp15
 70
     1
102
RTVSPropertyOp16
 70
     1
102
RTVSPropertyOp17
 70
     1
102
RTVSPropertyOp18
 70
     1
102
RTVSPropertyOp19
 70
     1
102
RTVSPropertyOp20
 70
     1
102
RTVSPropertyOp21
 70
     1
102
RTVSPropertyOp22
 70
     1
102
RTVSPropertyOp23
 70
     1
102
RTVSPropertyOp24
 70
     1
102
RTVSPropertyOp25
 70
     1
102
RTVSPropertyOp26
 70
     1
102
RTVSPropertyOp27
 70
     1
102
RTVSPropertyOp28
 70
     1
102
RTVSPropertyOp29
 70
     1
102
RTVSPropertyOp30
 70
     1
102
RTVSPropertyOp31
 70
     1
102
RTVSPropertyOp32
 70
     1
102
RTVSPropertyOp33
 70
     1
102
RTVSPropertyOp34
 70
     1
102
RTVSPropertyOp35
 70
     1
102
RTVSPropertyOp36
 70
     1
102
RTVSPropertyOp37
 70
     1
102
RTVSPropertyOp38
 70
     1
102
RTVSPropertyOp39
 70
     1
102
RTVSPropertyOp40
 70
     1
102
RTVSPropertyOp41
 70
     1
102
RTVSPropertyOp42
 70
     1
102
RTVSPropertyOp43
 70
     1
102
RTVSPropertyOp44
 70
     1
102
RTVSPropertyOp45
 70
     1
102
RTVSPropertyOp46
 70
     1
102
RTVSPropertyOp47
 70
     1
102
RTVSPropertyOp48
 70
     1
102
RTVSPropertyOp49
 70
     1
102
RTVSPropertyOp50
 70
     1
102
RTVSPropertyOp51
 70
     0
102
RTVSPropertyOp52
 70
     0
102
RTVSPropertyOp53
 70
     1
102
RTVSPropertyOp54
 70
     1
102
RTVSPropertyOp55
 70
     1
102
RTVSPropertyOp56
 70
     1
102
RTVSPropertyOp57
 70
     1
102
RTVSPost2010Prop28
280
     0
102
RTVSPost2010PropOp28
 70
     1
102
RTVSPost2010Prop29
280
     1
102
RTVSPost2010PropOp29
 70
     1
102
RTVSPost2010Prop30
280
     1
102
RTVSPost2010PropOp30
 70
     1
102
RTVSPost2010Prop31
280
     0
102
RTVSPost2010PropOp31
 70
     1
102
RTVSPost2010Prop32
280
     0
102
RTVSPost2010PropOp32
 70
     1
102
RTVSPost2010Prop33
280
     0
102
RTVSPost2010PropOp33
 70
     1
102
RTVSPost2010Prop34
280
     0
102
RTVSPost2010PropOp34
 70
     1
102
RTVSPost2010Prop35
280
     0
102
RTVSPost2010PropOp35
 70
     1
102
RTVSPost2010Prop36
280
     0
102
RTVSPost2010PropOp36
 70
     1
102
RTVSPost2010Prop37
 90
       50
102
RTVSPost2010PropOp37
 70
     1
102
RTVSPost2010Prop38
140
0.0
102
RTVSPost2010PropOp38
 70
     1
102
RTVSPost2010Prop39
140
1.0
102
RTVSPost2010PropOp39
 70
     1
102
RTVSPost2010Prop40
 90
        0
102
RTVSPost2010PropOp40
 70
     1
102
RTVSPost2010Prop41ColorIndex
 90
       18
102
RTVSPost2010Prop41ColorRGB
 90
        0
102
RTVSPost2010PropOp41
 70
     1
102
RTVSPost2010Prop42
 90
       50
102
RTVSPost2010PropOp42
 70
     1
102
RTVSPost2010Prop43
 90
        3
102
RTVSPost2010PropOp43
 70
     1
102
RTVSPost2010Prop44ColorIndex
 90
        5
102
RTVSPost2010Prop44ColorRGB
 90
      255
102
RTVSPost2010PropOp44
 70
     1
102
RTVSPost2010Prop45
280
     0
102
RTVSPost2010PropOp45
 70
     1
102
RTVSPost2010Prop46
 90
       50
102
RTVSPost2010PropOp46
 70
     1
102
RTVSPost2010Prop47
 90
       50
102
RTVSPost2010PropOp47
 70
     1
102
RTVSPost2010Prop48
 90
       50
102
RTVSPost2010PropOp48
 70
     1
102
RTVSPost2010Prop49
280
     0
102
RTVSPost2010PropOp49
 70
     1
102
RTVSPost2010Prop50
 90
       50
102
RTVSPost2010PropOp50
 70
     1
102
RTVSPost2010Prop51ColorIndex
 90
      256
102
RTVSPost2010Prop51ColorRGB
 90
-16777216
102
RTVSPost2010PropOp51
 70
     0
102
RTVSPost2010Prop52
140
1.0
102
RTVSPost2010PropOp52
 70
     0
102
RTVSPost2010Prop53
 90
        2
102
RTVSPost2010PropOp53
 70
     1
102
RTVSPost2010Prop54
  1
strokes_ogs.tif
102
RTVSPost2010PropOp54
 70
     1
102
RTVSPost2010Prop55
280
     0
102
RTVSPost2010PropOp55
 70
     1
102
RTVSPost2010Prop56
140
1.0
102
RTVSPost2010PropOp56
 70
     1
102
RTVSPost2010Prop57
140
1.0
102
RTVSPost2010PropOp57
 70
     1
  0
XRECORD
  5
6A9
102
{ACAD_REACTORS
330
6A8
102
}
330
6A8
100
AcDbXrecord
280
     1
102
RTVSPropertyOp0
 70
     0
102
RTVSPropertyOp1
 70
     0
102
RTVSPropertyOp2
 70
     0
102
RTVSPropertyOp3
 70
     0
102
RTVSPropertyOp4
 70
     0
102
RTVSPropertyOp5
 70
     0
102
RTVSPropertyOp6
 70
     0
102
RTVSPropertyOp7
 70
     0
102
RTVSPropertyOp8
 70
     0
102
RTVSPropertyOp9
 70
     0
102
RTVSPropertyOp10
 70
     0
102
RTVSPropertyOp11
 70
     0
102
RTVSPropertyOp12
 70
     0
102
RTVSPropertyOp13
 70
     0
102
RTVSPropertyOp14
 70
     2
102
RTVSPropertyOp15
 70
     0
102
RTVSPropertyOp16
 70
     0
102
RTVSPropertyOp17
 70
     0
102
RTVSPropertyOp18
 70
     0
102
RTVSPropertyOp19
 70
     0
102
RTVSPropertyOp20
 70
     0
102
RTVSPropertyOp21
 70
     0
102
RTVSPropertyOp22
 70
     0
102
RTVSPropertyOp23
 70
     0
102
RTVSPropertyOp24
 70
     0
102
RTVSPropertyOp25
 70
     0
102
RTVSPropertyOp26
 70
     0
102
RTVSPropertyOp27
 70
     0
102
RTVSPropertyOp28
 70
     0
102
RTVSPropertyOp29
 70
     0
102
RTVSPropertyOp30
 70
     0
102
RTVSPropertyOp31
 70
     0
102
RTVSPropertyOp32
 70
     0
102
RTVSPropertyOp33
 70
     0
102
RTVSPropertyOp34
 70
     0
102
RTVSPropertyOp35
 70
     0
102
RTVSPropertyOp36
 70
     0
102
RTVSPropertyOp37
 70
     0
102
RTVSPropertyOp38
 70
     0
102
RTVSPropertyOp39
 70
     0
102
RTVSPropertyOp40
 70
     0
102
RTVSPropertyOp41
 70
     0
102
RTVSPropertyOp42
 70
     0
102
RTVSPropertyOp43
 70
     0
102
RTVSPropertyOp44
 70
     0
102
RTVSPropertyOp45
 70
     0
102
RTVSPropertyOp46
 70
     0
102
RTVSPropertyOp47
 70
     0
102
RTVSPropertyOp48
 70
     0
102
RTVSPropertyOp49
 70
     0
102
RTVSPropertyOp50
 70
     0
102
RTVSPropertyOp51
 70
     0
102
RTVSPropertyOp52
 70
     0
102
RTVSPropertyOp53
 70
     0
102
RTVSPropertyOp54
 70
     0
102
RTVSPropertyOp55
 70
     0
102
RTVSPropertyOp56
 70
     0
102
RTVSPropertyOp57
 70
     0
102
RTVSPost2010Prop28
280
     0
102
RTVSPost2010PropOp28
 70
     0
102
RTVSPost2010Prop29
280
     1
102
RTVSPost2010PropOp29
 70
     0
102
RTVSPost2010Prop30
280
     1
102
RTVSPost2010PropOp30
 70
     0
102
RTVSPost2010Prop31
280
     0
102
RTVSPost2010PropOp31
 70
     0
102
RTVSPost2010Prop32
280
     0
102
RTVSPost2010PropOp32
 70
     0
102
RTVSPost2010Prop33
280
     0
102
RTVSPost2010PropOp33
 70
     0
102
RTVSPost2010Prop34
280
     0
102
RTVSPost2010PropOp34
 70
     0
102
RTVSPost2010Prop35
280
     0
102
RTVSPost2010PropOp35
 70
     0
102
RTVSPost2010Prop36
280
     0
102
RTVSPost2010PropOp36
 70
     0
102
RTVSPost2010Prop37
 90
       50
102
RTVSPost2010PropOp37
 70
     0
102
RTVSPost2010Prop38
140
0.0
102
RTVSPost2010PropOp38
 70
     0
102
RTVSPost2010Prop39
140
1.0
102
RTVSPost2010PropOp39
 70
     0
102
RTVSPost2010Prop40
 90
        0
102
RTVSPost2010PropOp40
 70
     0
102
RTVSPost2010Prop41ColorIndex
 90
       18
102
RTVSPost2010Prop41ColorRGB
 90
        0
102
RTVSPost2010PropOp41
 70
     0
102
RTVSPost2010Prop42
 90
       50
102
RTVSPost2010PropOp42
 70
     0
102
RTVSPost2010Prop43
 90
        3
102
RTVSPost2010PropOp43
 70
     0
102
RTVSPost2010Prop44ColorIndex
 90
        5
102
RTVSPost2010Prop44ColorRGB
 90
      255
102
RTVSPost2010PropOp44
 70
     0
102
RTVSPost2010Prop45
280
     0
102
RTVSPost2010PropOp45
 70
     0
102
RTVSPost2010Prop46
 90
       50
102
RTVSPost2010PropOp46
 70
     0
102
RTVSPost2010Prop47
 90
       50
102
RTVSPost2010PropOp47
 70
     0
102
RTVSPost2010Prop48
 90
       50
102
RTVSPost2010PropOp48
 70
     0
102
RTVSPost2010Prop49
280
     0
102
RTVSPost2010PropOp49
 70
     0
102
RTVSPost2010Prop50
 90
       50
102
RTVSPost2010PropOp50
 70
     0
102
RTVSPost2010Prop51ColorIndex
 90
      256
102
RTVSPost2010Prop51ColorRGB
 90
-16777216
102
RTVSPost2010PropOp51
 70
     0
102
RTVSPost2010Prop52
140
1.0
102
RTVSPost2010PropOp52
 70
     0
102
RTVSPost2010Prop53
 90
        2
102
RTVSPost2010PropOp53
 70
     0
102
RTVSPost2010Prop54
  1
strokes_ogs.tif
102
RTVSPost2010PropOp54
 70
     0
102
RTVSPost2010Prop55
280
     0
102
RTVSPost2010PropOp55
 70
     0
102
RTVSPost2010Prop56
140
1.0
102
RTVSPost2010PropOp56
 70
     0
102
RTVSPost2010Prop57
140
1.0
102
RTVSPost2010PropOp57
 70
     0
  0
XRECORD
  5
6A3
102
{ACAD_REACTORS
330
6A2
102
}
330
6A2
100
AcDbXrecord
280
     1
102
RTVSPropertyOp0
 70
     1
102
RTVSPropertyOp1
 70
     1
102
RTVSPropertyOp2
 70
     1
102
RTVSPropertyOp3
 70
     1
102
RTVSPropertyOp4
 70
     1
102
RTVSPropertyOp5
 70
     1
102
RTVSPropertyOp6
 70
     1
102
RTVSPropertyOp7
 70
     1
102
RTVSPropertyOp8
 70
     1
102
RTVSPropertyOp9
 70
     1
102
RTVSPropertyOp10
 70
     1
102
RTVSPropertyOp11
 70
     1
102
RTVSPropertyOp12
 70
     1
102
RTVSPropertyOp13
 70
     1
102
RTVSPropertyOp14
 70
     1
102
RTVSPropertyOp15
 70
     1
102
RTVSPropertyOp16
 70
     1
102
RTVSPropertyOp17
 70
     1
102
RTVSPropertyOp18
 70
     1
102
RTVSPropertyOp19
 70
     1
102
RTVSPropertyOp20
 70
     1
102
RTVSPropertyOp21
 70
     1
102
RTVSPropertyOp22
 70
     1
102
RTVSPropertyOp23
 70
     1
102
RTVSPropertyOp24
 70
     1
102
RTVSPropertyOp25
 70
     1
102
RTVSPropertyOp26
 70
     1
102
RTVSPropertyOp27
 70
     1
102
RTVSPropertyOp28
 70
     1
102
RTVSPropertyOp29
 70
     1
102
RTVSPropertyOp30
 70
     1
102
RTVSPropertyOp31
 70
     1
102
RTVSPropertyOp32
 70
     1
102
RTVSPropertyOp33
 70
     1
102
RTVSPropertyOp34
 70
     1
102
RTVSPropertyOp35
 70
     1
102
RTVSPropertyOp36
 70
     1
102
RTVSPropertyOp37
 70
     1
102
RTVSPropertyOp38
 70
     1
102
RTVSPropertyOp39
 70
     1
102
RTVSPropertyOp40
 70
     1
102
RTVSPropertyOp41
 70
     1
102
RTVSPropertyOp42
 70
     1
102
RTVSPropertyOp43
 70
     1
102
RTVSPropertyOp44
 70
     1
102
RTVSPropertyOp45
 70
     1
102
RTVSPropertyOp46
 70
     1
102
RTVSPropertyOp47
 70
     1
102
RTVSPropertyOp48
 70
     1
102
RTVSPropertyOp49
 70
     1
102
RTVSPropertyOp50
 70
     1
102
RTVSPropertyOp51
 70
     0
102
RTVSPropertyOp52
 70
     0
102
RTVSPropertyOp53
 70
     1
102
RTVSPropertyOp54
 70
     1
102
RTVSPropertyOp55
 70
     1
102
RTVSPropertyOp56
 70
     1
102
RTVSPropertyOp57
 70
     1
102
RTVSPost2010Prop28
280
     0
102
RTVSPost2010PropOp28
 70
     1
102
RTVSPost2010Prop29
280
     1
102
RTVSPost2010PropOp29
 70
     1
102
RTVSPost2010Prop30
280
     1
102
RTVSPost2010PropOp30
 70
     1
102
RTVSPost2010Prop31
280
     0
102
RTVSPost2010PropOp31
 70
     1
102
RTVSPost2010Prop32
280
     0
102
RTVSPost2010PropOp32
 70
     1
102
RTVSPost2010Prop33
280
     0
102
RTVSPost2010PropOp33
 70
     1
102
RTVSPost2010Prop34
280
     0
102
RTVSPost2010PropOp34
 70
     1
102
RTVSPost2010Prop35
280
     0
102
RTVSPost2010PropOp35
 70
     1
102
RTVSPost2010Prop36
280
     0
102
RTVSPost2010PropOp36
 70
     1
102
RTVSPost2010Prop37
 90
       50
102
RTVSPost2010PropOp37
 70
     1
102
RTVSPost2010Prop38
140
0.0
102
RTVSPost2010PropOp38
 70
     1
102
RTVSPost2010Prop39
140
1.0
102
RTVSPost2010PropOp39
 70
     1
102
RTVSPost2010Prop40
 90
        0
102
RTVSPost2010PropOp40
 70
     1
102
RTVSPost2010Prop41ColorIndex
 90
       18
102
RTVSPost2010Prop41ColorRGB
 90
        0
102
RTVSPost2010PropOp41
 70
     1
102
RTVSPost2010Prop42
 90
       50
102
RTVSPost2010PropOp42
 70
     1
102
RTVSPost2010Prop43
 90
        3
102
RTVSPost2010PropOp43
 70
     1
102
RTVSPost2010Prop44ColorIndex
 90
        5
102
RTVSPost2010Prop44ColorRGB
 90
      255
102
RTVSPost2010PropOp44
 70
     1
102
RTVSPost2010Prop45
280
     0
102
RTVSPost2010PropOp45
 70
     1
102
RTVSPost2010Prop46
 90
       50
102
RTVSPost2010PropOp46
 70
     1
102
RTVSPost2010Prop47
 90
       50
102
RTVSPost2010PropOp47
 70
     1
102
RTVSPost2010Prop48
 90
       50
102
RTVSPost2010PropOp48
 70
     1
102
RTVSPost2010Prop49
280
     0
102
RTVSPost2010PropOp49
 70
     1
102
RTVSPost2010Prop50
 90
       50
102
RTVSPost2010PropOp50
 70
     1
102
RTVSPost2010Prop51ColorIndex
 90
      256
102
RTVSPost2010Prop51ColorRGB
 90
-16777216
102
RTVSPost2010PropOp51
 70
     0
102
RTVSPost2010Prop52
140
1.0
102
RTVSPost2010PropOp52
 70
     0
102
RTVSPost2010Prop53
 90
        2
102
RTVSPost2010PropOp53
 70
     1
102
RTVSPost2010Prop54
  1
strokes_ogs.tif
102
RTVSPost2010PropOp54
 70
     1
102
RTVSPost2010Prop55
280
     0
102
RTVSPost2010PropOp55
 70
     1
102
RTVSPost2010Prop56
140
1.0
102
RTVSPost2010PropOp56
 70
     1
102
RTVSPost2010Prop57
140
1.0
102
RTVSPost2010PropOp57
 70
     1
  0
XRECORD
  5
6AB
102
{ACAD_REACTORS
330
6AA
102
}
330
6AA
100
AcDbXrecord
280
     1
102
RTVSPropertyOp0
 70
     0
102
RTVSPropertyOp1
 70
     0
102
RTVSPropertyOp2
 70
     0
102
RTVSPropertyOp3
 70
     0
102
RTVSPropertyOp4
 70
     0
102
RTVSPropertyOp5
 70
     0
102
RTVSPropertyOp6
 70
     0
102
RTVSPropertyOp7
 70
     0
102
RTVSPropertyOp8
 70
     0
102
RTVSPropertyOp9
 70
     0
102
RTVSPropertyOp10
 70
     0
102
RTVSPropertyOp11
 70
     0
102
RTVSPropertyOp12
 70
     0
102
RTVSPropertyOp13
 70
     0
102
RTVSPropertyOp14
 70
     2
102
RTVSPropertyOp15
 70
     0
102
RTVSPropertyOp16
 70
     0
102
RTVSPropertyOp17
 70
     0
102
RTVSPropertyOp18
 70
     0
102
RTVSPropertyOp19
 70
     0
102
RTVSPropertyOp20
 70
     0
102
RTVSPropertyOp21
 70
     0
102
RTVSPropertyOp22
 70
     0
102
RTVSPropertyOp23
 70
     0
102
RTVSPropertyOp24
 70
     0
102
RTVSPropertyOp25
 70
     0
102
RTVSPropertyOp26
 70
     0
102
RTVSPropertyOp27
 70
     0
102
RTVSPropertyOp28
 70
     0
102
RTVSPropertyOp29
 70
     0
102
RTVSPropertyOp30
 70
     0
102
RTVSPropertyOp31
 70
     0
102
RTVSPropertyOp32
 70
     0
102
RTVSPropertyOp33
 70
     0
102
RTVSPropertyOp34
 70
     0
102
RTVSPropertyOp35
 70
     0
102
RTVSPropertyOp36
 70
     0
102
RTVSPropertyOp37
 70
     0
102
RTVSPropertyOp38
 70
     0
102
RTVSPropertyOp39
 70
     0
102
RTVSPropertyOp40
 70
     0
102
RTVSPropertyOp41
 70
     0
102
RTVSPropertyOp42
 70
     0
102
RTVSPropertyOp43
 70
     0
102
RTVSPropertyOp44
 70
     0
102
RTVSPropertyOp45
 70
     0
102
RTVSPropertyOp46
 70
     0
102
RTVSPropertyOp47
 70
     0
102
RTVSPropertyOp48
 70
     0
102
RTVSPropertyOp49
 70
     0
102
RTVSPropertyOp50
 70
     0
102
RTVSPropertyOp51
 70
     0
102
RTVSPropertyOp52
 70
     0
102
RTVSPropertyOp53
 70
     0
102
RTVSPropertyOp54
 70
     0
102
RTVSPropertyOp55
 70
     0
102
RTVSPropertyOp56
 70
     0
102
RTVSPropertyOp57
 70
     0
102
RTVSPost2010Prop28
280
     0
102
RTVSPost2010PropOp28
 70
     0
102
RTVSPost2010Prop29
280
     1
102
RTVSPost2010PropOp29
 70
     0
102
RTVSPost2010Prop30
280
     1
102
RTVSPost2010PropOp30
 70
     0
102
RTVSPost2010Prop31
280
     0
102
RTVSPost2010PropOp31
 70
     0
102
RTVSPost2010Prop32
280
     0
102
RTVSPost2010PropOp32
 70
     0
102
RTVSPost2010Prop33
280
     0
102
RTVSPost2010PropOp33
 70
     0
102
RTVSPost2010Prop34
280
     0
102
RTVSPost2010PropOp34
 70
     0
102
RTVSPost2010Prop35
280
     0
102
RTVSPost2010PropOp35
 70
     0
102
RTVSPost2010Prop36
280
     0
102
RTVSPost2010PropOp36
 70
     0
102
RTVSPost2010Prop37
 90
       50
102
RTVSPost2010PropOp37
 70
     0
102
RTVSPost2010Prop38
140
0.0
102
RTVSPost2010PropOp38
 70
     0
102
RTVSPost2010Prop39
140
1.0
102
RTVSPost2010PropOp39
 70
     0
102
RTVSPost2010Prop40
 90
        0
102
RTVSPost2010PropOp40
 70
     0
102
RTVSPost2010Prop41ColorIndex
 90
       18
102
RTVSPost2010Prop41ColorRGB
 90
        0
102
RTVSPost2010PropOp41
 70
     0
102
RTVSPost2010Prop42
 90
       50
102
RTVSPost2010PropOp42
 70
     0
102
RTVSPost2010Prop43
 90
        3
102
RTVSPost2010PropOp43
 70
     0
102
RTVSPost2010Prop44ColorIndex
 90
        5
102
RTVSPost2010Prop44ColorRGB
 90
      255
102
RTVSPost2010PropOp44
 70
     0
102
RTVSPost2010Prop45
280
     0
102
RTVSPost2010PropOp45
 70
     0
102
RTVSPost2010Prop46
 90
       50
102
RTVSPost2010PropOp46
 70
     0
102
RTVSPost2010Prop47
 90
       50
102
RTVSPost2010PropOp47
 70
     0
102
RTVSPost2010Prop48
 90
       50
102
RTVSPost2010PropOp48
 70
     0
102
RTVSPost2010Prop49
280
     0
102
RTVSPost2010PropOp49
 70
     0
102
RTVSPost2010Prop50
 90
       50
102
RTVSPost2010PropOp50
 70
     0
102
RTVSPost2010Prop51ColorIndex
 90
      256
102
RTVSPost2010Prop51ColorRGB
 90
-16777216
102
RTVSPost2010PropOp51
 70
     0
102
RTVSPost2010Prop52
140
1.0
102
RTVSPost2010PropOp52
 70
     0
102
RTVSPost2010Prop53
 90
        2
102
RTVSPost2010PropOp53
 70
     0
102
RTVSPost2010Prop54
  1
strokes_ogs.tif
102
RTVSPost2010PropOp54
 70
     0
102
RTVSPost2010Prop55
280
     0
102
RTVSPost2010PropOp55
 70
     0
102
RTVSPost2010Prop56
140
1.0
102
RTVSPost2010PropOp56
 70
     0
102
RTVSPost2010Prop57
140
1.0
102
RTVSPost2010PropOp57
 70
     0
  0
XRECORD
  5
699
102
{ACAD_REACTORS
330
698
102
}
330
698
100
AcDbXrecord
280
     1
102
RTVSPropertyOp0
 70
     1
102
RTVSPropertyOp1
 70
     1
102
RTVSPropertyOp2
 70
     1
102
RTVSPropertyOp3
 70
     1
102
RTVSPropertyOp4
 70
     1
102
RTVSPropertyOp5
 70
     1
102
RTVSPropertyOp6
 70
     1
102
RTVSPropertyOp7
 70
     1
102
RTVSPropertyOp8
 70
     1
102
RTVSPropertyOp9
 70
     1
102
RTVSPropertyOp10
 70
     1
102
RTVSPropertyOp11
 70
     1
102
RTVSPropertyOp12
 70
     1
102
RTVSPropertyOp13
 70
     1
102
RTVSPropertyOp14
 70
     1
102
RTVSPropertyOp15
 70
     1
102
RTVSPropertyOp16
 70
     1
102
RTVSPropertyOp17
 70
     1
102
RTVSPropertyOp18
 70
     1
102
RTVSPropertyOp19
 70
     1
102
RTVSPropertyOp20
 70
     1
102
RTVSPropertyOp21
 70
     1
102
RTVSPropertyOp22
 70
     1
102
RTVSPropertyOp23
 70
     1
102
RTVSPropertyOp24
 70
     1
102
RTVSPropertyOp25
 70
     1
102
RTVSPropertyOp26
 70
     1
102
RTVSPropertyOp27
 70
     1
102
RTVSPropertyOp28
 70
     1
102
RTVSPropertyOp29
 70
     1
102
RTVSPropertyOp30
 70
     1
102
RTVSPropertyOp31
 70
     1
102
RTVSPropertyOp32
 70
     1
102
RTVSPropertyOp33
 70
     1
102
RTVSPropertyOp34
 70
     1
102
RTVSPropertyOp35
 70
     1
102
RTVSPropertyOp36
 70
     1
102
RTVSPropertyOp37
 70
     1
102
RTVSPropertyOp38
 70
     1
102
RTVSPropertyOp39
 70
     1
102
RTVSPropertyOp40
 70
     1
102
RTVSPropertyOp41
 70
     1
102
RTVSPropertyOp42
 70
     1
102
RTVSPropertyOp43
 70
     1
102
RTVSPropertyOp44
 70
     1
102
RTVSPropertyOp45
 70
     1
102
RTVSPropertyOp46
 70
     1
102
RTVSPropertyOp47
 70
     1
102
RTVSPropertyOp48
 70
     1
102
RTVSPropertyOp49
 70
     1
102
RTVSPropertyOp50
 70
     1
102
RTVSPropertyOp51
 70
     0
102
RTVSPropertyOp52
 70
     0
102
RTVSPropertyOp53
 70
     1
102
RTVSPropertyOp54
 70
     1
102
RTVSPropertyOp55
 70
     1
102
RTVSPropertyOp56
 70
     1
102
RTVSPropertyOp57
 70
     1
102
RTVSPost2010Prop28
280
     0
102
RTVSPost2010PropOp28
 70
     1
102
RTVSPost2010Prop29
280
     1
102
RTVSPost2010PropOp29
 70
     1
102
RTVSPost2010Prop30
280
     1
102
RTVSPost2010PropOp30
 70
     1
102
RTVSPost2010Prop31
280
     0
102
RTVSPost2010PropOp31
 70
     1
102
RTVSPost2010Prop32
280
     0
102
RTVSPost2010PropOp32
 70
     1
102
RTVSPost2010Prop33
280
     0
102
RTVSPost2010PropOp33
 70
     1
102
RTVSPost2010Prop34
280
     0
102
RTVSPost2010PropOp34
 70
     1
102
RTVSPost2010Prop35
280
     0
102
RTVSPost2010PropOp35
 70
     1
102
RTVSPost2010Prop36
280
     0
102
RTVSPost2010PropOp36
 70
     1
102
RTVSPost2010Prop37
 90
       50
102
RTVSPost2010PropOp37
 70
     1
102
RTVSPost2010Prop38
140
0.0
102
RTVSPost2010PropOp38
 70
     1
102
RTVSPost2010Prop39
140
1.0
102
RTVSPost2010PropOp39
 70
     1
102
RTVSPost2010Prop40
 90
        0
102
RTVSPost2010PropOp40
 70
     1
102
RTVSPost2010Prop41ColorIndex
 90
       18
102
RTVSPost2010Prop41ColorRGB
 90
        0
102
RTVSPost2010PropOp41
 70
     1
102
RTVSPost2010Prop42
 90
       50
102
RTVSPost2010PropOp42
 70
     1
102
RTVSPost2010Prop43
 90
        3
102
RTVSPost2010PropOp43
 70
     1
102
RTVSPost2010Prop44ColorIndex
 90
        5
102
RTVSPost2010Prop44ColorRGB
 90
      255
102
RTVSPost2010PropOp44
 70
     1
102
RTVSPost2010Prop45
280
     0
102
RTVSPost2010PropOp45
 70
     1
102
RTVSPost2010Prop46
 90
       50
102
RTVSPost2010PropOp46
 70
     1
102
RTVSPost2010Prop47
 90
       50
102
RTVSPost2010PropOp47
 70
     1
102
RTVSPost2010Prop48
 90
       50
102
RTVSPost2010PropOp48
 70
     1
102
RTVSPost2010Prop49
280
     0
102
RTVSPost2010PropOp49
 70
     1
102
RTVSPost2010Prop50
 90
       50
102
RTVSPost2010PropOp50
 70
     1
102
RTVSPost2010Prop51ColorIndex
 90
      256
102
RTVSPost2010Prop51ColorRGB
 90
-16777216
102
RTVSPost2010PropOp51
 70
     0
102
RTVSPost2010Prop52
140
1.0
102
RTVSPost2010PropOp52
 70
     0
102
RTVSPost2010Prop53
 90
        2
102
RTVSPost2010PropOp53
 70
     1
102
RTVSPost2010Prop54
  1
strokes_ogs.tif
102
RTVSPost2010PropOp54
 70
     1
102
RTVSPost2010Prop55
280
     0
102
RTVSPost2010PropOp55
 70
     1
102
RTVSPost2010Prop56
140
1.0
102
RTVSPost2010PropOp56
 70
     1
102
RTVSPost2010Prop57
140
1.0
102
RTVSPost2010PropOp57
 70
     1
  0
XRECORD
  5
6B7
102
{ACAD_REACTORS
330
6B6
102
}
330
6B6
100
AcDbXrecord
280
     1
102
RTVSPropertyOp0
 70
     1
102
RTVSPropertyOp1
 70
     1
102
RTVSPropertyOp2
 70
     1
102
RTVSPropertyOp3
 70
     1
102
RTVSPropertyOp4
 70
     1
102
RTVSPropertyOp5
 70
     1
102
RTVSPropertyOp6
 70
     1
102
RTVSPropertyOp7
 70
     1
102
RTVSPropertyOp8
 70
     1
102
RTVSPropertyOp9
 70
     1
102
RTVSPropertyOp10
 70
     1
102
RTVSPropertyOp11
 70
     1
102
RTVSPropertyOp12
 70
     1
102
RTVSPropertyOp13
 70
     1
102
RTVSPropertyOp14
 70
     1
102
RTVSPropertyOp15
 70
     1
102
RTVSPropertyOp16
 70
     1
102
RTVSPropertyOp17
 70
     1
102
RTVSPropertyOp18
 70
     1
102
RTVSPropertyOp19
 70
     1
102
RTVSPropertyOp20
 70
     1
102
RTVSPropertyOp21
 70
     1
102
RTVSPropertyOp22
 70
     1
102
RTVSPropertyOp23
 70
     1
102
RTVSPropertyOp24
 70
     1
102
RTVSPropertyOp25
 70
     1
102
RTVSPropertyOp26
 70
     1
102
RTVSPropertyOp27
 70
     1
102
RTVSPropertyOp28
 70
     1
102
RTVSPropertyOp29
 70
     1
102
RTVSPropertyOp30
 70
     1
102
RTVSPropertyOp31
 70
     1
102
RTVSPropertyOp32
 70
     1
102
RTVSPropertyOp33
 70
     1
102
RTVSPropertyOp34
 70
     1
102
RTVSPropertyOp35
 70
     1
102
RTVSPropertyOp36
 70
     1
102
RTVSPropertyOp37
 70
     1
102
RTVSPropertyOp38
 70
     1
102
RTVSPropertyOp39
 70
     1
102
RTVSPropertyOp40
 70
     1
102
RTVSPropertyOp41
 70
     1
102
RTVSPropertyOp42
 70
     1
102
RTVSPropertyOp43
 70
     1
102
RTVSPropertyOp44
 70
     1
102
RTVSPropertyOp45
 70
     1
102
RTVSPropertyOp46
 70
     1
102
RTVSPropertyOp47
 70
     1
102
RTVSPropertyOp48
 70
     1
102
RTVSPropertyOp49
 70
     1
102
RTVSPropertyOp50
 70
     1
102
RTVSPropertyOp51
 70
     0
102
RTVSPropertyOp52
 70
     0
102
RTVSPropertyOp53
 70
     1
102
RTVSPropertyOp54
 70
     1
102
RTVSPropertyOp55
 70
     1
102
RTVSPropertyOp56
 70
     1
102
RTVSPropertyOp57
 70
     1
102
RTVSPost2010Prop28
280
     0
102
RTVSPost2010PropOp28
 70
     1
102
RTVSPost2010Prop29
280
     1
102
RTVSPost2010PropOp29
 70
     1
102
RTVSPost2010Prop30
280
     1
102
RTVSPost2010PropOp30
 70
     1
102
RTVSPost2010Prop31
280
     0
102
RTVSPost2010PropOp31
 70
     1
102
RTVSPost2010Prop32
280
     0
102
RTVSPost2010PropOp32
 70
     1
102
RTVSPost2010Prop33
280
     0
102
RTVSPost2010PropOp33
 70
     1
102
RTVSPost2010Prop34
280
     0
102
RTVSPost2010PropOp34
 70
     1
102
RTVSPost2010Prop35
280
     0
102
RTVSPost2010PropOp35
 70
     1
102
RTVSPost2010Prop36
280
     0
102
RTVSPost2010PropOp36
 70
     1
102
RTVSPost2010Prop37
 90
       50
102
RTVSPost2010PropOp37
 70
     1
102
RTVSPost2010Prop38
140
0.0
102
RTVSPost2010PropOp38
 70
     1
102
RTVSPost2010Prop39
140
1.0
102
RTVSPost2010PropOp39
 70
     1
102
RTVSPost2010Prop40
 90
        0
102
RTVSPost2010PropOp40
 70
     1
102
RTVSPost2010Prop41ColorIndex
 90
       18
102
RTVSPost2010Prop41ColorRGB
 90
        0
102
RTVSPost2010PropOp41
 70
     1
102
RTVSPost2010Prop42
 90
       50
102
RTVSPost2010PropOp42
 70
     1
102
RTVSPost2010Prop43
 90
        3
102
RTVSPost2010PropOp43
 70
     1
102
RTVSPost2010Prop44ColorIndex
 90
        5
102
RTVSPost2010Prop44ColorRGB
 90
      255
102
RTVSPost2010PropOp44
 70
     1
102
RTVSPost2010Prop45
280
     0
102
RTVSPost2010PropOp45
 70
     1
102
RTVSPost2010Prop46
 90
       50
102
RTVSPost2010PropOp46
 70
     1
102
RTVSPost2010Prop47
 90
       50
102
RTVSPost2010PropOp47
 70
     1
102
RTVSPost2010Prop48
 90
       50
102
RTVSPost2010PropOp48
 70
     1
102
RTVSPost2010Prop49
280
     0
102
RTVSPost2010PropOp49
 70
     1
102
RTVSPost2010Prop50
 90
       50
102
RTVSPost2010PropOp50
 70
     1
102
RTVSPost2010Prop51ColorIndex
 90
      256
102
RTVSPost2010Prop51ColorRGB
 90
-16777216
102
RTVSPost2010PropOp51
 70
     0
102
RTVSPost2010Prop52
140
1.0
102
RTVSPost2010PropOp52
 70
     0
102
RTVSPost2010Prop53
 90
        2
102
RTVSPost2010PropOp53
 70
     1
102
RTVSPost2010Prop54
  1
strokes_ogs.tif
102
RTVSPost2010PropOp54
 70
     1
102
RTVSPost2010Prop55
280
     0
102
RTVSPost2010PropOp55
 70
     1
102
RTVSPost2010Prop56
140
1.0
102
RTVSPost2010PropOp56
 70
     1
102
RTVSPost2010Prop57
140
1.0
102
RTVSPost2010PropOp57
 70
     1
  0
XRECORD
  5
6B5
102
{ACAD_REACTORS
330
6B4
102
}
330
6B4
100
AcDbXrecord
280
     1
102
RTVSPropertyOp0
 70
     1
102
RTVSPropertyOp1
 70
     1
102
RTVSPropertyOp2
 70
     1
102
RTVSPropertyOp3
 70
     1
102
RTVSPropertyOp4
 70
     1
102
RTVSPropertyOp5
 70
     1
102
RTVSPropertyOp6
 70
     1
102
RTVSPropertyOp7
 70
     1
102
RTVSPropertyOp8
 70
     1
102
RTVSPropertyOp9
 70
     1
102
RTVSPropertyOp10
 70
     1
102
RTVSPropertyOp11
 70
     1
102
RTVSPropertyOp12
 70
     1
102
RTVSPropertyOp13
 70
     1
102
RTVSPropertyOp14
 70
     1
102
RTVSPropertyOp15
 70
     1
102
RTVSPropertyOp16
 70
     1
102
RTVSPropertyOp17
 70
     1
102
RTVSPropertyOp18
 70
     1
102
RTVSPropertyOp19
 70
     1
102
RTVSPropertyOp20
 70
     1
102
RTVSPropertyOp21
 70
     1
102
RTVSPropertyOp22
 70
     1
102
RTVSPropertyOp23
 70
     1
102
RTVSPropertyOp24
 70
     1
102
RTVSPropertyOp25
 70
     1
102
RTVSPropertyOp26
 70
     1
102
RTVSPropertyOp27
 70
     1
102
RTVSPropertyOp28
 70
     1
102
RTVSPropertyOp29
 70
     1
102
RTVSPropertyOp30
 70
     1
102
RTVSPropertyOp31
 70
     1
102
RTVSPropertyOp32
 70
     1
102
RTVSPropertyOp33
 70
     1
102
RTVSPropertyOp34
 70
     1
102
RTVSPropertyOp35
 70
     1
102
RTVSPropertyOp36
 70
     1
102
RTVSPropertyOp37
 70
     1
102
RTVSPropertyOp38
 70
     1
102
RTVSPropertyOp39
 70
     1
102
RTVSPropertyOp40
 70
     1
102
RTVSPropertyOp41
 70
     1
102
RTVSPropertyOp42
 70
     1
102
RTVSPropertyOp43
 70
     1
102
RTVSPropertyOp44
 70
     1
102
RTVSPropertyOp45
 70
     1
102
RTVSPropertyOp46
 70
     1
102
RTVSPropertyOp47
 70
     1
102
RTVSPropertyOp48
 70
     1
102
RTVSPropertyOp49
 70
     1
102
RTVSPropertyOp50
 70
     1
102
RTVSPropertyOp51
 70
     0
102
RTVSPropertyOp52
 70
     0
102
RTVSPropertyOp53
 70
     1
102
RTVSPropertyOp54
 70
     1
102
RTVSPropertyOp55
 70
     1
102
RTVSPropertyOp56
 70
     1
102
RTVSPropertyOp57
 70
     1
102
RTVSPost2010Prop28
280
     0
102
RTVSPost2010PropOp28
 70
     1
102
RTVSPost2010Prop29
280
     1
102
RTVSPost2010PropOp29
 70
     1
102
RTVSPost2010Prop30
280
     1
102
RTVSPost2010PropOp30
 70
     1
102
RTVSPost2010Prop31
280
     0
102
RTVSPost2010PropOp31
 70
     1
102
RTVSPost2010Prop32
280
     0
102
RTVSPost2010PropOp32
 70
     1
102
RTVSPost2010Prop33
280
     0
102
RTVSPost2010PropOp33
 70
     1
102
RTVSPost2010Prop34
280
     0
102
RTVSPost2010PropOp34
 70
     1
102
RTVSPost2010Prop35
280
     0
102
RTVSPost2010PropOp35
 70
     1
102
RTVSPost2010Prop36
280
     0
102
RTVSPost2010PropOp36
 70
     1
102
RTVSPost2010Prop37
 90
       50
102
RTVSPost2010PropOp37
 70
     1
102
RTVSPost2010Prop38
140
0.0
102
RTVSPost2010PropOp38
 70
     1
102
RTVSPost2010Prop39
140
1.0
102
RTVSPost2010PropOp39
 70
     1
102
RTVSPost2010Prop40
 90
        0
102
RTVSPost2010PropOp40
 70
     1
102
RTVSPost2010Prop41ColorIndex
 90
       18
102
RTVSPost2010Prop41ColorRGB
 90
        0
102
RTVSPost2010PropOp41
 70
     1
102
RTVSPost2010Prop42
 90
       50
102
RTVSPost2010PropOp42
 70
     1
102
RTVSPost2010Prop43
 90
        3
102
RTVSPost2010PropOp43
 70
     1
102
RTVSPost2010Prop44ColorIndex
 90
        5
102
RTVSPost2010Prop44ColorRGB
 90
      255
102
RTVSPost2010PropOp44
 70
     1
102
RTVSPost2010Prop45
280
     0
102
RTVSPost2010PropOp45
 70
     1
102
RTVSPost2010Prop46
 90
       50
102
RTVSPost2010PropOp46
 70
     1
102
RTVSPost2010Prop47
 90
       50
102
RTVSPost2010PropOp47
 70
     1
102
RTVSPost2010Prop48
 90
       50
102
RTVSPost2010PropOp48
 70
     1
102
RTVSPost2010Prop49
280
     0
102
RTVSPost2010PropOp49
 70
     1
102
RTVSPost2010Prop50
 90
       50
102
RTVSPost2010PropOp50
 70
     1
102
RTVSPost2010Prop51ColorIndex
 90
      256
102
RTVSPost2010Prop51ColorRGB
 90
-16777216
102
RTVSPost2010PropOp51
 70
     0
102
RTVSPost2010Prop52
140
1.0
102
RTVSPost2010PropOp52
 70
     0
102
RTVSPost2010Prop53
 90
        2
102
RTVSPost2010PropOp53
 70
     1
102
RTVSPost2010Prop54
  1
strokes_ogs.tif
102
RTVSPost2010PropOp54
 70
     1
102
RTVSPost2010Prop55
280
     0
102
RTVSPost2010PropOp55
 70
     1
102
RTVSPost2010Prop56
140
1.0
102
RTVSPost2010PropOp56
 70
     1
102
RTVSPost2010Prop57
140
1.0
102
RTVSPost2010PropOp57
 70
     1
  0
XRECORD
  5
6AF
102
{ACAD_REACTORS
330
6AE
102
}
330
6AE
100
AcDbXrecord
280
     1
102
RTVSPropertyOp0
 70
     1
102
RTVSPropertyOp1
 70
     1
102
RTVSPropertyOp2
 70
     1
102
RTVSPropertyOp3
 70
     1
102
RTVSPropertyOp4
 70
     1
102
RTVSPropertyOp5
 70
     1
102
RTVSPropertyOp6
 70
     1
102
RTVSPropertyOp7
 70
     1
102
RTVSPropertyOp8
 70
     1
102
RTVSPropertyOp9
 70
     1
102
RTVSPropertyOp10
 70
     1
102
RTVSPropertyOp11
 70
     1
102
RTVSPropertyOp12
 70
     1
102
RTVSPropertyOp13
 70
     1
102
RTVSPropertyOp14
 70
     1
102
RTVSPropertyOp15
 70
     1
102
RTVSPropertyOp16
 70
     1
102
RTVSPropertyOp17
 70
     1
102
RTVSPropertyOp18
 70
     1
102
RTVSPropertyOp19
 70
     1
102
RTVSPropertyOp20
 70
     1
102
RTVSPropertyOp21
 70
     1
102
RTVSPropertyOp22
 70
     1
102
RTVSPropertyOp23
 70
     1
102
RTVSPropertyOp24
 70
     1
102
RTVSPropertyOp25
 70
     1
102
RTVSPropertyOp26
 70
     1
102
RTVSPropertyOp27
 70
     1
102
RTVSPropertyOp28
 70
     1
102
RTVSPropertyOp29
 70
     1
102
RTVSPropertyOp30
 70
     1
102
RTVSPropertyOp31
 70
     1
102
RTVSPropertyOp32
 70
     1
102
RTVSPropertyOp33
 70
     1
102
RTVSPropertyOp34
 70
     1
102
RTVSPropertyOp35
 70
     1
102
RTVSPropertyOp36
 70
     1
102
RTVSPropertyOp37
 70
     1
102
RTVSPropertyOp38
 70
     1
102
RTVSPropertyOp39
 70
     1
102
RTVSPropertyOp40
 70
     1
102
RTVSPropertyOp41
 70
     1
102
RTVSPropertyOp42
 70
     1
102
RTVSPropertyOp43
 70
     1
102
RTVSPropertyOp44
 70
     1
102
RTVSPropertyOp45
 70
     1
102
RTVSPropertyOp46
 70
     1
102
RTVSPropertyOp47
 70
     1
102
RTVSPropertyOp48
 70
     1
102
RTVSPropertyOp49
 70
     1
102
RTVSPropertyOp50
 70
     1
102
RTVSPropertyOp51
 70
     0
102
RTVSPropertyOp52
 70
     0
102
RTVSPropertyOp53
 70
     1
102
RTVSPropertyOp54
 70
     1
102
RTVSPropertyOp55
 70
     1
102
RTVSPropertyOp56
 70
     1
102
RTVSPropertyOp57
 70
     1
102
RTVSPost2010Prop28
280
     0
102
RTVSPost2010PropOp28
 70
     1
102
RTVSPost2010Prop29
280
     1
102
RTVSPost2010PropOp29
 70
     1
102
RTVSPost2010Prop30
280
     1
102
RTVSPost2010PropOp30
 70
     1
102
RTVSPost2010Prop31
280
     0
102
RTVSPost2010PropOp31
 70
     1
102
RTVSPost2010Prop32
280
     0
102
RTVSPost2010PropOp32
 70
     1
102
RTVSPost2010Prop33
280
     0
102
RTVSPost2010PropOp33
 70
     1
102
RTVSPost2010Prop34
280
     0
102
RTVSPost2010PropOp34
 70
     1
102
RTVSPost2010Prop35
280
     0
102
RTVSPost2010PropOp35
 70
     1
102
RTVSPost2010Prop36
280
     0
102
RTVSPost2010PropOp36
 70
     1
102
RTVSPost2010Prop37
 90
       50
102
RTVSPost2010PropOp37
 70
     1
102
RTVSPost2010Prop38
140
0.0
102
RTVSPost2010PropOp38
 70
     1
102
RTVSPost2010Prop39
140
1.0
102
RTVSPost2010PropOp39
 70
     1
102
RTVSPost2010Prop40
 90
        0
102
RTVSPost2010PropOp40
 70
     1
102
RTVSPost2010Prop41ColorIndex
 90
       18
102
RTVSPost2010Prop41ColorRGB
 90
        0
102
RTVSPost2010PropOp41
 70
     1
102
RTVSPost2010Prop42
 90
       50
102
RTVSPost2010PropOp42
 70
     1
102
RTVSPost2010Prop43
 90
        3
102
RTVSPost2010PropOp43
 70
     1
102
RTVSPost2010Prop44ColorIndex
 90
        5
102
RTVSPost2010Prop44ColorRGB
 90
      255
102
RTVSPost2010PropOp44
 70
     1
102
RTVSPost2010Prop45
280
     0
102
RTVSPost2010PropOp45
 70
     1
102
RTVSPost2010Prop46
 90
       50
102
RTVSPost2010PropOp46
 70
     1
102
RTVSPost2010Prop47
 90
       50
102
RTVSPost2010PropOp47
 70
     1
102
RTVSPost2010Prop48
 90
       50
102
RTVSPost2010PropOp48
 70
     1
102
RTVSPost2010Prop49
280
     0
102
RTVSPost2010PropOp49
 70
     1
102
RTVSPost2010Prop50
 90
       50
102
RTVSPost2010PropOp50
 70
     1
102
RTVSPost2010Prop51ColorIndex
 90
      256
102
RTVSPost2010Prop51ColorRGB
 90
-16777216
102
RTVSPost2010PropOp51
 70
     0
102
RTVSPost2010Prop52
140
1.0
102
RTVSPost2010PropOp52
 70
     0
102
RTVSPost2010Prop53
 90
        2
102
RTVSPost2010PropOp53
 70
     1
102
RTVSPost2010Prop54
  1
strokes_ogs.tif
102
RTVSPost2010PropOp54
 70
     1
102
RTVSPost2010Prop55
280
     0
102
RTVSPost2010PropOp55
 70
     1
102
RTVSPost2010Prop56
140
1.0
102
RTVSPost2010PropOp56
 70
     1
102
RTVSPost2010Prop57
140
1.0
102
RTVSPost2010PropOp57
 70
     1
  0
XRECORD
  5
6B1
102
{ACAD_REACTORS
330
6B0
102
}
330
6B0
100
AcDbXrecord
280
     1
102
RTVSPropertyOp0
 70
     1
102
RTVSPropertyOp1
 70
     1
102
RTVSPropertyOp2
 70
     1
102
RTVSPropertyOp3
 70
     1
102
RTVSPropertyOp4
 70
     1
102
RTVSPropertyOp5
 70
     1
102
RTVSPropertyOp6
 70
     1
102
RTVSPropertyOp7
 70
     1
102
RTVSPropertyOp8
 70
     1
102
RTVSPropertyOp9
 70
     1
102
RTVSPropertyOp10
 70
     1
102
RTVSPropertyOp11
 70
     1
102
RTVSPropertyOp12
 70
     1
102
RTVSPropertyOp13
 70
     1
102
RTVSPropertyOp14
 70
     1
102
RTVSPropertyOp15
 70
     1
102
RTVSPropertyOp16
 70
     1
102
RTVSPropertyOp17
 70
     1
102
RTVSPropertyOp18
 70
     1
102
RTVSPropertyOp19
 70
     1
102
RTVSPropertyOp20
 70
     1
102
RTVSPropertyOp21
 70
     1
102
RTVSPropertyOp22
 70
     1
102
RTVSPropertyOp23
 70
     1
102
RTVSPropertyOp24
 70
     1
102
RTVSPropertyOp25
 70
     1
102
RTVSPropertyOp26
 70
     1
102
RTVSPropertyOp27
 70
     1
102
RTVSPropertyOp28
 70
     1
102
RTVSPropertyOp29
 70
     1
102
RTVSPropertyOp30
 70
     1
102
RTVSPropertyOp31
 70
     1
102
RTVSPropertyOp32
 70
     1
102
RTVSPropertyOp33
 70
     1
102
RTVSPropertyOp34
 70
     1
102
RTVSPropertyOp35
 70
     1
102
RTVSPropertyOp36
 70
     1
102
RTVSPropertyOp37
 70
     1
102
RTVSPropertyOp38
 70
     1
102
RTVSPropertyOp39
 70
     1
102
RTVSPropertyOp40
 70
     1
102
RTVSPropertyOp41
 70
     1
102
RTVSPropertyOp42
 70
     1
102
RTVSPropertyOp43
 70
     1
102
RTVSPropertyOp44
 70
     1
102
RTVSPropertyOp45
 70
     1
102
RTVSPropertyOp46
 70
     1
102
RTVSPropertyOp47
 70
     1
102
RTVSPropertyOp48
 70
     1
102
RTVSPropertyOp49
 70
     1
102
RTVSPropertyOp50
 70
     1
102
RTVSPropertyOp51
 70
     0
102
RTVSPropertyOp52
 70
     0
102
RTVSPropertyOp53
 70
     1
102
RTVSPropertyOp54
 70
     1
102
RTVSPropertyOp55
 70
     1
102
RTVSPropertyOp56
 70
     1
102
RTVSPropertyOp57
 70
     1
102
RTVSPost2010Prop28
280
     0
102
RTVSPost2010PropOp28
 70
     1
102
RTVSPost2010Prop29
280
     1
102
RTVSPost2010PropOp29
 70
     1
102
RTVSPost2010Prop30
280
     1
102
RTVSPost2010PropOp30
 70
     1
102
RTVSPost2010Prop31
280
     0
102
RTVSPost2010PropOp31
 70
     1
102
RTVSPost2010Prop32
280
     0
102
RTVSPost2010PropOp32
 70
     1
102
RTVSPost2010Prop33
280
     0
102
RTVSPost2010PropOp33
 70
     1
102
RTVSPost2010Prop34
280
     0
102
RTVSPost2010PropOp34
 70
     1
102
RTVSPost2010Prop35
280
     0
102
RTVSPost2010PropOp35
 70
     1
102
RTVSPost2010Prop36
280
     0
102
RTVSPost2010PropOp36
 70
     1
102
RTVSPost2010Prop37
 90
       50
102
RTVSPost2010PropOp37
 70
     1
102
RTVSPost2010Prop38
140
0.0
102
RTVSPost2010PropOp38
 70
     1
102
RTVSPost2010Prop39
140
1.0
102
RTVSPost2010PropOp39
 70
     1
102
RTVSPost2010Prop40
 90
        0
102
RTVSPost2010PropOp40
 70
     1
102
RTVSPost2010Prop41ColorIndex
 90
       18
102
RTVSPost2010Prop41ColorRGB
 90
        0
102
RTVSPost2010PropOp41
 70
     1
102
RTVSPost2010Prop42
 90
       50
102
RTVSPost2010PropOp42
 70
     1
102
RTVSPost2010Prop43
 90
        3
102
RTVSPost2010PropOp43
 70
     1
102
RTVSPost2010Prop44ColorIndex
 90
        5
102
RTVSPost2010Prop44ColorRGB
 90
      255
102
RTVSPost2010PropOp44
 70
     1
102
RTVSPost2010Prop45
280
     0
102
RTVSPost2010PropOp45
 70
     1
102
RTVSPost2010Prop46
 90
       50
102
RTVSPost2010PropOp46
 70
     1
102
RTVSPost2010Prop47
 90
       50
102
RTVSPost2010PropOp47
 70
     1
102
RTVSPost2010Prop48
 90
       50
102
RTVSPost2010PropOp48
 70
     1
102
RTVSPost2010Prop49
280
     0
102
RTVSPost2010PropOp49
 70
     1
102
RTVSPost2010Prop50
 90
       50
102
RTVSPost2010PropOp50
 70
     1
102
RTVSPost2010Prop51ColorIndex
 90
      256
102
RTVSPost2010Prop51ColorRGB
 90
-16777216
102
RTVSPost2010PropOp51
 70
     0
102
RTVSPost2010Prop52
140
1.0
102
RTVSPost2010PropOp52
 70
     0
102
RTVSPost2010Prop53
 90
        2
102
RTVSPost2010PropOp53
 70
     1
102
RTVSPost2010Prop54
  1
strokes_ogs.tif
102
RTVSPost2010PropOp54
 70
     1
102
RTVSPost2010Prop55
280
     0
102
RTVSPost2010PropOp55
 70
     1
102
RTVSPost2010Prop56
140
1.0
102
RTVSPost2010PropOp56
 70
     1
102
RTVSPost2010Prop57
140
1.0
102
RTVSPost2010PropOp57
 70
     1
  0
XRECORD
  5
6A1
102
{ACAD_REACTORS
330
6A0
102
}
330
6A0
100
AcDbXrecord
280
     1
102
RTVSPropertyOp0
 70
     1
102
RTVSPropertyOp1
 70
     1
102
RTVSPropertyOp2
 70
     1
102
RTVSPropertyOp3
 70
     1
102
RTVSPropertyOp4
 70
     1
102
RTVSPropertyOp5
 70
     1
102
RTVSPropertyOp6
 70
     1
102
RTVSPropertyOp7
 70
     1
102
RTVSPropertyOp8
 70
     1
102
RTVSPropertyOp9
 70
     1
102
RTVSPropertyOp10
 70
     1
102
RTVSPropertyOp11
 70
     1
102
RTVSPropertyOp12
 70
     1
102
RTVSPropertyOp13
 70
     1
102
RTVSPropertyOp14
 70
     1
102
RTVSPropertyOp15
 70
     1
102
RTVSPropertyOp16
 70
     1
102
RTVSPropertyOp17
 70
     1
102
RTVSPropertyOp18
 70
     1
102
RTVSPropertyOp19
 70
     1
102
RTVSPropertyOp20
 70
     1
102
RTVSPropertyOp21
 70
     1
102
RTVSPropertyOp22
 70
     1
102
RTVSPropertyOp23
 70
     1
102
RTVSPropertyOp24
 70
     1
102
RTVSPropertyOp25
 70
     1
102
RTVSPropertyOp26
 70
     1
102
RTVSPropertyOp27
 70
     1
102
RTVSPropertyOp28
 70
     1
102
RTVSPropertyOp29
 70
     1
102
RTVSPropertyOp30
 70
     1
102
RTVSPropertyOp31
 70
     1
102
RTVSPropertyOp32
 70
     1
102
RTVSPropertyOp33
 70
     1
102
RTVSPropertyOp34
 70
     1
102
RTVSPropertyOp35
 70
     1
102
RTVSPropertyOp36
 70
     1
102
RTVSPropertyOp37
 70
     1
102
RTVSPropertyOp38
 70
     1
102
RTVSPropertyOp39
 70
     1
102
RTVSPropertyOp40
 70
     1
102
RTVSPropertyOp41
 70
     1
102
RTVSPropertyOp42
 70
     1
102
RTVSPropertyOp43
 70
     1
102
RTVSPropertyOp44
 70
     1
102
RTVSPropertyOp45
 70
     1
102
RTVSPropertyOp46
 70
     1
102
RTVSPropertyOp47
 70
     1
102
RTVSPropertyOp48
 70
     1
102
RTVSPropertyOp49
 70
     1
102
RTVSPropertyOp50
 70
     1
102
RTVSPropertyOp51
 70
     0
102
RTVSPropertyOp52
 70
     0
102
RTVSPropertyOp53
 70
     1
102
RTVSPropertyOp54
 70
     1
102
RTVSPropertyOp55
 70
     1
102
RTVSPropertyOp56
 70
     1
102
RTVSPropertyOp57
 70
     1
102
RTVSPost2010Prop28
280
     0
102
RTVSPost2010PropOp28
 70
     1
102
RTVSPost2010Prop29
280
     1
102
RTVSPost2010PropOp29
 70
     1
102
RTVSPost2010Prop30
280
     1
102
RTVSPost2010PropOp30
 70
     1
102
RTVSPost2010Prop31
280
     0
102
RTVSPost2010PropOp31
 70
     1
102
RTVSPost2010Prop32
280
     0
102
RTVSPost2010PropOp32
 70
     1
102
RTVSPost2010Prop33
280
     0
102
RTVSPost2010PropOp33
 70
     1
102
RTVSPost2010Prop34
280
     0
102
RTVSPost2010PropOp34
 70
     1
102
RTVSPost2010Prop35
280
     0
102
RTVSPost2010PropOp35
 70
     1
102
RTVSPost2010Prop36
280
     0
102
RTVSPost2010PropOp36
 70
     1
102
RTVSPost2010Prop37
 90
       50
102
RTVSPost2010PropOp37
 70
     1
102
RTVSPost2010Prop38
140
0.0
102
RTVSPost2010PropOp38
 70
     1
102
RTVSPost2010Prop39
140
1.0
102
RTVSPost2010PropOp39
 70
     1
102
RTVSPost2010Prop40
 90
        0
102
RTVSPost2010PropOp40
 70
     1
102
RTVSPost2010Prop41ColorIndex
 90
       18
102
RTVSPost2010Prop41ColorRGB
 90
        0
102
RTVSPost2010PropOp41
 70
     1
102
RTVSPost2010Prop42
 90
       50
102
RTVSPost2010PropOp42
 70
     1
102
RTVSPost2010Prop43
 90
        3
102
RTVSPost2010PropOp43
 70
     1
102
RTVSPost2010Prop44ColorIndex
 90
        5
102
RTVSPost2010Prop44ColorRGB
 90
      255
102
RTVSPost2010PropOp44
 70
     1
102
RTVSPost2010Prop45
280
     0
102
RTVSPost2010PropOp45
 70
     1
102
RTVSPost2010Prop46
 90
       50
102
RTVSPost2010PropOp46
 70
     1
102
RTVSPost2010Prop47
 90
       50
102
RTVSPost2010PropOp47
 70
     1
102
RTVSPost2010Prop48
 90
       50
102
RTVSPost2010PropOp48
 70
     1
102
RTVSPost2010Prop49
280
     0
102
RTVSPost2010PropOp49
 70
     1
102
RTVSPost2010Prop50
 90
       50
102
RTVSPost2010PropOp50
 70
     1
102
RTVSPost2010Prop51ColorIndex
 90
      256
102
RTVSPost2010Prop51ColorRGB
 90
-16777216
102
RTVSPost2010PropOp51
 70
     0
102
RTVSPost2010Prop52
140
1.0
102
RTVSPost2010PropOp52
 70
     0
102
RTVSPost2010Prop53
 90
        2
102
RTVSPost2010PropOp53
 70
     1
102
RTVSPost2010Prop54
  1
strokes_ogs.tif
102
RTVSPost2010PropOp54
 70
     1
102
RTVSPost2010Prop55
280
     0
102
RTVSPost2010PropOp55
 70
     1
102
RTVSPost2010Prop56
140
1.0
102
RTVSPost2010PropOp56
 70
     1
102
RTVSPost2010Prop57
140
1.0
102
RTVSPost2010PropOp57
 70
     1
  0
XRECORD
  5
693
102
{ACAD_REACTORS
330
692
102
}
330
692
100
AcDbXrecord
280
     1
102
RTVSPropertyOp0
 70
     1
102
RTVSPropertyOp1
 70
     1
102
RTVSPropertyOp2
 70
     1
102
RTVSPropertyOp3
 70
     1
102
RTVSPropertyOp4
 70
     1
102
RTVSPropertyOp5
 70
     1
102
RTVSPropertyOp6
 70
     1
102
RTVSPropertyOp7
 70
     1
102
RTVSPropertyOp8
 70
     1
102
RTVSPropertyOp9
 70
     1
102
RTVSPropertyOp10
 70
     1
102
RTVSPropertyOp11
 70
     1
102
RTVSPropertyOp12
 70
     1
102
RTVSPropertyOp13
 70
     1
102
RTVSPropertyOp14
 70
     1
102
RTVSPropertyOp15
 70
     1
102
RTVSPropertyOp16
 70
     1
102
RTVSPropertyOp17
 70
     1
102
RTVSPropertyOp18
 70
     1
102
RTVSPropertyOp19
 70
     1
102
RTVSPropertyOp20
 70
     1
102
RTVSPropertyOp21
 70
     1
102
RTVSPropertyOp22
 70
     1
102
RTVSPropertyOp23
 70
     1
102
RTVSPropertyOp24
 70
     1
102
RTVSPropertyOp25
 70
     1
102
RTVSPropertyOp26
 70
     1
102
RTVSPropertyOp27
 70
     1
102
RTVSPropertyOp28
 70
     1
102
RTVSPropertyOp29
 70
     1
102
RTVSPropertyOp30
 70
     1
102
RTVSPropertyOp31
 70
     1
102
RTVSPropertyOp32
 70
     1
102
RTVSPropertyOp33
 70
     1
102
RTVSPropertyOp34
 70
     1
102
RTVSPropertyOp35
 70
     1
102
RTVSPropertyOp36
 70
     1
102
RTVSPropertyOp37
 70
     1
102
RTVSPropertyOp38
 70
     1
102
RTVSPropertyOp39
 70
     1
102
RTVSPropertyOp40
 70
     1
102
RTVSPropertyOp41
 70
     1
102
RTVSPropertyOp42
 70
     1
102
RTVSPropertyOp43
 70
     1
102
RTVSPropertyOp44
 70
     1
102
RTVSPropertyOp45
 70
     1
102
RTVSPropertyOp46
 70
     1
102
RTVSPropertyOp47
 70
     1
102
RTVSPropertyOp48
 70
     1
102
RTVSPropertyOp49
 70
     1
102
RTVSPropertyOp50
 70
     1
102
RTVSPropertyOp51
 70
     0
102
RTVSPropertyOp52
 70
     0
102
RTVSPropertyOp53
 70
     1
102
RTVSPropertyOp54
 70
     1
102
RTVSPropertyOp55
 70
     1
102
RTVSPropertyOp56
 70
     1
102
RTVSPropertyOp57
 70
     1
102
RTVSPost2010Prop28
280
     0
102
RTVSPost2010PropOp28
 70
     1
102
RTVSPost2010Prop29
280
     1
102
RTVSPost2010PropOp29
 70
     1
102
RTVSPost2010Prop30
280
     1
102
RTVSPost2010PropOp30
 70
     1
102
RTVSPost2010Prop31
280
     0
102
RTVSPost2010PropOp31
 70
     1
102
RTVSPost2010Prop32
280
     0
102
RTVSPost2010PropOp32
 70
     1
102
RTVSPost2010Prop33
280
     0
102
RTVSPost2010PropOp33
 70
     1
102
RTVSPost2010Prop34
280
     0
102
RTVSPost2010PropOp34
 70
     1
102
RTVSPost2010Prop35
280
     0
102
RTVSPost2010PropOp35
 70
     1
102
RTVSPost2010Prop36
280
     0
102
RTVSPost2010PropOp36
 70
     1
102
RTVSPost2010Prop37
 90
       50
102
RTVSPost2010PropOp37
 70
     1
102
RTVSPost2010Prop38
140
0.0
102
RTVSPost2010PropOp38
 70
     1
102
RTVSPost2010Prop39
140
1.0
102
RTVSPost2010PropOp39
 70
     1
102
RTVSPost2010Prop40
 90
        0
102
RTVSPost2010PropOp40
 70
     1
102
RTVSPost2010Prop41ColorIndex
 90
       18
102
RTVSPost2010Prop41ColorRGB
 90
        0
102
RTVSPost2010PropOp41
 70
     1
102
RTVSPost2010Prop42
 90
       50
102
RTVSPost2010PropOp42
 70
     1
102
RTVSPost2010Prop43
 90
        3
102
RTVSPost2010PropOp43
 70
     1
102
RTVSPost2010Prop44ColorIndex
 90
        5
102
RTVSPost2010Prop44ColorRGB
 90
      255
102
RTVSPost2010PropOp44
 70
     1
102
RTVSPost2010Prop45
280
     0
102
RTVSPost2010PropOp45
 70
     1
102
RTVSPost2010Prop46
 90
       50
102
RTVSPost2010PropOp46
 70
     1
102
RTVSPost2010Prop47
 90
       50
102
RTVSPost2010PropOp47
 70
     1
102
RTVSPost2010Prop48
 90
       50
102
RTVSPost2010PropOp48
 70
     1
102
RTVSPost2010Prop49
280
     0
102
RTVSPost2010PropOp49
 70
     1
102
RTVSPost2010Prop50
 90
       50
102
RTVSPost2010PropOp50
 70
     1
102
RTVSPost2010Prop51ColorIndex
 90
      256
102
RTVSPost2010Prop51ColorRGB
 90
-16777216
102
RTVSPost2010PropOp51
 70
     0
102
RTVSPost2010Prop52
140
1.0
102
RTVSPost2010PropOp52
 70
     0
102
RTVSPost2010Prop53
 90
        2
102
RTVSPost2010PropOp53
 70
     1
102
RTVSPost2010Prop54
  1
strokes_ogs.tif
102
RTVSPost2010PropOp54
 70
     1
102
RTVSPost2010Prop55
280
     0
102
RTVSPost2010PropOp55
 70
     1
102
RTVSPost2010Prop56
140
1.0
102
RTVSPost2010PropOp56
 70
     1
102
RTVSPost2010Prop57
140
1.0
102
RTVSPost2010PropOp57
 70
     1
  0
XRECORD
  5
6B3
102
{ACAD_REACTORS
330
6B2
102
}
330
6B2
100
AcDbXrecord
280
     1
102
RTVSPropertyOp0
 70
     1
102
RTVSPropertyOp1
 70
     1
102
RTVSPropertyOp2
 70
     1
102
RTVSPropertyOp3
 70
     1
102
RTVSPropertyOp4
 70
     1
102
RTVSPropertyOp5
 70
     1
102
RTVSPropertyOp6
 70
     1
102
RTVSPropertyOp7
 70
     1
102
RTVSPropertyOp8
 70
     1
102
RTVSPropertyOp9
 70
     1
102
RTVSPropertyOp10
 70
     1
102
RTVSPropertyOp11
 70
     1
102
RTVSPropertyOp12
 70
     1
102
RTVSPropertyOp13
 70
     1
102
RTVSPropertyOp14
 70
     1
102
RTVSPropertyOp15
 70
     1
102
RTVSPropertyOp16
 70
     1
102
RTVSPropertyOp17
 70
     1
102
RTVSPropertyOp18
 70
     1
102
RTVSPropertyOp19
 70
     1
102
RTVSPropertyOp20
 70
     1
102
RTVSPropertyOp21
 70
     1
102
RTVSPropertyOp22
 70
     1
102
RTVSPropertyOp23
 70
     1
102
RTVSPropertyOp24
 70
     1
102
RTVSPropertyOp25
 70
     1
102
RTVSPropertyOp26
 70
     1
102
RTVSPropertyOp27
 70
     1
102
RTVSPropertyOp28
 70
     1
102
RTVSPropertyOp29
 70
     1
102
RTVSPropertyOp30
 70
     1
102
RTVSPropertyOp31
 70
     1
102
RTVSPropertyOp32
 70
     1
102
RTVSPropertyOp33
 70
     1
102
RTVSPropertyOp34
 70
     1
102
RTVSPropertyOp35
 70
     1
102
RTVSPropertyOp36
 70
     1
102
RTVSPropertyOp37
 70
     1
102
RTVSPropertyOp38
 70
     1
102
RTVSPropertyOp39
 70
     1
102
RTVSPropertyOp40
 70
     1
102
RTVSPropertyOp41
 70
     1
102
RTVSPropertyOp42
 70
     1
102
RTVSPropertyOp43
 70
     1
102
RTVSPropertyOp44
 70
     1
102
RTVSPropertyOp45
 70
     1
102
RTVSPropertyOp46
 70
     1
102
RTVSPropertyOp47
 70
     1
102
RTVSPropertyOp48
 70
     1
102
RTVSPropertyOp49
 70
     1
102
RTVSPropertyOp50
 70
     1
102
RTVSPropertyOp51
 70
     0
102
RTVSPropertyOp52
 70
     0
102
RTVSPropertyOp53
 70
     1
102
RTVSPropertyOp54
 70
     1
102
RTVSPropertyOp55
 70
     1
102
RTVSPropertyOp56
 70
     1
102
RTVSPropertyOp57
 70
     1
102
RTVSPost2010Prop28
280
     0
102
RTVSPost2010PropOp28
 70
     1
102
RTVSPost2010Prop29
280
     1
102
RTVSPost2010PropOp29
 70
     1
102
RTVSPost2010Prop30
280
     1
102
RTVSPost2010PropOp30
 70
     1
102
RTVSPost2010Prop31
280
     0
102
RTVSPost2010PropOp31
 70
     1
102
RTVSPost2010Prop32
280
     0
102
RTVSPost2010PropOp32
 70
     1
102
RTVSPost2010Prop33
280
     0
102
RTVSPost2010PropOp33
 70
     1
102
RTVSPost2010Prop34
280
     0
102
RTVSPost2010PropOp34
 70
     1
102
RTVSPost2010Prop35
280
     0
102
RTVSPost2010PropOp35
 70
     1
102
RTVSPost2010Prop36
280
     0
102
RTVSPost2010PropOp36
 70
     1
102
RTVSPost2010Prop37
 90
       50
102
RTVSPost2010PropOp37
 70
     1
102
RTVSPost2010Prop38
140
0.0
102
RTVSPost2010PropOp38
 70
     1
102
RTVSPost2010Prop39
140
1.0
102
RTVSPost2010PropOp39
 70
     1
102
RTVSPost2010Prop40
 90
        0
102
RTVSPost2010PropOp40
 70
     1
102
RTVSPost2010Prop41ColorIndex
 90
       18
102
RTVSPost2010Prop41ColorRGB
 90
        0
102
RTVSPost2010PropOp41
 70
     1
102
RTVSPost2010Prop42
 90
       50
102
RTVSPost2010PropOp42
 70
     1
102
RTVSPost2010Prop43
 90
        3
102
RTVSPost2010PropOp43
 70
     1
102
RTVSPost2010Prop44ColorIndex
 90
        5
102
RTVSPost2010Prop44ColorRGB
 90
      255
102
RTVSPost2010PropOp44
 70
     1
102
RTVSPost2010Prop45
280
     0
102
RTVSPost2010PropOp45
 70
     1
102
RTVSPost2010Prop46
 90
       50
102
RTVSPost2010PropOp46
 70
     1
102
RTVSPost2010Prop47
 90
       50
102
RTVSPost2010PropOp47
 70
     1
102
RTVSPost2010Prop48
 90
       50
102
RTVSPost2010PropOp48
 70
     1
102
RTVSPost2010Prop49
280
     0
102
RTVSPost2010PropOp49
 70
     1
102
RTVSPost2010Prop50
 90
       50
102
RTVSPost2010PropOp50
 70
     1
102
RTVSPost2010Prop51ColorIndex
 90
      256
102
RTVSPost2010Prop51ColorRGB
 90
-16777216
102
RTVSPost2010PropOp51
 70
     0
102
RTVSPost2010Prop52
140
1.0
102
RTVSPost2010PropOp52
 70
     0
102
RTVSPost2010Prop53
 90
        2
102
RTVSPost2010PropOp53
 70
     1
102
RTVSPost2010Prop54
  1
strokes_ogs.tif
102
RTVSPost2010PropOp54
 70
     1
102
RTVSPost2010Prop55
280
     0
102
RTVSPost2010PropOp55
 70
     1
102
RTVSPost2010Prop56
140
1.0
102
RTVSPost2010PropOp56
 70
     1
102
RTVSPost2010Prop57
140
1.0
102
RTVSPost2010PropOp57
 70
     1
  0
ENDSEC
  0
EOF
