0
SECTION
2
HEADER
9
$INSUNITS
70
4
9
$ACADVER
1
AC1014
9
$HANDSEED
5
FFFF
0
ENDSEC
0
SECTION
2
TABLES
0
TABLE
2
VPORT
5
8
100
AcDbSymbolTable
0
ENDTAB
0
TABLE
2
LTYPE
5
5
100
AcDbSymbolTable
0
LTYPE
5
14
100
AcDbSymbolTableRecord
100
AcDbLinetypeTableRecord
2
BYBLOCK
70
0
0
LTYPE
5
15
100
AcDbSymbolTableRecord
100
AcDbLinetypeTableRecord
2
BYLAYER
70
0
0
ENDTAB
0
TABLE
2
LAYER
5
2
100
AcDbSymbolTable
70
2
0
LAYER
5
50
100
AcDbSymbolTableRecord
100
AcDbLayerTableRecord
2
0
70
0
6
CONTINUOUS
0
ENDTAB
0
TABLE
2
STYLE
5
3
100
AcDbSymbolTable
70
1
0
STYLE
5
11
100
AcDbSymbolTableRecord
100
AcDbTextStyleTableRecord
2
STANDARD
70
0
0
ENDTAB
0
TABLE
2
VIEW
5
6
100
AcDbSymbolTable
70
0
0
ENDTAB
0
TABLE
2
UCS
5
7
100
AcDbSymbolTable
70
0
0
ENDTAB
0
TABLE
2
APPID
5
9
100
AcDbSymbolTable
70
2
0
APPID
5
12
100
AcDbSymbolTableRecord
100
AcDbRegAppTableRecord
2
ACAD
70
0
0
ENDTAB
0
TABLE
2
DIMSTYLE
5
A
100
AcDbSymbolTable
70
1
0
ENDTAB
0
TABLE
2
BLOCK_RECORD
5
1
100
AcDbSymbolTable
70
1
0
BLOCK_RECORD
5
1F
100
AcDbSymbolTableRecord
100
AcDbBlockTableRecord
2
*MODEL_SPACE
0
BLOCK_RECORD
5
1B
100
AcDbSymbolTableRecord
100
AcDbBlockTableRecord
2
*PAPER_SPACE
0
ENDTAB
0
ENDSEC
0
SECTION
2
BLOCKS
0
BLOCK
5
20
100
AcDbEntity
100
AcDbBlockBegin
2
*MODEL_SPACE
0
ENDBLK
5
21
100
AcDbEntity
100
AcDbBlockEnd
0
BLOCK
5
1C
100
AcDbEntity
100
AcDbBlockBegin
2
*PAPER_SPACE
0
ENDBLK
5
1D
100
AcDbEntity
100
AcDbBlockEnd
0
ENDSEC
0
SECTION
2
ENTITIES
0
LWPOLYLINE
5
100
100
AcDbEntity
8
0
100
AcDbPolyline
90
14
70
1
43
0.0
10
-56.500000000000021
20
62.500000000000533
42
0.41421356237309503
10
-62.500000000000014
20
56.50000000000054
10
-62.499999999999964
20
-14.999999999999966
42
0.34345644232006878
10
-26.969665883885611
20
-60.623097044843689
42
0.4886973161155268
10
-19.500000000000028
20
-54.805874151594466
10
-19.500000000000025
20
-53.881397208143952
42
-0.4142135623730947
10
-17.500000000000028
20
-51.881397208143952
10
17.500000000000036
20
-51.881397208143952
42
-0.41421356237309404
10
19.500000000000032
20
-53.881397208143952
10
19.500000000000032
20
-54.805874151594011
42
0.48869731611552714
10
26.969665883885625
20
-60.62309704484322
42
0.34345644232006789
10
62.499999999999545
20
-15.000000000000009
10
62.500000000000071
20
56.50000000000049
42
0.41421356237309548
10
56.500000000000071
20
62.500000000000504
0
CIRCLE
5
101
100
AcDbEntity
8
0
100
AcDbCircle
10
1.76281910439136e-13
20
-39.999999999999673
30
0
40
4.25
210
0
220
0
230
1
0
CIRCLE
5
102
100
AcDbEntity
8
0
100
AcDbCircle
10
55.000000000000014
20
-9.9999999999999982
30
0
40
4.2499999999999982
210
0
220
0
230
1
0
CIRCLE
5
103
100
AcDbEntity
8
0
100
AcDbCircle
10
27.500000000000028
20
-47.631397208143952
30
0
40
4.2499999999999982
210
0
220
0
230
1
0
CIRCLE
5
104
100
AcDbEntity
8
0
100
AcDbCircle
10
-54.999999999999964
20
27.500000000000632
30
0
40
4.2499999999999982
210
0
220
0
230
1
0
CIRCLE
5
105
100
AcDbEntity
8
0
100
AcDbCircle
10
27.500000000000028
20
55.000000000000554
30
0
40
4.2499999999999982
210
0
220
0
230
1
0
CIRCLE
5
106
100
AcDbEntity
8
0
100
AcDbCircle
10
-54.999999999999986
20
-9.9999999999999716
30
0
40
4.2499999999999982
210
0
220
0
230
1
0
CIRCLE
5
107
100
AcDbEntity
8
0
100
AcDbCircle
10
0
20
40
30
0
40
5.5
210
0
220
0
230
1
0
CIRCLE
5
108
100
AcDbEntity
8
0
100
AcDbCircle
10
-27.500000000000018
20
-47.631397208143945
30
0
40
4.2499999999999982
210
0
220
0
230
1
0
CIRCLE
5
109
100
AcDbEntity
8
0
100
AcDbCircle
10
-27.499999999999972
20
55.000000000000568
30
0
40
4.2499999999999982
210
0
220
0
230
1
0
CIRCLE
5
110
100
AcDbEntity
8
0
100
AcDbCircle
10
55.000000000000014
20
27.500000000000604
30
0
40
4.2499999999999982
210
0
220
0
230
1
0
LWPOLYLINE
5
111
100
AcDbEntity
8
0
100
AcDbPolyline
90
14
70
1
43
0.0
10
149.50000000000003
20
-54.805874151594011
42
0.48869731611552664
10
156.96966588388563
20
-60.62309704484322
42
0.34345644232006789
10
192.49999999999955
20
-15.000000000000009
10
192.50000000000006
20
56.50000000000049
42
0.41421356237309548
10
186.50000000000006
20
62.500000000000504
10
73.499999999999972
20
62.500000000000533
42
0.41421356237309503
10
67.499999999999986
20
56.50000000000054
10
67.500000000000028
20
-14.999999999999966
42
0.34345644232006878
10
103.03033411611439
20
-60.623097044843689
42
0.48869731611552658
10
110.49999999999997
20
-54.805874151594466
10
110.49999999999997
20
-53.881397208143952
42
-0.41421356237309243
10
112.49999999999997
20
-51.881397208143952
10
147.50000000000003
20
-51.881397208143966
42
-0.41421356237309503
10
149.50000000000003
20
-53.881397208143952
0
CIRCLE
5
112
100
AcDbEntity
8
0
100
AcDbCircle
10
130
20
40
30
0
40
5.5
210
0
220
0
230
1
0
CIRCLE
5
113
100
AcDbEntity
8
0
100
AcDbCircle
10
185
20
-9.9999999999999982
30
0
40
4.2499999999999982
210
0
220
0
230
1
0
CIRCLE
5
114
100
AcDbEntity
8
0
100
AcDbCircle
10
75.000000000000028
20
27.500000000000632
30
0
40
4.2499999999999982
210
0
220
0
230
1
0
CIRCLE
5
115
100
AcDbEntity
8
0
100
AcDbCircle
10
75.000000000000014
20
-9.9999999999999716
30
0
40
4.2499999999999982
210
0
220
0
230
1
0
CIRCLE
5
116
100
AcDbEntity
8
0
100
AcDbCircle
10
185
20
27.500000000000604
30
0
40
4.2499999999999982
210
0
220
0
230
1
0
CIRCLE
5
117
100
AcDbEntity
8
0
100
AcDbCircle
10
102.50000000000003
20
55.000000000000568
30
0
40
4.2499999999999982
210
0
220
0
230
1
0
CIRCLE
5
118
100
AcDbEntity
8
0
100
AcDbCircle
10
157.50000000000003
20
55.000000000000554
30
0
40
4.2499999999999982
210
0
220
0
230
1
0
CIRCLE
5
119
100
AcDbEntity
8
0
100
AcDbCircle
10
157.50000000000003
20
-47.631397208143952
30
0
40
4.2499999999999982
210
0
220
0
230
1
0
CIRCLE
5
120
100
AcDbEntity
8
0
100
AcDbCircle
10
102.49999999999999
20
-47.631397208143945
30
0
40
4.2499999999999982
210
0
220
0
230
1
0
ENDSEC
0
SECTION
2
OBJECTS
0
DICTIONARY
5
C
100
AcDbDictionary
3
ACAD_GROUP
350
D
3
ACAD_MLINESTYLE
350
17
0
DICTIONARY
5
D
100
AcDbDictionary
0
DICTIONARY
5
1A
330
C
100
AcDbDictionary
0
DICTIONARY
5
17
100
AcDbDictionary
0
ENDSEC
0
EOF
