  0
SECTION
  2
HEADER
  9
$ACADVER
  1
AC1032
  9
$ACADMAINTVER
 90
      228
  9
$DWGCODEPAGE
  3
ANSI_1252
  9
$REQUIREDVERSIONS
160
                 0
  9
$INSBASE
 10
0.0
 20
0.0
 30
0.0
  9
$EXTMIN
 10
1.000000000000000E+20
 20
1.000000000000000E+20
 30
1.000000000000000E+20
  9
$EXTMAX
 10
-1.000000000000000E+20
 20
-1.000000000000000E+20
 30
-1.000000000000000E+20
  9
$LIMMIN
 10
0.0
 20
0.0
  9
$LIMMAX
 10
12.0
 20
9.0
  9
$ORTHOMODE
 70
     0
  9
$REGENMODE
 70
     1
  9
$FILLMODE
 70
     1
  9
$QTEXTMODE
 70
     0
  9
$MIRRTEXT
 70
     0
  9
$LTSCALE
 40
1.0
  9
$ATTMODE
 70
     1
  9
$TEXTSIZE
 40
0.2
  9
$TRACEWID
 40
0.05
  9
$TEXTSTYLE
  7
Standard
  9
$CLAYER
  8
0
  9
$CELTYPE
  6
ByLayer
  9
$CECOLOR
 62
   256
  9
$CELTSCALE
 40
1.0
  9
$DISPSILH
 70
     0
  9
$DIMSCALE
 40
1.0
  9
$DIMASZ
 40
0.18
  9
$DIMEXO
 40
0.0625
  9
$DIMDLI
 40
0.38
  9
$DIMRND
 40
0.0
  9
$DIMDLE
 40
0.0
  9
$DIMEXE
 40
0.18
  9
$DIMTP
 40
0.0
  9
$DIMTM
 40
0.0
  9
$DIMTXT
 40
0.18
  9
$DIMCEN
 40
0.09
  9
$DIMTSZ
 40
0.0
  9
$DIMTOL
 70
     0
  9
$DIMLIM
 70
     0
  9
$DIMTIH
 70
     1
  9
$DIMTOH
 70
     1
  9
$DIMSE1
 70
     0
  9
$DIMSE2
 70
     0
  9
$DIMTAD
 70
     0
  9
$DIMZIN
 70
     0
  9
$DIMBLK
  1

  9
$DIMASO
 70
     1
  9
$DIMSHO
 70
     1
  9
$DIMPOST
  1

  9
$DIMAPOST
  1

  9
$DIMALT
 70
     0
  9
$DIMALTD
 70
     2
  9
$DIMALTF
 40
25.4
  9
$DIMLFAC
 40
1.0
  9
$DIMTOFL
 70
     0
  9
$DIMTVP
 40
0.0
  9
$DIMTIX
 70
     0
  9
$DIMSOXD
 70
     0
  9
$DIMSAH
 70
     0
  9
$DIMBLK1
  1

  9
$DIMBLK2
  1

  9
$DIMSTYLE
  2
Standard
  9
$DIMCLRD
 70
     0
  9
$DIMCLRE
 70
     0
  9
$DIMCLRT
 70
     0
  9
$DIMTFAC
 40
1.0
  9
$DIMGAP
 40
0.09
  9
$DIMJUST
 70
     0
  9
$DIMSD1
 70
     0
  9
$DIMSD2
 70
     0
  9
$DIMTOLJ
 70
     1
  9
$DIMTZIN
 70
     0
  9
$DIMALTZ
 70
     0
  9
$DIMALTTZ
 70
     0
  9
$DIMUPT
 70
     0
  9
$DIMDEC
 70
     4
  9
$DIMTDEC
 70
     4
  9
$DIMALTU
 70
     2
  9
$DIMALTTD
 70
     2
  9
$DIMTXSTY
  7
Standard
  9
$DIMAUNIT
 70
     0
  9
$DIMADEC
 70
     0
  9
$DIMALTRND
 40
0.0
  9
$DIMAZIN
 70
     0
  9
$DIMDSEP
 70
    46
  9
$DIMATFIT
 70
     3
  9
$DIMFRAC
 70
     0
  9
$DIMLDRBLK
  1

  9
$DIMLUNIT
 70
     2
  9
$DIMLWD
 70
    -2
  9
$DIMLWE
 70
    -2
  9
$DIMTMOVE
 70
     0
  9
$DIMFXL
 40
1.0
  9
$DIMFXLON
 70
     0
  9
$DIMJOGANG
 40
0.7853981633974483
  9
$DIMTFILL
 70
     0
  9
$DIMTFILLCLR
 70
     0
  9
$DIMARCSYM
 70
     0
  9
$DIMLTYPE
  6

  9
$DIMLTEX1
  6

  9
$DIMLTEX2
  6

  9
$DIMTXTDIRECTION
 70
     0
  9
$LUNITS
 70
     2
  9
$LUPREC
 70
     4
  9
$SKETCHINC
 40
0.1
  9
$FILLETRAD
 40
0.0
  9
$AUNITS
 70
     0
  9
$AUPREC
 70
     0
  9
$MENU
  1
.
  9
$ELEVATION
 40
0.0
  9
$PELEVATION
 40
0.0
  9
$THICKNESS
 40
0.0
  9
$LIMCHECK
 70
     0
  9
$CHAMFERA
 40
0.0
  9
$CHAMFERB
 40
0.0
  9
$CHAMFERC
 40
0.0
  9
$CHAMFERD
 40
0.0
  9
$SKPOLY
 70
     0
  9
$TDCREATE
 40
2460455.585208334
  9
$TDUCREATE
 40
2460455.356041667
  9
$TDUPDATE
 40
2460455.585208334
  9
$TDUUPDATE
 40
2460455.356041667
  9
$TDINDWG
 40
0.0000000000
  9
$TDUSRTIMER
 40
0.0000000000
  9
$USRTIMER
 70
     1
  9
$ANGBASE
 50
0.0
  9
$ANGDIR
 70
     0
  9
$PDMODE
 70
     0
  9
$PDSIZE
 40
0.0
  9
$PLINEWID
 40
0.0
  9
$SPLFRAME
 70
     0
  9
$SPLINETYPE
 70
     6
  9
$SPLINESEGS
 70
     8
  9
$HANDSEED
  5
AC
  9
$SURFTAB1
 70
     6
  9
$SURFTAB2
 70
     6
  9
$SURFTYPE
 70
     6
  9
$SURFU
 70
     6
  9
$SURFV
 70
     6
  9
$UCSBASE
  2

  9
$UCSNAME
  2

  9
$UCSORG
 10
0.0
 20
0.0
 30
0.0
  9
$UCSXDIR
 10
1.0
 20
0.0
 30
0.0
  9
$UCSYDIR
 10
0.0
 20
1.0
 30
0.0
  9
$UCSORTHOREF
  2

  9
$UCSORTHOVIEW
 70
     0
  9
$UCSORGTOP
 10
0.0
 20
0.0
 30
0.0
  9
$UCSORGBOTTOM
 10
0.0
 20
0.0
 30
0.0
  9
$UCSORGLEFT
 10
0.0
 20
0.0
 30
0.0
  9
$UCSORGRIGHT
 10
0.0
 20
0.0
 30
0.0
  9
$UCSORGFRONT
 10
0.0
 20
0.0
 30
0.0
  9
$UCSORGBACK
 10
0.0
 20
0.0
 30
0.0
  9
$PUCSBASE
  2

  9
$PUCSNAME
  2

  9
$PUCSORG
 10
0.0
 20
0.0
 30
0.0
  9
$PUCSXDIR
 10
1.0
 20
0.0
 30
0.0
  9
$PUCSYDIR
 10
0.0
 20
1.0
 30
0.0
  9
$PUCSORTHOREF
  2

  9
$PUCSORTHOVIEW
 70
     0
  9
$PUCSORGTOP
 10
0.0
 20
0.0
 30
0.0
  9
$PUCSORGBOTTOM
 10
0.0
 20
0.0
 30
0.0
  9
$PUCSORGLEFT
 10
0.0
 20
0.0
 30
0.0
  9
$PUCSORGRIGHT
 10
0.0
 20
0.0
 30
0.0
  9
$PUCSORGFRONT
 10
0.0
 20
0.0
 30
0.0
  9
$PUCSORGBACK
 10
0.0
 20
0.0
 30
0.0
  9
$USERI1
 70
     0
  9
$USERI2
 70
     0
  9
$USERI3
 70
     0
  9
$USERI4
 70
     0
  9
$USERI5
 70
     0
  9
$USERR1
 40
0.0
  9
$USERR2
 40
0.0
  9
$USERR3
 40
0.0
  9
$USERR4
 40
0.0
  9
$USERR5
 40
0.0
  9
$WORLDVIEW
 70
     1
  9
$SHADEDGE
 70
     3
  9
$SHADEDIF
 70
    70
  9
$TILEMODE
 70
     1
  9
$MAXACTVP
 70
    64
  9
$PINSBASE
 10
0.0
 20
0.0
 30
0.0
  9
$PLIMCHECK
 70
     0
  9
$PEXTMIN
 10
1.000000000000000E+20
 20
1.000000000000000E+20
 30
1.000000000000000E+20
  9
$PEXTMAX
 10
-1.000000000000000E+20
 20
-1.000000000000000E+20
 30
-1.000000000000000E+20
  9
$PLIMMIN
 10
0.0
 20
0.0
  9
$PLIMMAX
 10
12.0
 20
9.0
  9
$UNITMODE
 70
     0
  9
$VISRETAIN
 70
     1
  9
$PLINEGEN
 70
     0
  9
$PSLTSCALE
 70
     1
  9
$TREEDEPTH
 70
  3020
  9
$CMLSTYLE
  2
Standard
  9
$CMLJUST
 70
     0
  9
$CMLSCALE
 40
1.0
  9
$PROXYGRAPHICS
 70
     1
  9
$MEASUREMENT
 70
     0
  9
$CELWEIGHT
370
    -1
  9
$ENDCAPS
280
     0
  9
$JOINSTYLE
280
     0
  9
$LWDISPLAY
290
     1
  9
$INSUNITS
 70
     4
  9
$HYPERLINKBASE
  1

  9
$STYLESHEET
  1

  9
$XEDIT
290
     1
  9
$CEPSNTYPE
380
     0
  9
$PSTYLEMODE
290
     1
  9
$FINGERPRINTGUID
  2
{75C08C66-2299-974D-8DE4-298EDA20F721}
  9
$VERSIONGUID
  2
{0615C577-4DFA-BB45-9895-0AFCD32C8729}
  9
$EXTNAMES
290
     1
  9
$PSVPSCALE
 40
0.0
  9
$OLESTARTUP
290
     0
  9
$SORTENTS
280
   127
  9
$INDEXCTL
280
     0
  9
$HIDETEXT
280
     1
  9
$XCLIPFRAME
280
     2
  9
$HALOGAP
280
     0
  9
$OBSCOLOR
 70
   257
  9
$OBSLTYPE
280
     0
  9
$INTERSECTIONDISPLAY
280
     0
  9
$INTERSECTIONCOLOR
 70
   257
  9
$DIMASSOC
280
     2
  9
$PROJECTNAME
  1

  9
$CAMERADISPLAY
290
     0
  9
$LENSLENGTH
 40
50.0
  9
$CAMERAHEIGHT
 40
0.0
  9
$STEPSPERSEC
 40
2.0
  9
$STEPSIZE
 40
6.0
  9
$3DDWFPREC
 40
2.0
  9
$PSOLWIDTH
 40
0.25
  9
$PSOLHEIGHT
 40
4.0
  9
$LOFTANG1
 40
1.570796326794896
  9
$LOFTANG2
 40
1.570796326794896
  9
$LOFTMAG1
 40
0.0
  9
$LOFTMAG2
 40
0.0
  9
$LOFTPARAM
 70
     7
  9
$LOFTNORMALS
280
     1
  9
$LATITUDE
 40
37.795
  9
$LONGITUDE
 40
-122.394
  9
$NORTHDIRECTION
 40
0.0
  9
$TIMEZONE
 70
 -8000
  9
$LIGHTGLYPHDISPLAY
280
     1
  9
$TILEMODELIGHTSYNCH
280
     1
  9
$CMATERIAL
347
11
  9
$SOLIDHIST
280
     0
  9
$SHOWHIST
280
     1
  9
$DWFFRAME
280
     2
  9
$DGNFRAME
280
     0
  9
$REALWORLDSCALE
290
     1
  9
$INTERFERECOLOR
 62
     1
  9
$INTERFEREOBJVS
345
33
  9
$INTERFEREVPVS
346
30
  9
$CSHADOW
280
     0
  9
$SHADOWPLANELOCATION
 40
0.0
  0
ENDSEC
  0
SECTION
  2
CLASSES
  0
CLASS
  1
ACDBDICTIONARYWDFLT
  2
AcDbDictionaryWithDefault
  3
ObjectDBX Classes
 90
        0
 91
        1
280
     0
281
     0
  0
CLASS
  1
MATERIAL
  2
AcDbMaterial
  3
ObjectDBX Classes
 90
     1153
 91
        3
280
     0
281
     0
  0
CLASS
  1
VISUALSTYLE
  2
AcDbVisualStyle
  3
ObjectDBX Classes
 90
     4095
 91
       24
280
     0
281
     0
  0
CLASS
  1
SCALE
  2
AcDbScale
  3
ObjectDBX Classes
 90
     1153
 91
       17
280
     0
281
     0
  0
CLASS
  1
TABLESTYLE
  2
AcDbTableStyle
  3
ObjectDBX Classes
 90
     4095
 91
        1
280
     0
281
     0
  0
CLASS
  1
MLEADERSTYLE
  2
AcDbMLeaderStyle
  3
ACDB_MLEADERSTYLE_CLASS
 90
     4095
 91
        1
280
     0
281
     0
  0
CLASS
  1
ACDBSECTIONVIEWSTYLE
  2
AcDbSectionViewStyle
  3
ObjectDBX Classes
 90
     1025
 91
        1
280
     0
281
     0
  0
CLASS
  1
ACDBDETAILVIEWSTYLE
  2
AcDbDetailViewStyle
  3
ObjectDBX Classes
 90
     1025
 91
        1
280
     0
281
     0
  0
CLASS
  1
DICTIONARYVAR
  2
AcDbDictionaryVar
  3
ObjectDBX Classes
 90
        0
 91
        5
280
     0
281
     0
  0
CLASS
  1
CELLSTYLEMAP
  2
AcDbCellStyleMap
  3
ObjectDBX Classes
 90
     1152
 91
        1
280
     0
281
     0
  0
ENDSEC
  0
SECTION
  2
TABLES
  0
TABLE
  2
VPORT
  5
8
330
0
100
AcDbSymbolTable
 70
     1
  0
VPORT
  5
57
330
8
100
AcDbSymbolTableRecord
100
AcDbViewportTableRecord
  2
*Active
 70
     0
 10
0.0
 20
0.0
 11
1.0
 21
1.0
 12
0.0
 22
0.0
 13
0.0
 23
0.0
 14
1.0
 24
1.0
 15
0.0
 25
0.0
 16
0.0
 26
0.0
 36
1.0
 17
77.54993589675928
 27
-313.6724293870245
 37
0.0
 40
639.89175594953
 41
1.289066142081334
 42
50.0
 43
0.0
 44
0.0
 50
0.0
 51
0.0
 71
     0
 72
   100
 73
     1
 74
     1
 75
     0
 76
     0
 77
     0
 78
     0
281
     0
 65
     1
110
0.0
120
0.0
130
0.0
111
1.0
121
0.0
131
0.0
112
0.0
122
1.0
132
0.0
 79
     0
146
0.0
 60
     3
 61
     5
292
     1
282
     1
141
0.0
142
0.0
 63
   250
421
  3355443
  0
ENDTAB
  0
TABLE
  2
LTYPE
  5
5
330
0
100
AcDbSymbolTable
 70
     1
  0
LTYPE
  5
5B
330
5
100
AcDbSymbolTableRecord
100
AcDbLinetypeTableRecord
  2
ByBlock
 70
     0
  3

 72
    65
 73
     0
 40
0.0
  0
LTYPE
  5
5C
330
5
100
AcDbSymbolTableRecord
100
AcDbLinetypeTableRecord
  2
ByLayer
 70
     0
  3

 72
    65
 73
     0
 40
0.0
  0
LTYPE
  5
5D
330
5
100
AcDbSymbolTableRecord
100
AcDbLinetypeTableRecord
  2
Continuous
 70
     0
  3
Solid line
 72
    65
 73
     0
 40
0.0
  0
ENDTAB
  0
TABLE
  2
LAYER
  5
2
330
0
100
AcDbSymbolTable
 70
     2
  0
LAYER
  5
54
330
2
100
AcDbSymbolTableRecord
100
AcDbLayerTableRecord
  2
0
 70
     0
 62
     7
  6
Continuous
370
    -3
390
F
347
21
348
0
  0
LAYER
  5
78
330
2
100
AcDbSymbolTableRecord
100
AcDbLayerTableRecord
  2
Layer 1
 70
     0
 62
     7
  6
Continuous
370
     0
390
F
347
21
348
0
  0
ENDTAB
  0
TABLE
  2
STYLE
  5
3
330
0
100
AcDbSymbolTable
 70
     2
  0
STYLE
  5
55
330
3
100
AcDbSymbolTableRecord
100
AcDbTextStyleTableRecord
  2
Standard
 70
     0
 40
0.0
 41
1.0
 50
0.0
 71
     0
 42
0.2
  3
txt
  4

  0
STYLE
  5
5A
330
3
100
AcDbSymbolTableRecord
100
AcDbTextStyleTableRecord
  2
Annotative
 70
     0
 40
0.0
 41
1.0
 50
0.0
 71
     0
 42
0.2
  3
txt
  4

1001
AcadAnnotative
1000
AnnotativeData
1002
{
1070
     1
1070
     1
1002
}
  0
ENDTAB
  0
TABLE
  2
VIEW
  5
6
330
0
100
AcDbSymbolTable
 70
     0
  0
ENDTAB
  0
TABLE
  2
UCS
  5
7
330
0
100
AcDbSymbolTable
 70
     0
  0
ENDTAB
  0
TABLE
  2
APPID
  5
9
330
0
100
AcDbSymbolTable
 70
     2
  0
APPID
  5
56
330
9
100
AcDbSymbolTableRecord
100
AcDbRegAppTableRecord
  2
ACAD
 70
     0
  0
APPID
  5
5E
330
9
100
AcDbSymbolTableRecord
100
AcDbRegAppTableRecord
  2
AcadAnnotative
 70
     0
  0
ENDTAB
  0
TABLE
  2
DIMSTYLE
  5
A
330
0
100
AcDbSymbolTable
 70
     2
100
AcDbDimStyleTable
 71
     0
  0
DIMSTYLE
105
58
330
A
100
AcDbSymbolTableRecord
100
AcDbDimStyleTableRecord
  2
Standard
 70
     0
340
55
  0
DIMSTYLE
105
59
330
A
100
AcDbSymbolTableRecord
100
AcDbDimStyleTableRecord
  2
Annotative
 70
     0
340
55
1001
AcadAnnotative
1000
AnnotativeData
1002
{
1070
     1
1070
     1
1002
}
  0
ENDTAB
  0
TABLE
  2
BLOCK_RECORD
  5
1
330
0
100
AcDbSymbolTable
 70
     2
  0
BLOCK_RECORD
  5
70
330
1
100
AcDbSymbolTableRecord
100
AcDbBlockTableRecord
  2
*Model_Space
340
73
 70
     0
280
     1
281
     0
  0
BLOCK_RECORD
  5
6C
330
1
100
AcDbSymbolTableRecord
100
AcDbBlockTableRecord
  2
*Paper_Space
340
6F
 70
     0
280
     1
281
     0
  0
BLOCK_RECORD
  5
74
330
1
100
AcDbSymbolTableRecord
100
AcDbBlockTableRecord
  2
*Paper_Space0
340
77
 70
     0
280
     1
281
     0
  0
BLOCK_RECORD
  5
7B
330
1
100
AcDbSymbolTableRecord
100
AcDbBlockTableRecord
  2
Block_0
340
0
102
{BLKREFS
331
7C
102
}
 70
     0
280
     1
281
     0
  0
ENDTAB
  0
ENDSEC
  0
SECTION
  2
BLOCKS
  0
BLOCK
  5
71
330
70
100
AcDbEntity
  8
0
100
AcDbBlockBegin
  2
*Model_Space
 70
     0
 10
0.0
 20
0.0
 30
0.0
  3
*Model_Space
  1

  0
ENDBLK
  5
72
330
70
100
AcDbEntity
  8
0
100
AcDbBlockEnd
  0
BLOCK
  5
6D
330
6C
100
AcDbEntity
 67
     1
  8
0
100
AcDbBlockBegin
  2
*Paper_Space
 70
     0
 10
0.0
 20
0.0
 30
0.0
  3
*Paper_Space
  1

  0
ENDBLK
  5
6E
330
6C
100
AcDbEntity
 67
     1
  8
0
100
AcDbBlockEnd
  0
BLOCK
  5
75
330
74
100
AcDbEntity
 67
     1
  8
0
100
AcDbBlockBegin
  2
*Paper_Space0
 70
     0
 10
0.0
 20
0.0
 30
0.0
  3
*Paper_Space0
  1

  0
ENDBLK
  5
76
330
74
100
AcDbEntity
 67
     1
  8
0
100
AcDbBlockEnd
  0
BLOCK
  5
7D
330
7B
100
AcDbEntity
  8
0
100
AcDbBlockBegin
  2
Block_0
 70
     0
 10
0.0
 20
0.0
 30
0.0
  3
Block_0
  1

  0
SPLINE
  5
7F
330
7B
100
AcDbEntity
  8
Layer 1
100
AcDbSpline
210
0.0
220
0.0
230
1.0
 70
     9
 71
     3
 72
    14
 73
    10
 74
     0
 42
0.0000000001
 43
0.0000000001
 40
0.0
 40
0.0
 40
0.0
 40
0.0
 40
1.0
 40
1.0
 40
1.0
 40
2.0
 40
2.0
 40
2.0
 40
3.0
 40
3.0
 40
3.0
 40
3.0
 10
-312.6677830088036
 20
-245.8315924135855
 30
0.0
 10
-312.2268323185384
 20
-243.8105702108573
 30
0.0
 10
-311.5971334593751
 20
-241.1399106588448
 30
0.0
 10
-310.7790955364026
 20
-237.8196137575482
 30
0.0
 10
-310.7790955364026
 20
-237.8196137575482
 30
0.0
 10
-308.4572949659652
 20
-245.8195776430807
 30
0.0
 10
-308.4572949659652
 20
-245.8195776430807
 30
0.0
 10
-309.9170465186059
 20
-245.8677013206403
 30
0.0
 10
-311.320449228216
 20
-245.8718139033758
 30
0.0
 10
-312.6677830088036
 20
-245.8315924135855
 30
0.0
  0
SPLINE
  5
80
330
7B
100
AcDbEntity
  8
Layer 1
100
AcDbSpline
210
0.0
220
0.0
230
1.0
 70
     9
 71
     3
 72
   182
 73
   178
 74
     0
 42
0.0000000001
 43
0.0000000001
 40
0.0
 40
0.0
 40
0.0
 40
0.0
 40
1.0
 40
1.0
 40
1.0
 40
2.0
 40
2.0
 40
2.0
 40
3.0
 40
3.0
 40
3.0
 40
4.0
 40
4.0
 40
4.0
 40
5.0
 40
5.0
 40
5.0
 40
6.0
 40
6.0
 40
6.0
 40
7.0
 40
7.0
 40
7.0
 40
8.0
 40
8.0
 40
8.0
 40
9.0
 40
9.0
 40
9.0
 40
10.0
 40
10.0
 40
10.0
 40
11.0
 40
11.0
 40
11.0
 40
12.0
 40
12.0
 40
12.0
 40
13.0
 40
13.0
 40
13.0
 40
14.0
 40
14.0
 40
14.0
 40
15.0
 40
15.0
 40
15.0
 40
16.0
 40
16.0
 40
16.0
 40
17.0
 40
17.0
 40
17.0
 40
18.0
 40
18.0
 40
18.0
 40
19.0
 40
19.0
 40
19.0
 40
20.0
 40
20.0
 40
20.0
 40
21.0
 40
21.0
 40
21.0
 40
22.0
 40
22.0
 40
22.0
 40
23.0
 40
23.0
 40
23.0
 40
24.0
 40
24.0
 40
24.0
 40
25.0
 40
25.0
 40
25.0
 40
26.0
 40
26.0
 40
26.0
 40
27.0
 40
27.0
 40
27.0
 40
28.0
 40
28.0
 40
28.0
 40
29.0
 40
29.0
 40
29.0
 40
30.0
 40
30.0
 40
30.0
 40
31.0
 40
31.0
 40
31.0
 40
32.0
 40
32.0
 40
32.0
 40
33.0
 40
33.0
 40
33.0
 40
34.0
 40
34.0
 40
34.0
 40
35.0
 40
35.0
 40
35.0
 40
36.0
 40
36.0
 40
36.0
 40
37.0
 40
37.0
 40
37.0
 40
38.0
 40
38.0
 40
38.0
 40
39.0
 40
39.0
 40
39.0
 40
40.0
 40
40.0
 40
40.0
 40
41.0
 40
41.0
 40
41.0
 40
42.0
 40
42.0
 40
42.0
 40
43.0
 40
43.0
 40
43.0
 40
44.0
 40
44.0
 40
44.0
 40
45.0
 40
45.0
 40
45.0
 40
46.0
 40
46.0
 40
46.0
 40
47.0
 40
47.0
 40
47.0
 40
48.0
 40
48.0
 40
48.0
 40
49.0
 40
49.0
 40
49.0
 40
50.0
 40
50.0
 40
50.0
 40
51.0
 40
51.0
 40
51.0
 40
52.0
 40
52.0
 40
52.0
 40
53.0
 40
53.0
 40
53.0
 40
54.0
 40
54.0
 40
54.0
 40
55.0
 40
55.0
 40
55.0
 40
56.0
 40
56.0
 40
56.0
 40
57.0
 40
57.0
 40
57.0
 40
58.0
 40
58.0
 40
58.0
 40
59.0
 40
59.0
 40
59.0
 40
59.0
 10
-305.9069553737751
 20
-248.1052693064633
 30
0.0
 10
-305.9872045667347
 20
-247.8327191898864
 30
0.0
 10
-306.0674537596942
 20
-247.5720115890402
 30
0.0
 10
-306.1475522297262
 20
-247.3233402905455
 30
0.0
 10
-306.1475522297262
 20
-247.3233402905455
 30
0.0
 10
-305.7866354139528
 20
-247.3473698315551
 30
0.0
 10
-305.7866354139528
 20
-247.3473698315551
 30
0.0
 10
-305.7866354139528
 20
-247.3473698315551
 30
0.0
 10
-305.7866354139528
 20
-245.6992576832583
 30
0.0
 10
-305.7866354139528
 20
-245.6992576832583
 30
0.0
 10
-306.0674537596942
 20
-245.715449632039
 30
0.0
 10
-306.3441379908533
 20
-245.7314262623519
 30
0.0
 10
-306.6167096392769
 20
-245.7473813608179
 30
0.0
 10
-306.9135046153312
 20
-244.760942864157
 30
0.0
 10
-307.150161143321
 20
-243.9750304565844
 30
0.0
 10
-307.3265069684723
 20
-243.3895149470194
 30
0.0
 10
-307.6233019445265
 20
-242.3951957944359
 30
0.0
 10
-307.8819424880817
 20
-241.5209382195135
 30
0.0
 10
-308.1024070672909
 20
-240.7670006044133
 30
0.0
 10
-308.323086964968
 20
-240.0132567759342
 30
0.0
 10
-308.4614506123943
 20
-239.548018162498
 30
0.0
 10
-308.5174764777232
 20
-239.3715000825725
 30
0.0
 10
-308.6618259785551
 20
-238.8422042249574
 30
0.0
 10
-308.7339791971243
 20
-238.3871286432027
 30
0.0
 10
-308.7339791971243
 20
-238.0061010825341
 30
0.0
 10
-308.7339791971243
 20
-237.9323329754562
 30
0.0
 10
-308.7308786111876
 20
-237.8629358332752
 30
0.0
 10
-308.7275842386298
 20
-237.7938186051023
 30
0.0
 10
-308.0676546665835
 20
-237.8758549413448
 30
0.0
 10
-307.1323973697253
 20
-237.7790692900561
 30
0.0
 10
-305.8820860907409
 20
-237.039105843518
 30
0.0
 10
-306.8453347884168
 20
-236.3748053065747
 30
0.0
 10
-307.649829179763
 20
-236.1853681185795
 30
0.0
 10
-308.2290358582206
 20
-236.1459217752734
 30
0.0
 10
-308.2290358582206
 20
-236.1459217752734
 30
0.0
 10
-309.0876182486852
 20
-230.4625046895632
 30
0.0
 10
-309.0876182486852
 20
-230.4625046895632
 30
0.0
 10
-309.0876182486852
 20
-230.4625046895632
 30
0.0
 10
-308.3688206075346
 20
-230.0304466520193
 30
0.0
 10
-308.3688206075346
 20
-230.0304466520193
 30
0.0
 10
-308.3688206075346
 20
-230.0304466520193
 30
0.0
 10
-306.864648854981
 20
-230.8351563618333
 30
0.0
 10
-306.864648854981
 20
-230.8351563618333
 30
0.0
 10
-306.864648854981
 20
-230.8351563618333
 30
0.0
 10
-307.647159230762
 20
-230.1660542230575
 30
0.0
 10
-307.647159230762
 20
-230.1660542230575
 30
0.0
 10
-307.647159230762
 20
-230.1660542230575
 30
0.0
 10
-308.2765135803767
 20
-229.2286652733678
 30
0.0
 10
-308.2765135803767
 20
-229.2286652733678
 30
0.0
 10
-308.2765135803767
 20
-229.2286652733678
 30
0.0
 10
-310.2676711116172
 20
-229.5273335200921
 30
0.0
 10
-310.2676711116172
 20
-229.5273335200921
 30
0.0
 10
-310.2676711116172
 20
-229.5273335200921
 30
0.0
 10
-312.6195947357037
 20
-235.5074163907759
 30
0.0
 10
-312.6195947357037
 20
-235.5074163907759
 30
0.0
 10
-312.9282322274885
 20
-235.5101939990109
 30
0.0
 10
-313.302541851961
 20
-235.5400156068051
 30
0.0
 10
-313.7123574917782
 20
-235.6290067295585
 30
0.0
 10
-314.3882421622906
 20
-235.7757462653833
 30
0.0
 10
-314.9076549022324
 20
-236.0283148281457
 30
0.0
 10
-315.2429918840279
 20
-236.2226397453606
 30
0.0
 10
-315.0915153419108
 20
-236.2741223910183
 30
0.0
 10
-314.8692636194186
 20
-236.3547160935263
 30
0.0
 10
-314.6075655536204
 20
-236.4692224547173
 30
0.0
 10
-313.6343906745776
 20
-236.8950793203878
 30
0.0
 10
-313.498438593991
 20
-237.1850271691651
 30
0.0
 10
-312.9935383187808
 20
-237.3633323923736
 30
0.0
 10
-312.9123201927161
 20
-237.3920128122883
 30
0.0
 10
-312.8383367671703
 20
-237.4105732642151
 30
0.0
 10
-312.7676261823355
 20
-237.4239445410672
 30
0.0
 10
-312.7398716318325
 20
-237.5563008032412
 30
0.0
 10
-312.7176722977994
 20
-237.696796103499
 30
0.0
 10
-312.7038919158585
 20
-237.8497368111973
 30
0.0
 10
-312.6718955915392
 20
-238.206670235316
 30
0.0
 10
-312.7080044985939
 20
-238.6217181139014
 30
0.0
 10
-312.8121325096356
 20
-239.0947943195666
 30
0.0
 10
-313.0768019702899
 20
-240.2418173295338
 30
0.0
 10
-313.3816929207345
 20
-241.4848293124586
 30
0.0
 10
-313.7264177877273
 20
-242.8241317141963
 30
0.0
 10
-313.9429635708221
 20
-243.6742951525689
 30
0.0
 10
-314.1876730095087
 20
-244.6526376748395
 30
0.0
 10
-314.4602446579323
 20
-245.7594391950163
 30
0.0
 10
-314.7892297449269
 20
-245.7434410328567
 30
0.0
 10
-315.1098604753698
 20
-245.7233518198083
 30
0.0
 10
-315.4226536135837
 20
-245.6992576832583
 30
0.0
 10
-315.4226536135837
 20
-245.6992576832583
 30
0.0
 10
-315.4226536135837
 20
-247.3473698315551
 30
0.0
 10
-315.4226536135837
 20
-247.3473698315551
 30
0.0
 10
-315.3505003950145
 20
-247.3394676437858
 30
0.0
 10
-315.1579841529294
 20
-247.327452873281
 30
0.0
 10
-314.845234078409
 20
-247.3112609245003
 30
0.0
 10
-314.8933577559686
 20
-247.4958965106629
 30
0.0
 10
-314.9374980418734
 20
-247.6802737146641
 30
0.0
 10
-314.9775257450426
 20
-247.8646509186654
 30
0.0
 10
-315.4749329375723
 20
-249.8778139973179
 30
0.0
 10
-316.397055807893
 20
-251.1650308616879
 30
0.0
 10
-317.744454184021
 20
-251.7262584480819
 30
0.0
 10
-316.6938507839473
 20
-252.0793161397797
 30
0.0
 10
-315.9158836278375
 20
-251.902819591701
 30
0.0
 10
-315.4106388430788
 20
-251.1970056541604
 30
0.0
 10
-315.4106388430788
 20
-251.1970056541604
 30
0.0
 10
-315.2060862986421
 20
-252.4601283819805
 30
0.0
 10
-315.2060862986421
 20
-252.4601283819805
 30
0.0
 10
-315.2060862986421
 20
-252.4601283819805
 30
0.0
 10
-314.4121209803728
 20
-251.4255877396067
 30
0.0
 10
-314.4121209803728
 20
-251.4255877396067
 30
0.0
 10
-313.9149721700044
 20
-252.3798791890209
 30
0.0
 10
-313.2893858935766
 20
-252.7326569667105
 30
0.0
 10
-312.5354482784765
 20
-252.4841579229901
 30
0.0
 10
-313.0647871997851
 20
-252.0510663568006
 30
0.0
 10
-313.3576203160313
 20
-251.3293403844876
 30
0.0
 10
-313.4136246495135
 20
-250.3188292831234
 30
0.0
 10
-313.4377187860634
 20
-249.8857161850872
 30
0.0
 10
-313.2812899191863
 20
-248.8391177085151
 30
0.0
 10
-312.9444672399628
 20
-247.1789907897135
 30
0.0
 10
-312.5516402272572
 20
-247.1629926275539
 30
0.0
 10
-312.2427658851577
 20
-247.1509778570491
 30
0.0
 10
-312.0181671913662
 20
-247.1428818826587
 30
0.0
 10
-311.994094586663
 20
-247.1750073980587
 30
0.0
 10
-311.9741776283889
 20
-247.2030203307231
 30
0.0
 10
-311.9580502751486
 20
-247.2270929354263
 30
0.0
 10
-311.7335807724378
 20
-247.6120392922094
 30
0.0
 10
-311.6692866779443
 20
-248.0251708364312
 30
0.0
 10
-311.7655340330635
 20
-248.4661861222368
 30
0.0
 10
-311.8298281275569
 20
-248.8111047758506
 30
0.0
 10
-311.9339561385987
 20
-249.1560234294645
 30
0.0
 10
-312.0783056394306
 20
-249.5007267646105
 30
0.0
 10
-312.2226551402626
 20
-249.8456454182244
 30
0.0
 10
-312.2869707666029
 20
-250.1304256237738
 30
0.0
 10
-312.2707788178221
 20
-250.3548305309443
 30
0.0
 10
-312.2548452512029
 20
-250.4592169241474
 30
0.0
 10
-312.2067215736433
 20
-250.5554427474197
 30
0.0
 10
-312.1264293169902
 20
-250.6436371918422
 30
0.0
 10
-312.0463739106517
 20
-250.7319177636517
 30
0.0
 10
-311.942052112989
 20
-250.7800845049048
 30
0.0
 10
-311.8136361787763
 20
-250.7879436289806
 30
0.0
 10
-311.6773826523346
 20
-250.7879436289806
 30
0.0
 10
-311.5571057562059
 20
-250.7398630151145
 30
0.0
 10
-311.4527839585431
 20
-250.6436371918422
 30
0.0
 10
-311.3486559475015
 20
-250.5473037093358
 30
0.0
 10
-311.2644233628871
 20
-250.4391061792522
 30
0.0
 10
-311.2001292683936
 20
-250.3188292831234
 30
0.0
 10
-310.8072807238412
 20
-249.5488504421701
 30
0.0
 10
-310.7429866293478
 20
-248.7668998944055
 30
0.0
 10
-311.007656090002
 20
-247.9729345761361
 30
0.0
 10
-311.096001257352
 20
-247.6763333867029
 30
0.0
 10
-311.244312617992
 20
-247.3954935091147
 30
0.0
 10
-311.4527839585431
 20
-247.1308240484604
 30
0.0
 10
-310.6508733888109
 20
-247.1148689499943
 30
0.0
 10
-309.5159297448889
 20
-247.1428818826587
 30
0.0
 10
-308.0482544726322
 20
-247.2150351012279
 30
0.0
 10
-308.0482544726322
 20
-247.2150351012279
 30
0.0
 10
-307.5309949173686
 20
-248.9954819798518
 30
0.0
 10
-307.5309949173686
 20
-248.9954819798518
 30
0.0
 10
-307.3466177133675
 20
-249.7012959173924
 30
0.0
 10
-307.2683709821587
 20
-250.3469714068685
 30
0.0
 10
-307.2963839148231
 20
-250.9323361935061
 30
0.0
 10
-307.3245906341086
 20
-251.5177871075307
 30
0.0
 10
-307.5992078079766
 20
-252.0432072327249
 30
0.0
 10
-308.1204722867417
 20
-252.5082089958465
 30
0.0
 10
-307.2223574255838
 20
-252.5883505295721
 30
0.0
 10
-306.6449163585624
 20
-252.2838471523696
 30
0.0
 10
-306.3881275538306
 20
-251.5939237177547
 30
0.0
 10
-306.3881275538306
 20
-251.5939237177547
 30
0.0
 10
-305.6904095906804
 20
-252.7247978426348
 30
0.0
 10
-305.6904095906804
 20
-252.7247978426348
 30
0.0
 10
-305.6904095906804
 20
-252.7247978426348
 30
0.0
 10
-305.570089630858
 20
-251.5218135628791
 30
0.0
 10
-305.570089630858
 20
-251.5218135628791
 30
0.0
 10
-305.0810152630333
 20
-251.9147912985122
 30
0.0
 10
-304.6618332698654
 20
-252.077206018795
 30
0.0
 10
-304.3129527564436
 20
-252.0090146600338
 30
0.0
 10
-303.9641153067152
 20
-251.9409309605066
 30
0.0
 10
-303.6573510856005
 20
-251.7584270271754
 30
0.0
 10
-303.3926816249462
 20
-251.4615889874276
 30
0.0
 10
-304.419384675091
 20
-251.3734806703923
 30
0.0
 10
-305.2572964926441
 20
-250.2546643797106
 30
0.0
 10
-305.9069553737751
 20
-248.1052693064633
 30
0.0
  0
HATCH
  5
81
330
7B
100
AcDbEntity
  8
Layer 1
 62
   251
420
  6316128
440
 33554687
100
AcDbHatch
 10
0.0
 20
0.0
 30
0.0
210
0.0
220
0.0
230
1.0
  2
SOLID
 70
     1
 71
     1
 91
        2
 92
        1
 93
        1
 72
     4
 94
        3
 73
     0
 74
     0
 95
       14
 96
       10
 40
0.0
 40
0.0
 40
0.0
 40
0.0
 40
1.0
 40
1.0
 40
1.0
 40
2.0
 40
2.0
 40
2.0
 40
3.0
 40
3.0
 40
3.0
 40
3.0
 10
-312.6677830088036
 20
-245.8315924135855
 10
-312.2268323185384
 20
-243.8105702108573
 10
-311.5971334593751
 20
-241.1399106588448
 10
-310.7790955364026
 20
-237.8196137575482
 10
-310.7790955364026
 20
-237.8196137575482
 10
-308.4572949659652
 20
-245.8195776430807
 10
-308.4572949659652
 20
-245.8195776430807
 10
-309.9170465186059
 20
-245.8677013206403
 10
-311.320449228216
 20
-245.8718139033758
 10
-312.6677830088036
 20
-245.8315924135855
 97
        0
 97
        1
330
7F
 92
        1
 93
        1
 72
     4
 94
        3
 73
     0
 74
     0
 95
      182
 96
      178
 40
0.0
 40
0.0
 40
0.0
 40
0.0
 40
1.0
 40
1.0
 40
1.0
 40
2.0
 40
2.0
 40
2.0
 40
3.0
 40
3.0
 40
3.0
 40
4.0
 40
4.0
 40
4.0
 40
5.0
 40
5.0
 40
5.0
 40
6.0
 40
6.0
 40
6.0
 40
7.0
 40
7.0
 40
7.0
 40
8.0
 40
8.0
 40
8.0
 40
9.0
 40
9.0
 40
9.0
 40
10.0
 40
10.0
 40
10.0
 40
11.0
 40
11.0
 40
11.0
 40
12.0
 40
12.0
 40
12.0
 40
13.0
 40
13.0
 40
13.0
 40
14.0
 40
14.0
 40
14.0
 40
15.0
 40
15.0
 40
15.0
 40
16.0
 40
16.0
 40
16.0
 40
17.0
 40
17.0
 40
17.0
 40
18.0
 40
18.0
 40
18.0
 40
19.0
 40
19.0
 40
19.0
 40
20.0
 40
20.0
 40
20.0
 40
21.0
 40
21.0
 40
21.0
 40
22.0
 40
22.0
 40
22.0
 40
23.0
 40
23.0
 40
23.0
 40
24.0
 40
24.0
 40
24.0
 40
25.0
 40
25.0
 40
25.0
 40
26.0
 40
26.0
 40
26.0
 40
27.0
 40
27.0
 40
27.0
 40
28.0
 40
28.0
 40
28.0
 40
29.0
 40
29.0
 40
29.0
 40
30.0
 40
30.0
 40
30.0
 40
31.0
 40
31.0
 40
31.0
 40
32.0
 40
32.0
 40
32.0
 40
33.0
 40
33.0
 40
33.0
 40
34.0
 40
34.0
 40
34.0
 40
35.0
 40
35.0
 40
35.0
 40
36.0
 40
36.0
 40
36.0
 40
37.0
 40
37.0
 40
37.0
 40
38.0
 40
38.0
 40
38.0
 40
39.0
 40
39.0
 40
39.0
 40
40.0
 40
40.0
 40
40.0
 40
41.0
 40
41.0
 40
41.0
 40
42.0
 40
42.0
 40
42.0
 40
43.0
 40
43.0
 40
43.0
 40
44.0
 40
44.0
 40
44.0
 40
45.0
 40
45.0
 40
45.0
 40
46.0
 40
46.0
 40
46.0
 40
47.0
 40
47.0
 40
47.0
 40
48.0
 40
48.0
 40
48.0
 40
49.0
 40
49.0
 40
49.0
 40
50.0
 40
50.0
 40
50.0
 40
51.0
 40
51.0
 40
51.0
 40
52.0
 40
52.0
 40
52.0
 40
53.0
 40
53.0
 40
53.0
 40
54.0
 40
54.0
 40
54.0
 40
55.0
 40
55.0
 40
55.0
 40
56.0
 40
56.0
 40
56.0
 40
57.0
 40
57.0
 40
57.0
 40
58.0
 40
58.0
 40
58.0
 40
59.0
 40
59.0
 40
59.0
 40
59.0
 10
-305.9069553737751
 20
-248.1052693064633
 10
-305.9872045667347
 20
-247.8327191898864
 10
-306.0674537596942
 20
-247.5720115890402
 10
-306.1475522297262
 20
-247.3233402905455
 10
-306.1475522297262
 20
-247.3233402905455
 10
-305.7866354139528
 20
-247.3473698315551
 10
-305.7866354139528
 20
-247.3473698315551
 10
-305.7866354139528
 20
-247.3473698315551
 10
-305.7866354139528
 20
-245.6992576832583
 10
-305.7866354139528
 20
-245.6992576832583
 10
-306.0674537596942
 20
-245.715449632039
 10
-306.3441379908533
 20
-245.7314262623519
 10
-306.6167096392769
 20
-245.7473813608179
 10
-306.9135046153312
 20
-244.760942864157
 10
-307.150161143321
 20
-243.9750304565844
 10
-307.3265069684723
 20
-243.3895149470194
 10
-307.6233019445265
 20
-242.3951957944359
 10
-307.8819424880817
 20
-241.5209382195135
 10
-308.1024070672909
 20
-240.7670006044133
 10
-308.323086964968
 20
-240.0132567759342
 10
-308.4614506123943
 20
-239.548018162498
 10
-308.5174764777232
 20
-239.3715000825725
 10
-308.6618259785551
 20
-238.8422042249574
 10
-308.7339791971243
 20
-238.3871286432027
 10
-308.7339791971243
 20
-238.0061010825341
 10
-308.7339791971243
 20
-237.9323329754562
 10
-308.7308786111876
 20
-237.8629358332752
 10
-308.7275842386298
 20
-237.7938186051023
 10
-308.0676546665835
 20
-237.8758549413448
 10
-307.1323973697253
 20
-237.7790692900561
 10
-305.8820860907409
 20
-237.039105843518
 10
-306.8453347884168
 20
-236.3748053065747
 10
-307.649829179763
 20
-236.1853681185795
 10
-308.2290358582206
 20
-236.1459217752734
 10
-308.2290358582206
 20
-236.1459217752734
 10
-309.0876182486852
 20
-230.4625046895632
 10
-309.0876182486852
 20
-230.4625046895632
 10
-309.0876182486852
 20
-230.4625046895632
 10
-308.3688206075346
 20
-230.0304466520193
 10
-308.3688206075346
 20
-230.0304466520193
 10
-308.3688206075346
 20
-230.0304466520193
 10
-306.864648854981
 20
-230.8351563618333
 10
-306.864648854981
 20
-230.8351563618333
 10
-306.864648854981
 20
-230.8351563618333
 10
-307.647159230762
 20
-230.1660542230575
 10
-307.647159230762
 20
-230.1660542230575
 10
-307.647159230762
 20
-230.1660542230575
 10
-308.2765135803767
 20
-229.2286652733678
 10
-308.2765135803767
 20
-229.2286652733678
 10
-308.2765135803767
 20
-229.2286652733678
 10
-310.2676711116172
 20
-229.5273335200921
 10
-310.2676711116172
 20
-229.5273335200921
 10
-310.2676711116172
 20
-229.5273335200921
 10
-312.6195947357037
 20
-235.5074163907759
 10
-312.6195947357037
 20
-235.5074163907759
 10
-312.9282322274885
 20
-235.5101939990109
 10
-313.302541851961
 20
-235.5400156068051
 10
-313.7123574917782
 20
-235.6290067295585
 10
-314.3882421622906
 20
-235.7757462653833
 10
-314.9076549022324
 20
-236.0283148281457
 10
-315.2429918840279
 20
-236.2226397453606
 10
-315.0915153419108
 20
-236.2741223910183
 10
-314.8692636194186
 20
-236.3547160935263
 10
-314.6075655536204
 20
-236.4692224547173
 10
-313.6343906745776
 20
-236.8950793203878
 10
-313.498438593991
 20
-237.1850271691651
 10
-312.9935383187808
 20
-237.3633323923736
 10
-312.9123201927161
 20
-237.3920128122883
 10
-312.8383367671703
 20
-237.4105732642151
 10
-312.7676261823355
 20
-237.4239445410672
 10
-312.7398716318325
 20
-237.5563008032412
 10
-312.7176722977994
 20
-237.696796103499
 10
-312.7038919158585
 20
-237.8497368111973
 10
-312.6718955915392
 20
-238.206670235316
 10
-312.7080044985939
 20
-238.6217181139014
 10
-312.8121325096356
 20
-239.0947943195666
 10
-313.0768019702899
 20
-240.2418173295338
 10
-313.3816929207345
 20
-241.4848293124586
 10
-313.7264177877273
 20
-242.8241317141963
 10
-313.9429635708221
 20
-243.6742951525689
 10
-314.1876730095087
 20
-244.6526376748395
 10
-314.4602446579323
 20
-245.7594391950163
 10
-314.7892297449269
 20
-245.7434410328567
 10
-315.1098604753698
 20
-245.7233518198083
 10
-315.4226536135837
 20
-245.6992576832583
 10
-315.4226536135837
 20
-245.6992576832583
 10
-315.4226536135837
 20
-247.3473698315551
 10
-315.4226536135837
 20
-247.3473698315551
 10
-315.3505003950145
 20
-247.3394676437858
 10
-315.1579841529294
 20
-247.327452873281
 10
-314.845234078409
 20
-247.3112609245003
 10
-314.8933577559686
 20
-247.4958965106629
 10
-314.9374980418734
 20
-247.6802737146641
 10
-314.9775257450426
 20
-247.8646509186654
 10
-315.4749329375723
 20
-249.8778139973179
 10
-316.397055807893
 20
-251.1650308616879
 10
-317.744454184021
 20
-251.7262584480819
 10
-316.6938507839473
 20
-252.0793161397797
 10
-315.9158836278375
 20
-251.902819591701
 10
-315.4106388430788
 20
-251.1970056541604
 10
-315.4106388430788
 20
-251.1970056541604
 10
-315.2060862986421
 20
-252.4601283819805
 10
-315.2060862986421
 20
-252.4601283819805
 10
-315.2060862986421
 20
-252.4601283819805
 10
-314.4121209803728
 20
-251.4255877396067
 10
-314.4121209803728
 20
-251.4255877396067
 10
-313.9149721700044
 20
-252.3798791890209
 10
-313.2893858935766
 20
-252.7326569667105
 10
-312.5354482784765
 20
-252.4841579229901
 10
-313.0647871997851
 20
-252.0510663568006
 10
-313.3576203160313
 20
-251.3293403844876
 10
-313.4136246495135
 20
-250.3188292831234
 10
-313.4377187860634
 20
-249.8857161850872
 10
-313.2812899191863
 20
-248.8391177085151
 10
-312.9444672399628
 20
-247.1789907897135
 10
-312.5516402272572
 20
-247.1629926275539
 10
-312.2427658851577
 20
-247.1509778570491
 10
-312.0181671913662
 20
-247.1428818826587
 10
-311.994094586663
 20
-247.1750073980587
 10
-311.9741776283889
 20
-247.2030203307231
 10
-311.9580502751486
 20
-247.2270929354263
 10
-311.7335807724378
 20
-247.6120392922094
 10
-311.6692866779443
 20
-248.0251708364312
 10
-311.7655340330635
 20
-248.4661861222368
 10
-311.8298281275569
 20
-248.8111047758506
 10
-311.9339561385987
 20
-249.1560234294645
 10
-312.0783056394306
 20
-249.5007267646105
 10
-312.2226551402626
 20
-249.8456454182244
 10
-312.2869707666029
 20
-250.1304256237738
 10
-312.2707788178221
 20
-250.3548305309443
 10
-312.2548452512029
 20
-250.4592169241474
 10
-312.2067215736433
 20
-250.5554427474197
 10
-312.1264293169902
 20
-250.6436371918422
 10
-312.0463739106517
 20
-250.7319177636517
 10
-311.942052112989
 20
-250.7800845049048
 10
-311.8136361787763
 20
-250.7879436289806
 10
-311.6773826523346
 20
-250.7879436289806
 10
-311.5571057562059
 20
-250.7398630151145
 10
-311.4527839585431
 20
-250.6436371918422
 10
-311.3486559475015
 20
-250.5473037093358
 10
-311.2644233628871
 20
-250.4391061792522
 10
-311.2001292683936
 20
-250.3188292831234
 10
-310.8072807238412
 20
-249.5488504421701
 10
-310.7429866293478
 20
-248.7668998944055
 10
-311.007656090002
 20
-247.9729345761361
 10
-311.096001257352
 20
-247.6763333867029
 10
-311.244312617992
 20
-247.3954935091147
 10
-311.4527839585431
 20
-247.1308240484604
 10
-310.6508733888109
 20
-247.1148689499943
 10
-309.5159297448889
 20
-247.1428818826587
 10
-308.0482544726322
 20
-247.2150351012279
 10
-308.0482544726322
 20
-247.2150351012279
 10
-307.5309949173686
 20
-248.9954819798518
 10
-307.5309949173686
 20
-248.9954819798518
 10
-307.3466177133675
 20
-249.7012959173924
 10
-307.2683709821587
 20
-250.3469714068685
 10
-307.2963839148231
 20
-250.9323361935061
 10
-307.3245906341086
 20
-251.5177871075307
 10
-307.5992078079766
 20
-252.0432072327249
 10
-308.1204722867417
 20
-252.5082089958465
 10
-307.2223574255838
 20
-252.5883505295721
 10
-306.6449163585624
 20
-252.2838471523696
 10
-306.3881275538306
 20
-251.5939237177547
 10
-306.3881275538306
 20
-251.5939237177547
 10
-305.6904095906804
 20
-252.7247978426348
 10
-305.6904095906804
 20
-252.7247978426348
 10
-305.6904095906804
 20
-252.7247978426348
 10
-305.570089630858
 20
-251.5218135628791
 10
-305.570089630858
 20
-251.5218135628791
 10
-305.0810152630333
 20
-251.9147912985122
 10
-304.6618332698654
 20
-252.077206018795
 10
-304.3129527564436
 20
-252.0090146600338
 10
-303.9641153067152
 20
-251.9409309605066
 10
-303.6573510856005
 20
-251.7584270271754
 10
-303.3926816249462
 20
-251.4615889874276
 10
-304.419384675091
 20
-251.3734806703923
 10
-305.2572964926441
 20
-250.2546643797106
 10
-305.9069553737751
 20
-248.1052693064633
 97
        0
 97
        1
330
80
 75
     2
 76
     1
 98
        1
 10
0.0
 20
0.0
450
        0
451
        0
460
0.0
461
0.0
452
        0
462
0.0
453
        0
470

  0
SPLINE
  5
82
330
7B
100
AcDbEntity
  8
Layer 1
100
AcDbSpline
210
0.0
220
0.0
230
1.0
 70
     9
 71
     3
 72
   146
 73
   142
 74
     0
 42
0.0000000001
 43
0.0000000001
 40
0.0
 40
0.0
 40
0.0
 40
0.0
 40
1.0
 40
1.0
 40
1.0
 40
2.0
 40
2.0
 40
2.0
 40
3.0
 40
3.0
 40
3.0
 40
4.0
 40
4.0
 40
4.0
 40
5.0
 40
5.0
 40
5.0
 40
6.0
 40
6.0
 40
6.0
 40
7.0
 40
7.0
 40
7.0
 40
8.0
 40
8.0
 40
8.0
 40
9.0
 40
9.0
 40
9.0
 40
10.0
 40
10.0
 40
10.0
 40
11.0
 40
11.0
 40
11.0
 40
12.0
 40
12.0
 40
12.0
 40
13.0
 40
13.0
 40
13.0
 40
14.0
 40
14.0
 40
14.0
 40
15.0
 40
15.0
 40
15.0
 40
16.0
 40
16.0
 40
16.0
 40
17.0
 40
17.0
 40
17.0
 40
18.0
 40
18.0
 40
18.0
 40
19.0
 40
19.0
 40
19.0
 40
20.0
 40
20.0
 40
20.0
 40
21.0
 40
21.0
 40
21.0
 40
22.0
 40
22.0
 40
22.0
 40
23.0
 40
23.0
 40
23.0
 40
24.0
 40
24.0
 40
24.0
 40
25.0
 40
25.0
 40
25.0
 40
26.0
 40
26.0
 40
26.0
 40
27.0
 40
27.0
 40
27.0
 40
28.0
 40
28.0
 40
28.0
 40
29.0
 40
29.0
 40
29.0
 40
30.0
 40
30.0
 40
30.0
 40
31.0
 40
31.0
 40
31.0
 40
32.0
 40
32.0
 40
32.0
 40
33.0
 40
33.0
 40
33.0
 40
34.0
 40
34.0
 40
34.0
 40
35.0
 40
35.0
 40
35.0
 40
36.0
 40
36.0
 40
36.0
 40
37.0
 40
37.0
 40
37.0
 40
38.0
 40
38.0
 40
38.0
 40
39.0
 40
39.0
 40
39.0
 40
40.0
 40
40.0
 40
40.0
 40
41.0
 40
41.0
 40
41.0
 40
42.0
 40
42.0
 40
42.0
 40
43.0
 40
43.0
 40
43.0
 40
44.0
 40
44.0
 40
44.0
 40
45.0
 40
45.0
 40
45.0
 40
46.0
 40
46.0
 40
46.0
 40
47.0
 40
47.0
 40
47.0
 40
47.0
 10
-292.4333807175841
 20
-237.0617573463335
 30
0.0
 10
-292.1446817159201
 20
-236.8933137089516
 30
0.0
 10
-291.9542755948197
 20
-236.644836197078
 30
0.0
 10
-291.8619685676618
 20
-236.3159157056237
 30
0.0
 10
-291.7698337952781
 20
-235.9871244052502
 30
0.0
 10
-291.8038756450417
 20
-235.6743527988831
 30
0.0
 10
-291.9642233080334
 20
-235.377536290982
 30
0.0
 10
-291.956321120264
 20
-235.5941036059235
 30
0.0
 10
-292.0345032559325
 20
-235.7805909309095
 30
0.0
 10
-292.1987912468853
 20
-235.9369552022462
 30
0.0
 10
-292.363294556306
 20
-236.093319473583
 30
0.0
 10
-292.5537006774064
 20
-236.1916554178401
 30
0.0
 10
-292.7702033968075
 20
-236.2316831210093
 30
0.0
 10
-293.1551928172842
 20
-236.2638086364093
 30
0.0
 10
-293.6564757422348
 20
-236.1876935580321
 30
0.0
 10
-294.2739660442723
 20
-236.0031225674098
 30
0.0
 10
-294.891628601084
 20
-235.8187453634086
 30
0.0
 10
-295.5933514877358
 20
-235.7705786221555
 30
0.0
 10
-296.3792208316149
 20
-235.8587730665778
 30
0.0
 10
-297.2053547289779
 20
-235.9630948642406
 30
0.0
 10
-297.8870960618152
 20
-236.3200282883592
 30
0.0
 10
-298.4243371708931
 20
-236.9294226160064
 30
0.0
 10
-299.2504064727157
 20
-236.1756787875273
 30
0.0
 10
-300.2288135905267
 20
-235.8267767422586
 30
0.0
 10
-301.3596446517131
 20
-235.8828026075875
 30
0.0
 10
-301.9051109262621
 20
-235.9068967441374
 30
0.0
 10
-302.4504049460368
 20
-235.9871244052502
 30
0.0
 10
-302.9956774339647
 20
-236.1234425272321
 30
0.0
 10
-303.5411652403604
 20
-236.2598898402949
 30
0.0
 10
-304.026299280224
 20
-236.2918215690738
 30
0.0
 10
-304.4513164038699
 20
-236.2196683505045
 30
0.0
 10
-304.836262760653
 20
-236.1555680426321
 30
0.0
 10
-305.1571518732572
 20
-235.9350819315761
 30
0.0
 10
-305.4137253595212
 20
-235.5579946988688
 30
0.0
 10
-305.5501726725839
 20
-235.991107796905
 30
0.0
 10
-305.5381579020791
 20
-236.3119323139689
 30
0.0
 10
-305.3776164524665
 20
-236.5204036545201
 30
0.0
 10
-305.2172687894749
 20
-236.7290472498456
 30
0.0
 10
-305.0287790027381
 20
-236.8812989384468
 30
0.0
 10
-304.8122332196434
 20
-236.977546293566
 30
0.0
 10
-305.0528085437477
 20
-237.1299917687883
 30
0.0
 10
-305.2353340089256
 20
-237.3104286448282
 30
0.0
 10
-305.3595727648624
 20
-237.5188999853794
 30
0.0
 10
-305.4840053074203
 20
-237.7275435807048
 30
0.0
 10
-305.570089630858
 20
-237.9399337173705
 30
0.0
 10
-305.6182133084176
 20
-238.1564795004652
 30
0.0
 10
-305.3216121189844
 20
-237.9961533693204
 30
0.0
 10
-305.004706398035
 20
-237.8999060142013
 30
0.0
 10
-304.6678837188114
 20
-237.8677804988013
 30
0.0
 10
-304.7962350574838
 20
-238.1405028701524
 30
0.0
 10
-304.8182621367426
 20
-238.4232160184107
 30
0.0
 10
-304.734051083975
 20
-238.7158553480359
 30
0.0
 10
-304.6498184993607
 20
-239.0087099961289
 30
0.0
 10
-304.4754105404199
 20
-239.2352250242841
 30
0.0
 10
-304.2107410797656
 20
-239.3955726872757
 30
0.0
 10
-304.3309964440476
 20
-238.8503001993478
 30
0.0
 10
-304.2449121206098
 20
-238.3690634237519
 30
0.0
 10
-303.9521005362104
 20
-237.9519484878753
 30
0.0
 10
-303.6594181428916
 20
-237.5350704023133
 30
0.0
 10
-303.2644810092013
 20
-237.2222987959462
 30
0.0
 10
-302.7671168803652
 20
-237.0136336687739
 30
0.0
 10
-302.2699465381501
 20
-236.8051838600695
 30
0.0
 10
-301.7727761959349
 20
-236.7410620203504
 30
0.0
 10
-301.2754120670988
 20
-236.8211604903824
 30
0.0
 10
-300.5616959417889
 20
-236.981701939995
 30
0.0
 10
-300.0804806980399
 20
-237.3525234052886
 30
0.0
 10
-299.8318093995452
 20
-237.9339048002713
 30
0.0
 10
-299.5833103558247
 20
-238.515479981875
 30
0.0
 10
-299.4669737876572
 20
-239.1389992010117
 30
0.0
 10
-299.4829504179701
 20
-239.804591648762
 30
0.0
 10
-299.4829504179701
 20
-241.0878251214772
 30
0.0
 10
-299.478988558162
 20
-242.4111293610552
 30
0.0
 10
-299.4708925837717
 20
-243.7744613038025
 30
0.0
 10
-299.4708925837717
 20
-245.0577378402113
 30
0.0
 10
-299.4669737876572
 20
-246.34101437662
 30
0.0
 10
-299.4588778132669
 20
-247.6240540627142
 30
0.0
 10
-299.4348482722573
 20
-248.4742390329335
 30
0.0
 10
-299.4910463923604
 20
-249.3202898885706
 30
0.0
 10
-299.6273214506488
 20
-250.1624219480931
 30
0.0
 10
-299.7797669258711
 20
-251.0285835486253
 30
0.0
 10
-300.1565957764171
 20
-251.7744251893351
 30
0.0
 10
-300.7581094481417
 20
-252.3999899339161
 30
0.0
 10
-300.0284382243658
 20
-252.4240410067725
 30
0.0
 10
-299.426946084488
 20
-252.1593715461182
 30
0.0
 10
-298.9536114966615
 20
-251.6059815519531
 30
0.0
 10
-298.9536114966615
 20
-251.6059815519531
 30
0.0
 10
-298.3641341272884
 20
-252.7728784565008
 30
0.0
 10
-298.3641341272884
 20
-252.7728784565008
 30
0.0
 10
-298.3641341272884
 20
-252.7728784565008
 30
0.0
 10
-297.9551151658021
 20
-251.6059815519531
 30
0.0
 10
-297.9551151658021
 20
-251.6059815519531
 30
0.0
 10
-297.7307102586316
 20
-251.9349020434074
 30
0.0
 10
-297.4359823398685
 20
-252.1734318420673
 30
0.0
 10
-297.0709529413595
 20
-252.3217647345541
 30
0.0
 10
-296.706074265778
 20
-252.4700976270409
 30
0.0
 10
-296.3310971540553
 20
-252.5040748812642
 30
0.0
 10
-295.9461507972723
 20
-252.4240410067725
 30
0.0
 10
-296.3150989918957
 20
-252.1515124220425
 30
0.0
 10
-296.6179228850492
 20
-251.8146466791253
 30
0.0
 10
-296.8544071582648
 20
-251.4135083735616
 30
0.0
 10
-297.0910636862546
 20
-251.0125853864656
 30
0.0
 10
-297.2615528490809
 20
-250.5834126163906
 30
0.0
 10
-297.3657023919694
 20
-250.1263130410383
 30
0.0
 10
-297.5421774082013
 20
-249.2281551161869
 30
0.0
 10
-297.6103902988093
 20
-248.3139344336355
 30
0.0
 10
-297.5701903408658
 20
-247.3834787386099
 30
0.0
 10
-297.5622881530965
 20
-246.0763449159657
 30
0.0
 10
-297.5581540385142
 20
-244.7650554468925
 30
0.0
 10
-297.5581540385142
 20
-243.4496533950838
 30
0.0
 10
-297.5502733825917
 20
-242.0622919113269
 30
0.0
 10
-297.5460962043158
 20
-240.7109747390844
 30
0.0
 10
-297.5460962043158
 20
-239.3955726872757
 30
0.0
 10
-297.5541921787062
 20
-239.0668029187489
 30
0.0
 10
-297.534081433811
 20
-238.7399279527391
 30
0.0
 10
-297.4859577562514
 20
-238.4151200440204
 30
0.0
 10
-297.4378556105386
 20
-238.0903121353016
 30
0.0
 10
-297.3216912971454
 20
-237.7955842165385
 30
0.0
 10
-297.1371203065231
 20
-237.5309147558842
 30
0.0
 10
-296.8724508458688
 20
-237.2181216176703
 30
0.0
 10
-296.5436810773421
 20
-237.0016188982691
 30
0.0
 10
-296.1506387461686
 20
-236.8812989384468
 30
0.0
 10
-295.3166026610364
 20
-236.6328214265732
 30
0.0
 10
-294.546731479317
 20
-236.7531413863955
 30
0.0
 10
-293.8408960099296
 20
-237.2422157542203
 30
0.0
 10
-293.5202222157932
 20
-237.5068852148746
 30
0.0
 10
-293.2916401303469
 20
-237.8358057063288
 30
0.0
 10
-293.1551928172842
 20
-238.2286327190344
 30
0.0
 10
-293.0188746953022
 20
-238.6217181139014
 30
0.0
 10
-293.0068599247974
 20
-239.0147604450749
 30
0.0
 10
-293.1190839102295
 20
-239.4075874577805
 30
0.0
 10
-292.8625104239655
 20
-239.2472397947889
 30
0.0
 10
-292.690147990469
 20
-239.0186792411893
 30
0.0
 10
-292.6018243549659
 20
-238.7218842651351
 30
0.0
 10
-292.5136299105436
 20
-238.4252830757019
 30
0.0
 10
-292.5337406554387
 20
-238.1405028701524
 30
0.0
 10
-292.6619628030303
 20
-237.8677804988013
 30
0.0
 10
-292.3251401238068
 20
-237.8999060142013
 30
0.0
 10
-292.0083635939381
 20
-237.9961533693204
 30
0.0
 10
-291.7115686178838
 20
-238.1564795004652
 30
0.0
 10
-291.8239863899369
 20
-237.7074328358097
 30
0.0
 10
-292.064583245888
 20
-237.3425541602282
 30
0.0
 10
-292.4333807175841
 20
-237.0617573463335
 30
0.0
  0
HATCH
  5
83
330
7B
100
AcDbEntity
  8
Layer 1
 62
   251
420
  6316128
440
 33554687
100
AcDbHatch
 10
0.0
 20
0.0
 30
0.0
210
0.0
220
0.0
230
1.0
  2
SOLID
 70
     1
 71
     1
 91
        1
 92
        1
 93
        1
 72
     4
 94
        3
 73
     0
 74
     0
 95
      146
 96
      142
 40
0.0
 40
0.0
 40
0.0
 40
0.0
 40
1.0
 40
1.0
 40
1.0
 40
2.0
 40
2.0
 40
2.0
 40
3.0
 40
3.0
 40
3.0
 40
4.0
 40
4.0
 40
4.0
 40
5.0
 40
5.0
 40
5.0
 40
6.0
 40
6.0
 40
6.0
 40
7.0
 40
7.0
 40
7.0
 40
8.0
 40
8.0
 40
8.0
 40
9.0
 40
9.0
 40
9.0
 40
10.0
 40
10.0
 40
10.0
 40
11.0
 40
11.0
 40
11.0
 40
12.0
 40
12.0
 40
12.0
 40
13.0
 40
13.0
 40
13.0
 40
14.0
 40
14.0
 40
14.0
 40
15.0
 40
15.0
 40
15.0
 40
16.0
 40
16.0
 40
16.0
 40
17.0
 40
17.0
 40
17.0
 40
18.0
 40
18.0
 40
18.0
 40
19.0
 40
19.0
 40
19.0
 40
20.0
 40
20.0
 40
20.0
 40
21.0
 40
21.0
 40
21.0
 40
22.0
 40
22.0
 40
22.0
 40
23.0
 40
23.0
 40
23.0
 40
24.0
 40
24.0
 40
24.0
 40
25.0
 40
25.0
 40
25.0
 40
26.0
 40
26.0
 40
26.0
 40
27.0
 40
27.0
 40
27.0
 40
28.0
 40
28.0
 40
28.0
 40
29.0
 40
29.0
 40
29.0
 40
30.0
 40
30.0
 40
30.0
 40
31.0
 40
31.0
 40
31.0
 40
32.0
 40
32.0
 40
32.0
 40
33.0
 40
33.0
 40
33.0
 40
34.0
 40
34.0
 40
34.0
 40
35.0
 40
35.0
 40
35.0
 40
36.0
 40
36.0
 40
36.0
 40
37.0
 40
37.0
 40
37.0
 40
38.0
 40
38.0
 40
38.0
 40
39.0
 40
39.0
 40
39.0
 40
40.0
 40
40.0
 40
40.0
 40
41.0
 40
41.0
 40
41.0
 40
42.0
 40
42.0
 40
42.0
 40
43.0
 40
43.0
 40
43.0
 40
44.0
 40
44.0
 40
44.0
 40
45.0
 40
45.0
 40
45.0
 40
46.0
 40
46.0
 40
46.0
 40
47.0
 40
47.0
 40
47.0
 40
47.0
 10
-292.4333807175841
 20
-237.0617573463335
 10
-292.1446817159201
 20
-236.8933137089516
 10
-291.9542755948197
 20
-236.644836197078
 10
-291.8619685676618
 20
-236.3159157056237
 10
-291.7698337952781
 20
-235.9871244052502
 10
-291.8038756450417
 20
-235.6743527988831
 10
-291.9642233080334
 20
-235.377536290982
 10
-291.956321120264
 20
-235.5941036059235
 10
-292.0345032559325
 20
-235.7805909309095
 10
-292.1987912468853
 20
-235.9369552022462
 10
-292.363294556306
 20
-236.093319473583
 10
-292.5537006774064
 20
-236.1916554178401
 10
-292.7702033968075
 20
-236.2316831210093
 10
-293.1551928172842
 20
-236.2638086364093
 10
-293.6564757422348
 20
-236.1876935580321
 10
-294.2739660442723
 20
-236.0031225674098
 10
-294.891628601084
 20
-235.8187453634086
 10
-295.5933514877358
 20
-235.7705786221555
 10
-296.3792208316149
 20
-235.8587730665778
 10
-297.2053547289779
 20
-235.9630948642406
 10
-297.8870960618152
 20
-236.3200282883592
 10
-298.4243371708931
 20
-236.9294226160064
 10
-299.2504064727157
 20
-236.1756787875273
 10
-300.2288135905267
 20
-235.8267767422586
 10
-301.3596446517131
 20
-235.8828026075875
 10
-301.9051109262621
 20
-235.9068967441374
 10
-302.4504049460368
 20
-235.9871244052502
 10
-302.9956774339647
 20
-236.1234425272321
 10
-303.5411652403604
 20
-236.2598898402949
 10
-304.026299280224
 20
-236.2918215690738
 10
-304.4513164038699
 20
-236.2196683505045
 10
-304.836262760653
 20
-236.1555680426321
 10
-305.1571518732572
 20
-235.9350819315761
 10
-305.4137253595212
 20
-235.5579946988688
 10
-305.5501726725839
 20
-235.991107796905
 10
-305.5381579020791
 20
-236.3119323139689
 10
-305.3776164524665
 20
-236.5204036545201
 10
-305.2172687894749
 20
-236.7290472498456
 10
-305.0287790027381
 20
-236.8812989384468
 10
-304.8122332196434
 20
-236.977546293566
 10
-305.0528085437477
 20
-237.1299917687883
 10
-305.2353340089256
 20
-237.3104286448282
 10
-305.3595727648624
 20
-237.5188999853794
 10
-305.4840053074203
 20
-237.7275435807048
 10
-305.570089630858
 20
-237.9399337173705
 10
-305.6182133084176
 20
-238.1564795004652
 10
-305.3216121189844
 20
-237.9961533693204
 10
-305.004706398035
 20
-237.8999060142013
 10
-304.6678837188114
 20
-237.8677804988013
 10
-304.7962350574838
 20
-238.1405028701524
 10
-304.8182621367426
 20
-238.4232160184107
 10
-304.734051083975
 20
-238.7158553480359
 10
-304.6498184993607
 20
-239.0087099961289
 10
-304.4754105404199
 20
-239.2352250242841
 10
-304.2107410797656
 20
-239.3955726872757
 10
-304.3309964440476
 20
-238.8503001993478
 10
-304.2449121206098
 20
-238.3690634237519
 10
-303.9521005362104
 20
-237.9519484878753
 10
-303.6594181428916
 20
-237.5350704023133
 10
-303.2644810092013
 20
-237.2222987959462
 10
-302.7671168803652
 20
-237.0136336687739
 10
-302.2699465381501
 20
-236.8051838600695
 10
-301.7727761959349
 20
-236.7410620203504
 10
-301.2754120670988
 20
-236.8211604903824
 10
-300.5616959417889
 20
-236.981701939995
 10
-300.0804806980399
 20
-237.3525234052886
 10
-299.8318093995452
 20
-237.9339048002713
 10
-299.5833103558247
 20
-238.515479981875
 10
-299.4669737876572
 20
-239.1389992010117
 10
-299.4829504179701
 20
-239.804591648762
 10
-299.4829504179701
 20
-241.0878251214772
 10
-299.478988558162
 20
-242.4111293610552
 10
-299.4708925837717
 20
-243.7744613038025
 10
-299.4708925837717
 20
-245.0577378402113
 10
-299.4669737876572
 20
-246.34101437662
 10
-299.4588778132669
 20
-247.6240540627142
 10
-299.4348482722573
 20
-248.4742390329335
 10
-299.4910463923604
 20
-249.3202898885706
 10
-299.6273214506488
 20
-250.1624219480931
 10
-299.7797669258711
 20
-251.0285835486253
 10
-300.1565957764171
 20
-251.7744251893351
 10
-300.7581094481417
 20
-252.3999899339161
 10
-300.0284382243658
 20
-252.4240410067725
 10
-299.426946084488
 20
-252.1593715461182
 10
-298.9536114966615
 20
-251.6059815519531
 10
-298.9536114966615
 20
-251.6059815519531
 10
-298.3641341272884
 20
-252.7728784565008
 10
-298.3641341272884
 20
-252.7728784565008
 10
-298.3641341272884
 20
-252.7728784565008
 10
-297.9551151658021
 20
-251.6059815519531
 10
-297.9551151658021
 20
-251.6059815519531
 10
-297.7307102586316
 20
-251.9349020434074
 10
-297.4359823398685
 20
-252.1734318420673
 10
-297.0709529413595
 20
-252.3217647345541
 10
-296.706074265778
 20
-252.4700976270409
 10
-296.3310971540553
 20
-252.5040748812642
 10
-295.9461507972723
 20
-252.4240410067725
 10
-296.3150989918957
 20
-252.1515124220425
 10
-296.6179228850492
 20
-251.8146466791253
 10
-296.8544071582648
 20
-251.4135083735616
 10
-297.0910636862546
 20
-251.0125853864656
 10
-297.2615528490809
 20
-250.5834126163906
 10
-297.3657023919694
 20
-250.1263130410383
 10
-297.5421774082013
 20
-249.2281551161869
 10
-297.6103902988093
 20
-248.3139344336355
 10
-297.5701903408658
 20
-247.3834787386099
 10
-297.5622881530965
 20
-246.0763449159657
 10
-297.5581540385142
 20
-244.7650554468925
 10
-297.5581540385142
 20
-243.4496533950838
 10
-297.5502733825917
 20
-242.0622919113269
 10
-297.5460962043158
 20
-240.7109747390844
 10
-297.5460962043158
 20
-239.3955726872757
 10
-297.5541921787062
 20
-239.0668029187489
 10
-297.534081433811
 20
-238.7399279527391
 10
-297.4859577562514
 20
-238.4151200440204
 10
-297.4378556105386
 20
-238.0903121353016
 10
-297.3216912971454
 20
-237.7955842165385
 10
-297.1371203065231
 20
-237.5309147558842
 10
-296.8724508458688
 20
-237.2181216176703
 10
-296.5436810773421
 20
-237.0016188982691
 10
-296.1506387461686
 20
-236.8812989384468
 10
-295.3166026610364
 20
-236.6328214265732
 10
-294.546731479317
 20
-236.7531413863955
 10
-293.8408960099296
 20
-237.2422157542203
 10
-293.5202222157932
 20
-237.5068852148746
 10
-293.2916401303469
 20
-237.8358057063288
 10
-293.1551928172842
 20
-238.2286327190344
 10
-293.0188746953022
 20
-238.6217181139014
 10
-293.0068599247974
 20
-239.0147604450749
 10
-293.1190839102295
 20
-239.4075874577805
 10
-292.8625104239655
 20
-239.2472397947889
 10
-292.690147990469
 20
-239.0186792411893
 10
-292.6018243549659
 20
-238.7218842651351
 10
-292.5136299105436
 20
-238.4252830757019
 10
-292.5337406554387
 20
-238.1405028701524
 10
-292.6619628030303
 20
-237.8677804988013
 10
-292.3251401238068
 20
-237.8999060142013
 10
-292.0083635939381
 20
-237.9961533693204
 10
-291.7115686178838
 20
-238.1564795004652
 10
-291.8239863899369
 20
-237.7074328358097
 10
-292.064583245888
 20
-237.3425541602282
 10
-292.4333807175841
 20
-237.0617573463335
 97
        0
 97
        1
330
82
 75
     2
 76
     1
 98
        1
 10
0.0
 20
0.0
450
        0
451
        0
460
0.0
461
0.0
452
        0
462
0.0
453
        0
470

  0
SPLINE
  5
84
330
7B
100
AcDbEntity
  8
Layer 1
100
AcDbSpline
210
0.0
220
0.0
230
1.0
 70
     9
 71
     3
 72
   182
 73
   178
 74
     0
 42
0.0000000001
 43
0.0000000001
 40
0.0
 40
0.0
 40
0.0
 40
0.0
 40
1.0
 40
1.0
 40
1.0
 40
2.0
 40
2.0
 40
2.0
 40
3.0
 40
3.0
 40
3.0
 40
4.0
 40
4.0
 40
4.0
 40
5.0
 40
5.0
 40
5.0
 40
6.0
 40
6.0
 40
6.0
 40
7.0
 40
7.0
 40
7.0
 40
8.0
 40
8.0
 40
8.0
 40
9.0
 40
9.0
 40
9.0
 40
10.0
 40
10.0
 40
10.0
 40
11.0
 40
11.0
 40
11.0
 40
12.0
 40
12.0
 40
12.0
 40
13.0
 40
13.0
 40
13.0
 40
14.0
 40
14.0
 40
14.0
 40
15.0
 40
15.0
 40
15.0
 40
16.0
 40
16.0
 40
16.0
 40
17.0
 40
17.0
 40
17.0
 40
18.0
 40
18.0
 40
18.0
 40
19.0
 40
19.0
 40
19.0
 40
20.0
 40
20.0
 40
20.0
 40
21.0
 40
21.0
 40
21.0
 40
22.0
 40
22.0
 40
22.0
 40
23.0
 40
23.0
 40
23.0
 40
24.0
 40
24.0
 40
24.0
 40
25.0
 40
25.0
 40
25.0
 40
26.0
 40
26.0
 40
26.0
 40
27.0
 40
27.0
 40
27.0
 40
28.0
 40
28.0
 40
28.0
 40
29.0
 40
29.0
 40
29.0
 40
30.0
 40
30.0
 40
30.0
 40
31.0
 40
31.0
 40
31.0
 40
32.0
 40
32.0
 40
32.0
 40
33.0
 40
33.0
 40
33.0
 40
34.0
 40
34.0
 40
34.0
 40
35.0
 40
35.0
 40
35.0
 40
36.0
 40
36.0
 40
36.0
 40
37.0
 40
37.0
 40
37.0
 40
38.0
 40
38.0
 40
38.0
 40
39.0
 40
39.0
 40
39.0
 40
40.0
 40
40.0
 40
40.0
 40
41.0
 40
41.0
 40
41.0
 40
42.0
 40
42.0
 40
42.0
 40
43.0
 40
43.0
 40
43.0
 40
44.0
 40
44.0
 40
44.0
 40
45.0
 40
45.0
 40
45.0
 40
46.0
 40
46.0
 40
46.0
 40
47.0
 40
47.0
 40
47.0
 40
48.0
 40
48.0
 40
48.0
 40
49.0
 40
49.0
 40
49.0
 40
50.0
 40
50.0
 40
50.0
 40
51.0
 40
51.0
 40
51.0
 40
52.0
 40
52.0
 40
52.0
 40
53.0
 40
53.0
 40
53.0
 40
54.0
 40
54.0
 40
54.0
 40
55.0
 40
55.0
 40
55.0
 40
56.0
 40
56.0
 40
56.0
 40
57.0
 40
57.0
 40
57.0
 40
58.0
 40
58.0
 40
58.0
 40
59.0
 40
59.0
 40
59.0
 40
59.0
 10
-280.7282381695121
 20
-250.0781893634787
 30
0.0
 10
-281.0331291199566
 20
-250.2465899371671
 30
0.0
 10
-281.3459653218641
 20
-250.3509117348298
 30
0.0
 10
-281.6666391160005
 20
-250.3909394379991
 30
0.0
 10
-281.5703056334942
 20
-250.1263130410383
 30
0.0
 10
-281.5384169684089
 20
-249.8958792167687
 30
0.0
 10
-281.5703056334942
 20
-249.6992288601012
 30
0.0
 10
-281.6024957444345
 20
-249.5027938219017
 30
0.0
 10
-281.6586938645377
 20
-249.3404006334657
 30
0.0
 10
-281.7387492708761
 20
-249.2120277629466
 30
0.0
 10
-281.8190845912229
 20
-249.0838056153549
 30
0.0
 10
-281.9432802834661
 20
-248.9755650215777
 30
0.0
 10
-282.111723920848
 20
-248.8872198542278
 30
0.0
 10
-282.111723920848
 20
-249.1118185480194
 30
0.0
 10
-282.1458949616923
 20
-249.36654029546
 30
0.0
 10
-282.2139786612196
 20
-249.6511267143885
 30
0.0
 10
-282.2821700199808
 20
-249.9359069199379
 30
0.0
 10
-282.4084758332087
 20
-250.2105240938059
 30
0.0
 10
-282.5928961009035
 20
-250.4751935544602
 30
0.0
 10
-282.7775101552193
 20
-250.7398630151145
 30
0.0
 10
-283.0460984119881
 20
-250.9624161834617
 30
0.0
 10
-283.3988761896777
 20
-251.142809995808
 30
0.0
 10
-283.7519338813755
 20
-251.3233114673884
 30
0.0
 10
-284.2169141126503
 20
-251.4135083735616
 30
0.0
 10
-284.7944197752121
 20
-251.4135083735616
 30
0.0
 10
-285.1714208805323
 20
-251.4135083735616
 30
0.0
 10
-285.5504244476033
 20
-251.3674517532931
 30
0.0
 10
-285.9311936261106
 20
-251.2751447261352
 30
0.0
 10
-286.3122211867793
 20
-251.1830314855984
 30
0.0
 10
-286.6349620382068
 20
-251.0044463483817
 30
0.0
 10
-286.8996314988611
 20
-250.7398630151145
 30
0.0
 10
-287.1804283127557
 20
-250.4270268132071
 30
0.0
 10
-287.3468048928465
 20
-250.0682416502651
 30
0.0
 10
-287.3988473665206
 20
-249.6631414848933
 30
0.0
 10
-287.4510836268157
 20
-249.258278169836
 30
0.0
 10
-287.4650147316842
 20
-247.551900844145
 30
0.0
 10
-287.440942126981
 20
-244.5443970810623
 30
0.0
 10
-286.622947267702
 20
-244.4240771212399
 30
0.0
 10
-285.9654292624952
 20
-244.4000475802303
 30
0.0
 10
-285.4680651336591
 20
-244.4722438624931
 30
0.0
 10
-284.970894791444
 20
-244.5443970810623
 30
0.0
 10
-284.6099995075173
 20
-244.6406229043347
 30
0.0
 10
-284.3853577500322
 20
-244.760942864157
 30
0.0
 10
-284.3853577500322
 20
-244.760942864157
 30
0.0
 10
-284.0605498413135
 20
-244.9414012720438
 30
0.0
 10
-284.0605498413135
 20
-244.9414012720438
 30
0.0
 10
-283.868076662922
 20
-244.7810536090521
 30
0.0
 10
-283.6395161093224
 20
-244.6267348631597
 30
0.0
 10
-283.3748466486681
 20
-244.4782297158987
 30
0.0
 10
-283.1101771880138
 20
-244.3299398871054
 30
0.0
 10
-282.7733975724838
 20
-244.1515485365099
 30
0.0
 10
-282.3643140154572
 20
-243.9429049411844
 30
0.0
 10
-282.7492603722403
 20
-243.8225849813621
 30
0.0
 10
-283.0662091568833
 20
-243.6863099230737
 30
0.0
 10
-283.3147082006037
 20
-243.5338644478513
 30
0.0
 10
-283.5633794990984
 20
-243.3816127592501
 30
0.0
 10
-283.7437948432916
 20
-243.2492780289229
 30
0.0
 10
-283.8560188287236
 20
-243.1368602568699
 30
0.0
 10
-283.8560188287236
 20
-243.1368602568699
 30
0.0
 10
-284.0365203003039
 20
-242.9684812150283
 30
0.0
 10
-284.0365203003039
 20
-242.9684812150283
 30
0.0
 10
-284.2451638956293
 20
-243.1930799088198
 30
0.0
 10
-284.5819435111593
 20
-243.3494872438501
 30
0.0
 10
-285.047031401668
 20
-243.437638624579
 30
0.0
 10
-285.5122054195639
 20
-243.5259837919288
 30
0.0
 10
-285.9753985075557
 20
-243.5720404121973
 30
0.0
 10
-286.436459942716
 20
-243.5759592083118
 30
0.0
 10
-286.8977151644975
 20
-243.5801148547408
 30
0.0
 10
-287.2325138501234
 20
-243.5740859376417
 30
0.0
 10
-287.440942126981
 20
-243.5579585844013
 30
0.0
 10
-287.440942126981
 20
-243.5579585844013
 30
0.0
 10
-287.440942126981
 20
-239.4797837400433
 30
0.0
 10
-287.440942126981
 20
-239.4797837400433
 30
0.0
 10
-287.440942126981
 20
-239.1429179971262
 30
0.0
 10
-287.4189581114158
 20
-238.8060953179027
 30
0.0
 10
-287.374817825511
 20
-238.4692726386791
 30
0.0
 10
-287.3308282625337
 20
-238.1324068957621
 30
0.0
 10
-287.2244394075798
 20
-237.8297767892296
 30
0.0
 10
-287.0559957701979
 20
-237.560973213993
 30
0.0
 10
-286.887552132816
 20
-237.2923849572242
 30
0.0
 10
-286.6270598504375
 20
-237.0779277632674
 30
0.0
 10
-286.2740452224333
 20
-236.9174078455016
 30
0.0
 10
-285.9131499385066
 20
-236.7730583446696
 30
0.0
 10
-285.4821469614551
 20
-236.7110035622415
 30
0.0
 10
-284.9808640365044
 20
-236.7309205205156
 30
0.0
 10
-284.4797748981749
 20
-236.7510312654108
 30
0.0
 10
-283.9763818522395
 20
-236.8833659957379
 30
0.0
 10
-283.4710724719405
 20
-237.1279247114971
 30
0.0
 10
-282.9658707508754
 20
-237.3726772138773
 30
0.0
 10
-282.5047016564811
 20
-237.7996967992741
 30
0.0
 10
-282.0876728479916
 20
-238.4090911269212
 30
0.0
 10
-281.839195336118
 20
-237.9119207847061
 30
0.0
 10
-281.8952212014469
 20
-237.4869036610602
 30
0.0
 10
-282.2560303579864
 20
-237.1339536285963
 30
0.0
 10
-282.0556980555192
 20
-237.126051440827
 30
0.0
 10
-281.7869160121293
 20
-237.1459683991011
 30
0.0
 10
-281.4500502692122
 20
-237.1940920766607
 30
0.0
 10
-281.6106347825185
 20
-236.7931690895647
 30
0.0
 10
-281.8911947460985
 20
-236.5405143994152
 30
0.0
 10
-282.2921177331944
 20
-236.4361710699057
 30
0.0
 10
-282.1158365035835
 20
-236.3239470844737
 30
0.0
 10
-281.9612809073765
 20
-236.1655157558458
 30
0.0
 10
-281.8290538362833
 20
-235.9609847432559
 30
0.0
 10
-281.6967191059561
 20
-235.7564967943595
 30
0.0
 10
-281.6466360303394
 20
-235.5862014181543
 30
0.0
 10
-281.6786108228118
 20
-235.4497541050915
 30
0.0
 10
-282.1037786693852
 20
-235.6503017260267
 30
0.0
 10
-282.5047016564811
 20
-235.784703513645
 30
0.0
 10
-282.8815951025675
 20
-235.8527441494786
 30
0.0
 10
-283.2586823352748
 20
-235.9209570400866
 30
0.0
 10
-283.6957142294256
 20
-235.9110093268729
 30
0.0
 10
-284.1928845716406
 20
-235.8226641595231
 30
0.0
 10
-284.5537798555674
 20
-235.766659826041
 30
0.0
 10
-284.9188092540764
 20
-235.7384531067555
 30
0.0
 10
-285.2876713213127
 20
-235.7384531067555
 30
0.0
 10
-285.672596146249
 20
-235.7384531067555
 30
0.0
 10
-286.153725262611
 20
-235.8007016758046
 30
0.0
 10
-286.7311878614792
 20
-235.9249404317414
 30
0.0
 10
-287.3086504603474
 20
-236.0493729742993
 30
0.0
 10
-287.8941444380656
 20
-236.2879027729593
 30
0.0
 10
-288.4875621353999
 20
-236.6407236143424
 30
0.0
 10
-288.9849047323893
 20
-236.0873336201774
 30
0.0
 10
-289.8189408175215
 20
-235.878883811473
 30
0.0
 10
-290.9897995818772
 20
-236.0151373379146
 30
0.0
 10
-290.2439579411674
 20
-236.8493672096679
 30
0.0
 10
-289.7888823594127
 20
-237.5109977976101
 30
0.0
 10
-289.6244221136856
 20
-238.0000721654349
 30
0.0
 10
-289.4601125908859
 20
-238.4893833835743
 30
0.0
 10
-289.3777963406352
 20
-239.0908755234521
 30
0.0
 10
-289.3777963406352
 20
-239.804591648762
 30
0.0
 10
-289.3777963406352
 20
-239.804591648762
 30
0.0
 10
-289.3777963406352
 20
-248.7909940309555
 30
0.0
 10
-289.3777963406352
 20
-248.7909940309555
 30
0.0
 10
-289.3777963406352
 20
-249.4727353637928
 30
0.0
 10
-289.4439637057988
 20
-250.0421019882707
 30
0.0
 10
-289.5762553724324
 20
-250.4992446273166
 30
0.0
 10
-289.7085901027596
 20
-250.9563657345157
 30
0.0
 10
-289.8589685206907
 20
-251.31928501204
 30
0.0
 10
-290.0274121580726
 20
-251.5879809280427
 30
0.0
 10
-290.1958557954546
 20
-251.8567629714325
 30
0.0
 10
-290.3443178790221
 20
-252.0471260288394
 30
0.0
 10
-290.4725400266137
 20
-252.1593715461182
 30
0.0
 10
-290.6008913652861
 20
-252.2717893181712
 30
0.0
 10
-290.6691257877408
 20
-252.3277936516533
 30
0.0
 10
-290.6770279755101
 20
-252.3277936516533
 30
0.0
 10
-289.9633118502002
 20
-252.3116232347194
 30
0.0
 10
-289.4099218560352
 20
-252.1875997972504
 30
0.0
 10
-289.0169010567086
 20
-251.9548190016815
 30
0.0
 10
-288.6240525121561
 20
-251.7223396519674
 30
0.0
 10
-288.3512870771115
 20
-251.501896604605
 30
0.0
 10
-288.1988416018891
 20
-251.2932530092796
 30
0.0
 10
-287.356774137907
 20
-251.9108725023977
 30
0.0
 10
-286.4063799527605
 20
-252.2435395351922
 30
0.0
 10
-285.3478097693771
 20
-252.2917062764453
 30
0.0
 10
-284.8184708480685
 20
-252.3157358174549
 30
0.0
 10
-284.297249432997
 20
-252.2796269104002
 30
0.0
 10
-283.783908673848
 20
-252.1834010871278
 30
0.0
 10
-283.6075197850032
 20
-252.1515124220425
 30
0.0
 10
-283.4310447687713
 20
-252.1112909322521
 30
0.0
 10
-283.2545697525393
 20
-252.063124190999
 30
0.0
 10
-282.9177040096222
 20
-251.9590392436509
 30
0.0
 10
-282.5829268558431
 20
-251.900731002563
 30
0.0
 10
-282.2500875682743
 20
-251.8886516365179
 30
0.0
 10
-281.9173344080928
 20
-251.8766799297066
 30
0.0
 10
-281.6385831196425
 20
-251.9388423713686
 30
0.0
 10
-281.4139413621575
 20
-252.0751820251974
 30
0.0
 10
-281.1894933912934
 20
-252.2116508701068
 30
0.0
 10
-281.045186954155
 20
-252.4560157992449
 30
0.0
 10
-280.9809359233551
 20
-252.8089658317088
 30
0.0
 10
-280.8687119379231
 20
-252.6003222363834
 30
0.0
 10
-280.8185212030723
 20
-252.3176521518186
 30
0.0
 10
-280.8304929098836
 20
-251.9608479187807
 30
0.0
 10
-280.8425722759288
 20
-251.6040652175894
 30
0.0
 10
-281.045186954155
 20
-251.3373932951843
 30
0.0
 10
-281.438078562401
 20
-251.1609182789524
 30
0.0
 10
-281.1092441983339
 20
-250.9364487762416
 30
0.0
 10
-280.8726307340375
 20
-250.5755534923149
 30
0.0
 10
-280.7282381695121
 20
-250.0781893634787
 30
0.0
  0
HATCH
  5
85
330
7B
100
AcDbEntity
  8
Layer 1
 62
   251
420
  6316128
440
 33554687
100
AcDbHatch
 10
0.0
 20
0.0
 30
0.0
210
0.0
220
0.0
230
1.0
  2
SOLID
 70
     1
 71
     1
 91
        1
 92
        1
 93
        1
 72
     4
 94
        3
 73
     0
 74
     0
 95
      182
 96
      178
 40
0.0
 40
0.0
 40
0.0
 40
0.0
 40
1.0
 40
1.0
 40
1.0
 40
2.0
 40
2.0
 40
2.0
 40
3.0
 40
3.0
 40
3.0
 40
4.0
 40
4.0
 40
4.0
 40
5.0
 40
5.0
 40
5.0
 40
6.0
 40
6.0
 40
6.0
 40
7.0
 40
7.0
 40
7.0
 40
8.0
 40
8.0
 40
8.0
 40
9.0
 40
9.0
 40
9.0
 40
10.0
 40
10.0
 40
10.0
 40
11.0
 40
11.0
 40
11.0
 40
12.0
 40
12.0
 40
12.0
 40
13.0
 40
13.0
 40
13.0
 40
14.0
 40
14.0
 40
14.0
 40
15.0
 40
15.0
 40
15.0
 40
16.0
 40
16.0
 40
16.0
 40
17.0
 40
17.0
 40
17.0
 40
18.0
 40
18.0
 40
18.0
 40
19.0
 40
19.0
 40
19.0
 40
20.0
 40
20.0
 40
20.0
 40
21.0
 40
21.0
 40
21.0
 40
22.0
 40
22.0
 40
22.0
 40
23.0
 40
23.0
 40
23.0
 40
24.0
 40
24.0
 40
24.0
 40
25.0
 40
25.0
 40
25.0
 40
26.0
 40
26.0
 40
26.0
 40
27.0
 40
27.0
 40
27.0
 40
28.0
 40
28.0
 40
28.0
 40
29.0
 40
29.0
 40
29.0
 40
30.0
 40
30.0
 40
30.0
 40
31.0
 40
31.0
 40
31.0
 40
32.0
 40
32.0
 40
32.0
 40
33.0
 40
33.0
 40
33.0
 40
34.0
 40
34.0
 40
34.0
 40
35.0
 40
35.0
 40
35.0
 40
36.0
 40
36.0
 40
36.0
 40
37.0
 40
37.0
 40
37.0
 40
38.0
 40
38.0
 40
38.0
 40
39.0
 40
39.0
 40
39.0
 40
40.0
 40
40.0
 40
40.0
 40
41.0
 40
41.0
 40
41.0
 40
42.0
 40
42.0
 40
42.0
 40
43.0
 40
43.0
 40
43.0
 40
44.0
 40
44.0
 40
44.0
 40
45.0
 40
45.0
 40
45.0
 40
46.0
 40
46.0
 40
46.0
 40
47.0
 40
47.0
 40
47.0
 40
48.0
 40
48.0
 40
48.0
 40
49.0
 40
49.0
 40
49.0
 40
50.0
 40
50.0
 40
50.0
 40
51.0
 40
51.0
 40
51.0
 40
52.0
 40
52.0
 40
52.0
 40
53.0
 40
53.0
 40
53.0
 40
54.0
 40
54.0
 40
54.0
 40
55.0
 40
55.0
 40
55.0
 40
56.0
 40
56.0
 40
56.0
 40
57.0
 40
57.0
 40
57.0
 40
58.0
 40
58.0
 40
58.0
 40
59.0
 40
59.0
 40
59.0
 40
59.0
 10
-280.7282381695121
 20
-250.0781893634787
 10
-281.0331291199566
 20
-250.2465899371671
 10
-281.3459653218641
 20
-250.3509117348298
 10
-281.6666391160005
 20
-250.3909394379991
 10
-281.5703056334942
 20
-250.1263130410383
 10
-281.5384169684089
 20
-249.8958792167687
 10
-281.5703056334942
 20
-249.6992288601012
 10
-281.6024957444345
 20
-249.5027938219017
 10
-281.6586938645377
 20
-249.3404006334657
 10
-281.7387492708761
 20
-249.2120277629466
 10
-281.8190845912229
 20
-249.0838056153549
 10
-281.9432802834661
 20
-248.9755650215777
 10
-282.111723920848
 20
-248.8872198542278
 10
-282.111723920848
 20
-249.1118185480194
 10
-282.1458949616923
 20
-249.36654029546
 10
-282.2139786612196
 20
-249.6511267143885
 10
-282.2821700199808
 20
-249.9359069199379
 10
-282.4084758332087
 20
-250.2105240938059
 10
-282.5928961009035
 20
-250.4751935544602
 10
-282.7775101552193
 20
-250.7398630151145
 10
-283.0460984119881
 20
-250.9624161834617
 10
-283.3988761896777
 20
-251.142809995808
 10
-283.7519338813755
 20
-251.3233114673884
 10
-284.2169141126503
 20
-251.4135083735616
 10
-284.7944197752121
 20
-251.4135083735616
 10
-285.1714208805323
 20
-251.4135083735616
 10
-285.5504244476033
 20
-251.3674517532931
 10
-285.9311936261106
 20
-251.2751447261352
 10
-286.3122211867793
 20
-251.1830314855984
 10
-286.6349620382068
 20
-251.0044463483817
 10
-286.8996314988611
 20
-250.7398630151145
 10
-287.1804283127557
 20
-250.4270268132071
 10
-287.3468048928465
 20
-250.0682416502651
 10
-287.3988473665206
 20
-249.6631414848933
 10
-287.4510836268157
 20
-249.258278169836
 10
-287.4650147316842
 20
-247.551900844145
 10
-287.440942126981
 20
-244.5443970810623
 10
-286.622947267702
 20
-244.4240771212399
 10
-285.9654292624952
 20
-244.4000475802303
 10
-285.4680651336591
 20
-244.4722438624931
 10
-284.970894791444
 20
-244.5443970810623
 10
-284.6099995075173
 20
-244.6406229043347
 10
-284.3853577500322
 20
-244.760942864157
 10
-284.3853577500322
 20
-244.760942864157
 10
-284.0605498413135
 20
-244.9414012720438
 10
-284.0605498413135
 20
-244.9414012720438
 10
-283.868076662922
 20
-244.7810536090521
 10
-283.6395161093224
 20
-244.6267348631597
 10
-283.3748466486681
 20
-244.4782297158987
 10
-283.1101771880138
 20
-244.3299398871054
 10
-282.7733975724838
 20
-244.1515485365099
 10
-282.3643140154572
 20
-243.9429049411844
 10
-282.7492603722403
 20
-243.8225849813621
 10
-283.0662091568833
 20
-243.6863099230737
 10
-283.3147082006037
 20
-243.5338644478513
 10
-283.5633794990984
 20
-243.3816127592501
 10
-283.7437948432916
 20
-243.2492780289229
 10
-283.8560188287236
 20
-243.1368602568699
 10
-283.8560188287236
 20
-243.1368602568699
 10
-284.0365203003039
 20
-242.9684812150283
 10
-284.0365203003039
 20
-242.9684812150283
 10
-284.2451638956293
 20
-243.1930799088198
 10
-284.5819435111593
 20
-243.3494872438501
 10
-285.047031401668
 20
-243.437638624579
 10
-285.5122054195639
 20
-243.5259837919288
 10
-285.9753985075557
 20
-243.5720404121973
 10
-286.436459942716
 20
-243.5759592083118
 10
-286.8977151644975
 20
-243.5801148547408
 10
-287.2325138501234
 20
-243.5740859376417
 10
-287.440942126981
 20
-243.5579585844013
 10
-287.440942126981
 20
-243.5579585844013
 10
-287.440942126981
 20
-239.4797837400433
 10
-287.440942126981
 20
-239.4797837400433
 10
-287.440942126981
 20
-239.1429179971262
 10
-287.4189581114158
 20
-238.8060953179027
 10
-287.374817825511
 20
-238.4692726386791
 10
-287.3308282625337
 20
-238.1324068957621
 10
-287.2244394075798
 20
-237.8297767892296
 10
-287.0559957701979
 20
-237.560973213993
 10
-286.887552132816
 20
-237.2923849572242
 10
-286.6270598504375
 20
-237.0779277632674
 10
-286.2740452224333
 20
-236.9174078455016
 10
-285.9131499385066
 20
-236.7730583446696
 10
-285.4821469614551
 20
-236.7110035622415
 10
-284.9808640365044
 20
-236.7309205205156
 10
-284.4797748981749
 20
-236.7510312654108
 10
-283.9763818522395
 20
-236.8833659957379
 10
-283.4710724719405
 20
-237.1279247114971
 10
-282.9658707508754
 20
-237.3726772138773
 10
-282.5047016564811
 20
-237.7996967992741
 10
-282.0876728479916
 20
-238.4090911269212
 10
-281.839195336118
 20
-237.9119207847061
 10
-281.8952212014469
 20
-237.4869036610602
 10
-282.2560303579864
 20
-237.1339536285963
 10
-282.0556980555192
 20
-237.126051440827
 10
-281.7869160121293
 20
-237.1459683991011
 10
-281.4500502692122
 20
-237.1940920766607
 10
-281.6106347825185
 20
-236.7931690895647
 10
-281.8911947460985
 20
-236.5405143994152
 10
-282.2921177331944
 20
-236.4361710699057
 10
-282.1158365035835
 20
-236.3239470844737
 10
-281.9612809073765
 20
-236.1655157558458
 10
-281.8290538362833
 20
-235.9609847432559
 10
-281.6967191059561
 20
-235.7564967943595
 10
-281.6466360303394
 20
-235.5862014181543
 10
-281.6786108228118
 20
-235.4497541050915
 10
-282.1037786693852
 20
-235.6503017260267
 10
-282.5047016564811
 20
-235.784703513645
 10
-282.8815951025675
 20
-235.8527441494786
 10
-283.2586823352748
 20
-235.9209570400866
 10
-283.6957142294256
 20
-235.9110093268729
 10
-284.1928845716406
 20
-235.8226641595231
 10
-284.5537798555674
 20
-235.766659826041
 10
-284.9188092540764
 20
-235.7384531067555
 10
-285.2876713213127
 20
-235.7384531067555
 10
-285.672596146249
 20
-235.7384531067555
 10
-286.153725262611
 20
-235.8007016758046
 10
-286.7311878614792
 20
-235.9249404317414
 10
-287.3086504603474
 20
-236.0493729742993
 10
-287.8941444380656
 20
-236.2879027729593
 10
-288.4875621353999
 20
-236.6407236143424
 10
-288.9849047323893
 20
-236.0873336201774
 10
-289.8189408175215
 20
-235.878883811473
 10
-290.9897995818772
 20
-236.0151373379146
 10
-290.2439579411674
 20
-236.8493672096679
 10
-289.7888823594127
 20
-237.5109977976101
 10
-289.6244221136856
 20
-238.0000721654349
 10
-289.4601125908859
 20
-238.4893833835743
 10
-289.3777963406352
 20
-239.0908755234521
 10
-289.3777963406352
 20
-239.804591648762
 10
-289.3777963406352
 20
-239.804591648762
 10
-289.3777963406352
 20
-248.7909940309555
 10
-289.3777963406352
 20
-248.7909940309555
 10
-289.3777963406352
 20
-249.4727353637928
 10
-289.4439637057988
 20
-250.0421019882707
 10
-289.5762553724324
 20
-250.4992446273166
 10
-289.7085901027596
 20
-250.9563657345157
 10
-289.8589685206907
 20
-251.31928501204
 10
-290.0274121580726
 20
-251.5879809280427
 10
-290.1958557954546
 20
-251.8567629714325
 10
-290.3443178790221
 20
-252.0471260288394
 10
-290.4725400266137
 20
-252.1593715461182
 10
-290.6008913652861
 20
-252.2717893181712
 10
-290.6691257877408
 20
-252.3277936516533
 10
-290.6770279755101
 20
-252.3277936516533
 10
-289.9633118502002
 20
-252.3116232347194
 10
-289.4099218560352
 20
-252.1875997972504
 10
-289.0169010567086
 20
-251.9548190016815
 10
-288.6240525121561
 20
-251.7223396519674
 10
-288.3512870771115
 20
-251.501896604605
 10
-288.1988416018891
 20
-251.2932530092796
 10
-287.356774137907
 20
-251.9108725023977
 10
-286.4063799527605
 20
-252.2435395351922
 10
-285.3478097693771
 20
-252.2917062764453
 10
-284.8184708480685
 20
-252.3157358174549
 10
-284.297249432997
 20
-252.2796269104002
 10
-283.783908673848
 20
-252.1834010871278
 10
-283.6075197850032
 20
-252.1515124220425
 10
-283.4310447687713
 20
-252.1112909322521
 10
-283.2545697525393
 20
-252.063124190999
 10
-282.9177040096222
 20
-251.9590392436509
 10
-282.5829268558431
 20
-251.900731002563
 10
-282.2500875682743
 20
-251.8886516365179
 10
-281.9173344080928
 20
-251.8766799297066
 10
-281.6385831196425
 20
-251.9388423713686
 10
-281.4139413621575
 20
-252.0751820251974
 10
-281.1894933912934
 20
-252.2116508701068
 10
-281.045186954155
 20
-252.4560157992449
 10
-280.9809359233551
 20
-252.8089658317088
 10
-280.8687119379231
 20
-252.6003222363834
 10
-280.8185212030723
 20
-252.3176521518186
 10
-280.8304929098836
 20
-251.9608479187807
 10
-280.8425722759288
 20
-251.6040652175894
 10
-281.045186954155
 20
-251.3373932951843
 10
-281.438078562401
 20
-251.1609182789524
 10
-281.1092441983339
 20
-250.9364487762416
 10
-280.8726307340375
 20
-250.5755534923149
 10
-280.7282381695121
 20
-250.0781893634787
 97
        0
 97
        1
330
84
 75
     2
 76
     1
 98
        1
 10
0.0
 20
0.0
450
        0
451
        0
460
0.0
461
0.0
452
        0
462
0.0
453
        0
470

  0
SPLINE
  5
86
330
7B
100
AcDbEntity
  8
Layer 1
100
AcDbSpline
210
0.0
220
0.0
230
1.0
 70
     9
 71
     3
 72
    11
 73
     7
 74
     0
 42
0.0000000001
 43
0.0000000001
 40
0.0
 40
0.0
 40
0.0
 40
0.0
 40
1.0
 40
1.0
 40
1.0
 40
2.0
 40
2.0
 40
2.0
 40
2.0
 10
-304.2125928185889
 20
-241.4055490526044
 30
0.0
 10
-304.3273144982477
 20
-241.4241741000715
 30
0.0
 10
-304.3459395457148
 20
-241.4379114183189
 30
0.0
 10
-304.2596614356561
 20
-241.4457490105479
 30
0.0
 10
-304.2439647193514
 20
-241.4320116923004
 30
0.0
 10
-304.2282680030468
 20
-241.419264839005
 30
0.0
 10
-304.2125928185889
 20
-241.4055490526044
 30
0.0
  0
HATCH
  5
87
330
7B
100
AcDbEntity
  8
Layer 1
 62
   251
420
  6316128
440
 33554687
100
AcDbHatch
 10
0.0
 20
0.0
 30
0.0
210
0.0
220
0.0
230
1.0
  2
SOLID
 70
     1
 71
     1
 91
        1
 92
        1
 93
        1
 72
     4
 94
        3
 73
     0
 74
     0
 95
       11
 96
        7
 40
0.0
 40
0.0
 40
0.0
 40
0.0
 40
1.0
 40
1.0
 40
1.0
 40
2.0
 40
2.0
 40
2.0
 40
2.0
 10
-304.2125928185889
 20
-241.4055490526044
 10
-304.3273144982477
 20
-241.4241741000715
 10
-304.3459395457148
 20
-241.4379114183189
 10
-304.2596614356561
 20
-241.4457490105479
 10
-304.2439647193514
 20
-241.4320116923004
 10
-304.2282680030468
 20
-241.419264839005
 10
-304.2125928185889
 20
-241.4055490526044
 97
        0
 97
        1
330
86
 75
     2
 76
     1
 98
        1
 10
0.0
 20
0.0
450
        0
451
        0
460
0.0
461
0.0
452
        0
462
0.0
453
        0
470

  0
SPLINE
  5
88
330
7B
100
AcDbEntity
  8
Layer 1
100
AcDbSpline
210
0.0
220
0.0
230
1.0
 70
     9
 71
     3
 72
    47
 73
    43
 74
     0
 42
0.0000000001
 43
0.0000000001
 40
0.0
 40
0.0
 40
0.0
 40
0.0
 40
1.0
 40
1.0
 40
1.0
 40
2.0
 40
2.0
 40
2.0
 40
3.0
 40
3.0
 40
3.0
 40
4.0
 40
4.0
 40
4.0
 40
5.0
 40
5.0
 40
5.0
 40
6.0
 40
6.0
 40
6.0
 40
7.0
 40
7.0
 40
7.0
 40
8.0
 40
8.0
 40
8.0
 40
9.0
 40
9.0
 40
9.0
 40
10.0
 40
10.0
 40
10.0
 40
11.0
 40
11.0
 40
11.0
 40
12.0
 40
12.0
 40
12.0
 40
13.0
 40
13.0
 40
13.0
 40
14.0
 40
14.0
 40
14.0
 40
14.0
 10
-245.7150437338209
 20
-245.0015397201081
 30
0.0
 10
-246.1601070068216
 20
-245.2421150442125
 30
0.0
 10
-246.7195259180858
 20
-245.3624350040348
 30
0.0
 10
-247.3931712765329
 20
-245.3624350040348
 30
0.0
 10
-248.0669027623671
 20
-245.3624350040348
 30
0.0
 10
-248.7727382317544
 20
-245.2020873410432
 30
0.0
 10
-249.5104408343803
 20
-244.8812197602858
 30
0.0
 10
-249.5025817103046
 20
-244.1755780775195
 30
0.0
 10
-249.4984691275691
 20
-243.3955653959654
 30
0.0
 10
-249.4984691275691
 20
-242.541418565938
 30
0.0
 10
-249.4984691275691
 20
-241.6872717359106
 30
0.0
 10
-249.4984691275691
 20
-240.9233648757501
 30
0.0
 10
-249.4984691275691
 20
-240.2496764536095
 30
0.0
 10
-249.4984691275691
 20
-239.5760310951624
 30
0.0
 10
-249.4984691275691
 20
-239.1991376490761
 30
0.0
 10
-249.4984691275691
 20
-239.1188884561166
 30
0.0
 10
-249.4984691275691
 20
-238.8222872666833
 30
0.0
 10
-249.4764420483102
 20
-238.5233821696444
 30
0.0
 10
-249.4323017624055
 20
-238.2226468656288
 30
0.0
 10
-249.3882476038878
 20
-237.9218900297665
 30
0.0
 10
-249.2980506977147
 20
-237.6392199452018
 30
0.0
 10
-249.1616033846519
 20
-237.3745504845474
 30
0.0
 10
-248.9531320441008
 20
-237.0217296431643
 30
0.0
 10
-248.6785148702328
 20
-236.7651561569003
 30
0.0
 10
-248.3375150127334
 20
-236.6046147072876
 30
0.0
 10
-247.9967304737018
 20
-236.4442670442961
 30
0.0
 10
-247.6338111961776
 20
-236.3640178513365
 30
0.0
 10
-247.2488648393944
 20
-236.3640178513365
 30
0.0
 10
-246.7035277559262
 20
-236.3640178513365
 30
0.0
 10
-246.2142165377868
 20
-236.5164633265588
 30
0.0
 10
-245.7812110989845
 20
-236.8211604903824
 30
0.0
 10
-245.3480980009482
 20
-237.126051440827
 30
0.0
 10
-245.0073134619167
 20
-237.5931633249333
 30
0.0
 10
-244.7586206315752
 20
-238.2226468656288
 30
0.0
 10
-244.5101431197016
 20
-238.8523457247921
 30
0.0
 10
-244.3856675134501
 20
-239.656280288122
 30
0.0
 10
-244.3856675134501
 20
-240.6346658740861
 30
0.0
 10
-244.3856675134501
 20
-241.9419719515045
 30
0.0
 10
-244.4960612919056
 20
-242.9365064225558
 30
0.0
 10
-244.716504339268
 20
-243.6180970324657
 30
0.0
 10
-244.9372057687918
 20
-244.2998383653031
 30
0.0
 10
-245.2698728015863
 20
-244.760942864157
 30
0.0
 10
-245.7150437338209
 20
-245.0015397201081
 30
0.0
  0
SPLINE
  5
89
330
7B
100
AcDbEntity
  8
Layer 1
100
AcDbSpline
210
0.0
220
0.0
230
1.0
 70
     9
 71
     3
 72
   197
 73
   193
 74
     0
 42
0.0000000001
 43
0.0000000001
 40
0.0
 40
0.0
 40
0.0
 40
0.0
 40
1.0
 40
1.0
 40
1.0
 40
2.0
 40
2.0
 40
2.0
 40
3.0
 40
3.0
 40
3.0
 40
4.0
 40
4.0
 40
4.0
 40
5.0
 40
5.0
 40
5.0
 40
6.0
 40
6.0
 40
6.0
 40
7.0
 40
7.0
 40
7.0
 40
8.0
 40
8.0
 40
8.0
 40
9.0
 40
9.0
 40
9.0
 40
10.0
 40
10.0
 40
10.0
 40
11.0
 40
11.0
 40
11.0
 40
12.0
 40
12.0
 40
12.0
 40
13.0
 40
13.0
 40
13.0
 40
14.0
 40
14.0
 40
14.0
 40
15.0
 40
15.0
 40
15.0
 40
16.0
 40
16.0
 40
16.0
 40
17.0
 40
17.0
 40
17.0
 40
18.0
 40
18.0
 40
18.0
 40
19.0
 40
19.0
 40
19.0
 40
20.0
 40
20.0
 40
20.0
 40
21.0
 40
21.0
 40
21.0
 40
22.0
 40
22.0
 40
22.0
 40
23.0
 40
23.0
 40
23.0
 40
24.0
 40
24.0
 40
24.0
 40
25.0
 40
25.0
 40
25.0
 40
26.0
 40
26.0
 40
26.0
 40
27.0
 40
27.0
 40
27.0
 40
28.0
 40
28.0
 40
28.0
 40
29.0
 40
29.0
 40
29.0
 40
30.0
 40
30.0
 40
30.0
 40
31.0
 40
31.0
 40
31.0
 40
32.0
 40
32.0
 40
32.0
 40
33.0
 40
33.0
 40
33.0
 40
34.0
 40
34.0
 40
34.0
 40
35.0
 40
35.0
 40
35.0
 40
36.0
 40
36.0
 40
36.0
 40
37.0
 40
37.0
 40
37.0
 40
38.0
 40
38.0
 40
38.0
 40
39.0
 40
39.0
 40
39.0
 40
40.0
 40
40.0
 40
40.0
 40
41.0
 40
41.0
 40
41.0
 40
42.0
 40
42.0
 40
42.0
 40
43.0
 40
43.0
 40
43.0
 40
44.0
 40
44.0
 40
44.0
 40
45.0
 40
45.0
 40
45.0
 40
46.0
 40
46.0
 40
46.0
 40
47.0
 40
47.0
 40
47.0
 40
48.0
 40
48.0
 40
48.0
 40
49.0
 40
49.0
 40
49.0
 40
50.0
 40
50.0
 40
50.0
 40
51.0
 40
51.0
 40
51.0
 40
52.0
 40
52.0
 40
52.0
 40
53.0
 40
53.0
 40
53.0
 40
54.0
 40
54.0
 40
54.0
 40
55.0
 40
55.0
 40
55.0
 40
56.0
 40
56.0
 40
56.0
 40
57.0
 40
57.0
 40
57.0
 40
58.0
 40
58.0
 40
58.0
 40
59.0
 40
59.0
 40
59.0
 40
60.0
 40
60.0
 40
60.0
 40
61.0
 40
61.0
 40
61.0
 40
62.0
 40
62.0
 40
62.0
 40
63.0
 40
63.0
 40
63.0
 40
64.0
 40
64.0
 40
64.0
 40
64.0
 10
-240.8729404974554
 20
-248.7548851239007
 30
0.0
 10
-241.2338357813822
 20
-248.5705079198995
 30
0.0
 10
-241.5826732311105
 20
-248.5785608305962
 30
0.0
 10
-241.9195605058744
 20
-248.7789146649103
 30
0.0
 10
-242.0719844492499
 20
-248.8832579944198
 30
0.0
 10
-242.176370842453
 20
-249.0236886991373
 30
0.0
 10
-242.2323967077819
 20
-249.2000129924418
 30
0.0
 10
-242.2885087004978
 20
-249.3764880086737
 30
0.0
 10
-242.2765369936866
 20
-249.553027620446
 30
0.0
 10
-242.1962878007271
 20
-249.7293088500569
 30
0.0
 10
-242.092095194145
 20
-249.9138798406791
 30
0.0
 10
-241.9477887570066
 20
-250.0622127331659
 30
0.0
 10
-241.7631747026908
 20
-250.1744367185979
 30
0.0
 10
-241.6109230140895
 20
-250.2787585162606
 30
0.0
 10
-241.4785882837624
 20
-250.399078476083
 30
0.0
 10
-241.3661705117093
 20
-250.5353320025246
 30
0.0
 10
-241.1977484061742
 20
-250.8000014631789
 30
0.0
 10
-241.1676684162186
 20
-251.0687835065688
 30
0.0
 10
-241.2759736055361
 20
-251.3413120912988
 30
0.0
 10
-241.3842787948537
 20
-251.6140344626499
 30
0.0
 10
-241.578754434996
 20
-251.7984547303447
 30
0.0
 10
-241.85942205781
 20
-251.8946805536171
 30
0.0
 10
-242.1402619353982
 20
-251.9830687846605
 30
0.0
 10
-242.4127905201282
 20
-251.9710109504621
 30
0.0
 10
-242.6774599807826
 20
-251.8585931784091
 30
0.0
 10
-242.9421294414368
 20
-251.7463691929771
 30
0.0
 10
-243.1586321608381
 20
-251.5698941767451
 30
0.0
 10
-243.3270757982199
 20
-251.3293403844876
 30
0.0
 10
-243.5116898525358
 20
-251.0486942935204
 30
0.0
 10
-243.6319667486646
 20
-250.7418870087121
 30
0.0
 10
-243.6879710821467
 20
-250.4090261892967
 30
0.0
 10
-243.7441907340966
 20
-250.0762730291151
 30
0.0
 10
-243.7682202751062
 20
-249.7374048244472
 30
0.0
 10
-243.7601673644094
 20
-249.3924861708333
 30
0.0
 10
-243.7601673644094
 20
-249.2802621854013
 30
0.0
 10
-243.7561624409078
 20
-249.163904085387
 30
0.0
 10
-243.7481095302111
 20
-249.0436056574115
 30
0.0
 10
-243.7080818270418
 20
-248.4823134754771
 30
0.0
 10
-243.7481095302111
 20
-247.9289450131588
 30
0.0
 10
-243.8683864263398
 20
-247.3834787386099
 30
0.0
 10
-244.0608596047314
 20
-246.7659884365724
 30
0.0
 10
-244.4217548886581
 20
-246.2808328648621
 30
0.0
 10
-244.9510938099667
 20
-245.9278397687047
 30
0.0
 10
-244.542117912174
 20
-245.7353665903131
 30
0.0
 10
-244.1531666318893
 20
-245.4345882226041
 30
0.0
 10
-243.7842184372659
 20
-245.0256123248113
 30
0.0
 10
-243.4154640292634
 20
-244.616593363325
 30
0.0
 10
-243.1146856615543
 20
-244.0733664008415
 30
0.0
 10
-242.8819909933725
 20
-243.3955653959654
 30
0.0
 10
-242.6494039844246
 20
-242.7178935821699
 30
0.0
 10
-242.533067416257
 20
-241.8577608987369
 30
0.0
 10
-242.533067416257
 20
-240.8151242819729
 30
0.0
 10
-242.533067416257
 20
-240.1576062767662
 30
0.0
 10
-242.6013449024053
 20
-239.5139763127344
 30
0.0
 10
-242.7375984288469
 20
-238.884277453571
 30
0.0
 10
-242.8740457419096
 20
-238.2547723810288
 30
0.0
 10
-243.1105730788188
 20
-237.6873220909146
 30
0.0
 10
-243.4473526943488
 20
-237.1820773061559
 30
0.0
 10
-243.7842184372659
 20
-236.6768109895504
 30
0.0
 10
-244.2493924551617
 20
-236.2719046107997
 30
0.0
 10
-244.8427886206492
 20
-235.9670136603551
 30
0.0
 10
-245.4364862319917
 20
-235.6623164965315
 30
0.0
 10
-246.1901869967772
 20
-235.5098710213092
 30
0.0
 10
-247.1044722748689
 20
-235.5098710213092
 30
0.0
 10
-248.5642668912032
 20
-235.5098710213092
 30
0.0
 10
-249.7913022438153
 20
-235.9110093268729
 30
0.0
 10
-250.7856213963987
 20
-236.7128768329116
 30
0.0
 10
-251.114541887853
 20
-236.0632610154742
 30
0.0
 10
-251.8683503118724
 20
-235.8346789300279
 30
0.0
 10
-253.0472835187717
 20
-236.0271521084194
 30
0.0
 10
-252.7185568139385
 20
-236.2918215690738
 30
0.0
 10
-252.4499685571697
 20
-236.5786688319144
 30
0.0
 10
-252.2413034299975
 20
-236.887327855546
 30
0.0
 10
-252.0328536212931
 20
-237.1961591339518
 30
0.0
 10
-251.8463232326136
 20
-237.6072236208825
 30
0.0
 10
-251.68190605058
 20
-238.1203921252573
 30
0.0
 10
-251.5175965277804
 20
-238.6337328844062
 30
0.0
 10
-251.4352372138362
 20
-239.267350539684
 30
0.0
 10
-251.4352372138362
 20
-240.0210943681631
 30
0.0
 10
-251.4352372138362
 20
-240.0210943681631
 30
0.0
 10
-251.4352372138362
 20
-248.5503541113108
 30
0.0
 10
-251.4352372138362
 20
-248.5503541113108
 30
0.0
 10
-251.4352372138362
 20
-249.272166211011
 30
0.0
 10
-251.5014045789997
 20
-249.8736583508888
 30
0.0
 10
-251.6337393093269
 20
-250.3548305309443
 30
0.0
 10
-251.7660740396541
 20
-250.8361103702337
 30
0.0
 10
-251.9165170531256
 20
-251.2171163990556
 30
0.0
 10
-252.0848530312736
 20
-251.4976763626356
 30
0.0
 10
-252.2532751368087
 20
-251.7785377720706
 30
0.0
 10
-252.4698855154438
 20
-252.0390946499894
 30
0.0
 10
-252.7345549760982
 20
-252.2796269104002
 30
0.0
 10
-252.4619402639809
 20
-252.2796269104002
 30
0.0
 10
-252.2253267996847
 20
-252.2577074903753
 30
0.0
 10
-252.0247145832092
 20
-252.2134595452366
 30
0.0
 10
-251.8243822807419
 20
-252.1695130459529
 30
0.0
 10
-251.6237700642665
 20
-252.0892638529933
 30
0.0
 10
-251.4232655070249
 20
-251.9729272848258
 30
0.0
 10
-251.2228470771705
 20
-251.8567629714325
 30
0.0
 10
-251.0502908570531
 20
-251.6901495410271
 30
0.0
 10
-250.9059844199147
 20
-251.473646821626
 30
0.0
 10
-250.9059844199147
 20
-251.473646821626
 30
0.0
 10
-250.3165070505416
 20
-252.6766311013816
 30
0.0
 10
-250.3165070505416
 20
-252.6766311013816
 30
0.0
 10
-250.3165070505416
 20
-252.6766311013816
 30
0.0
 10
-249.8954733185505
 20
-251.473646821626
 30
0.0
 10
-249.8954733185505
 20
-251.473646821626
 30
0.0
 10
-249.7190844297057
 20
-251.754508231061
 30
0.0
 10
-249.520582334215
 20
-251.9590392436509
 30
0.0
 10
-249.2999670320783
 20
-252.0871537320086
 30
0.0
 10
-249.0794378573288
 20
-252.2155696662213
 30
0.0
 10
-248.8608250169429
 20
-252.2936010789622
 30
0.0
 10
-248.6443222975417
 20
-252.3217647345541
 30
0.0
 10
-248.4278195781405
 20
-252.3498207309121
 30
0.0
 10
-248.1751218242975
 20
-252.3477106099274
 30
0.0
 10
-247.8864012907867
 20
-252.3157358174549
 30
0.0
 10
-248.2313199444006
 20
-251.9950404914717
 30
0.0
 10
-248.5041284431388
 20
-251.698288579111
 30
0.0
 10
-248.7044607456061
 20
-251.4255877396067
 30
0.0
 10
-248.9050729620815
 20
-251.1529730274896
 30
0.0
 10
-249.0614372334183
 20
-250.8441417490837
 30
0.0
 10
-249.1736612188503
 20
-250.4992446273166
 30
0.0
 10
-249.3823263460225
 20
-249.7695303398471
 30
0.0
 10
-249.4905238761062
 20
-249.0236886991373
 30
0.0
 10
-249.4984691275691
 20
-248.2616551096468
 30
0.0
 10
-249.5065220382658
 20
-248.0050600915361
 30
0.0
 10
-249.5104408343803
 20
-247.3434510354406
 30
0.0
 10
-249.5104408343803
 20
-246.2767202821266
 30
0.0
 10
-249.5104408343803
 20
-246.2767202821266
 30
0.0
 10
-249.5104408343803
 20
-245.8917308616499
 30
0.0
 10
-249.5104408343803
 20
-245.8917308616499
 30
0.0
 10
-249.1736612188503
 20
-246.0601744990318
 30
0.0
 10
-248.6484348802772
 20
-246.2086796462929
 30
0.0
 10
-247.9345680320399
 20
-246.336858730191
 30
0.0
 10
-247.8623717497771
 20
-246.4330845534633
 30
0.0
 10
-247.8184252504934
 20
-246.4973786479568
 30
0.0
 10
-247.8022333017127
 20
-246.5293319085825
 30
0.0
 10
-247.6578407371872
 20
-246.8101717861707
 30
0.0
 10
-247.5697539519987
 20
-247.3473698315551
 30
0.0
 10
-247.5375638410584
 20
-248.141378213518
 30
0.0
 10
-247.5777853308487
 20
-248.5584500857011
 30
0.0
 10
-247.5777853308487
 20
-248.9734979642866
 30
0.0
 10
-247.5375638410584
 20
-249.3864572537341
 30
0.0
 10
-247.4975361378892
 20
-249.7995887979559
 30
0.0
 10
-247.3330328284685
 20
-250.0622127331659
 30
0.0
 10
-247.0443338268045
 20
-250.1744367185979
 30
0.0
 10
-246.8036939071598
 20
-250.230634838701
 30
0.0
 10
-246.6514422185586
 20
-250.1443567286423
 30
0.0
 10
-246.5871911877587
 20
-249.9157961750428
 30
0.0
 10
-246.5231339435798
 20
-249.6872140895964
 30
0.0
 10
-246.5311653224298
 20
-249.1980966580781
 30
0.0
 10
-246.6112207287683
 20
-248.4481424346328
 30
0.0
 10
-246.6914699217278
 20
-247.6983174022681
 30
0.0
 10
-246.899941262279
 20
-247.0146597350671
 30
0.0
 10
-247.2368070051961
 20
-246.3969971782554
 30
0.0
 10
-247.2368070051961
 20
-246.3969971782554
 30
0.0
 10
-247.0322759926062
 20
-246.3969971782554
 30
0.0
 10
-247.0322759926062
 20
-246.3969971782554
 30
0.0
 10
-246.8719713933082
 20
-246.3969971782554
 30
0.0
 10
-246.6834170110311
 20
-246.3849608759038
 30
0.0
 10
-246.4669142916299
 20
-246.3609313348942
 30
0.0
 10
-246.4187475503767
 20
-246.3849608759038
 30
0.0
 10
-246.3706884683575
 20
-246.4131675951893
 30
0.0
 10
-246.3225217271043
 20
-246.4451423876617
 30
0.0
 10
-246.0980737562403
 20
-246.5895134203405
 30
0.0
 10
-245.9135458293116
 20
-246.7699502963804
 30
0.0
 10
-245.7691532647861
 20
-246.9864530157816
 30
0.0
 10
-245.5928505033284
 20
-247.2913439662262
 30
0.0
 10
-245.4884856419722
 20
-247.6221807920441
 30
0.0
 10
-245.4564031902658
 20
-247.9789204295418
 30
0.0
 10
-245.4244283977933
 20
-248.3359184492007
 30
0.0
 10
-245.420294283211
 20
-248.7027995865331
 30
0.0
 10
-245.4443453560674
 20
-249.0796930326194
 30
0.0
 10
-245.4845668458577
 20
-249.641157469328
 30
0.0
 10
-245.4443453560674
 20
-250.1744367185979
 30
0.0
 10
-245.3240684599386
 20
-250.679638439663
 30
0.0
 10
-245.1074580813035
 20
-251.361422836194
 30
0.0
 10
-244.6825055531979
 20
-251.8827303786526
 30
0.0
 10
-244.0488878979202
 20
-252.2435395351922
 30
0.0
 10
-243.5195489766115
 20
-252.5161542473093
 30
0.0
 10
-242.9361005243377
 20
-252.6123800705817
 30
0.0
 10
-242.2984564137115
 20
-252.5323246642432
 30
0.0
 10
-241.6609199623192
 20
-252.4519893438966
 30
0.0
 10
-241.1255305920646
 20
-252.2075167555245
 30
0.0
 10
-240.6925251532623
 20
-251.7984547303447
 30
0.0
 10
-240.2594335870728
 20
-251.3494511293827
 30
0.0
 10
-240.0470434504072
 20
-250.8119731699902
 30
0.0
 10
-240.0548810426361
 20
-250.1864514891027
 30
0.0
 10
-240.0710729914168
 20
-249.9698841741612
 30
0.0
 10
-240.1150194907005
 20
-249.7653962252648
 30
0.0
 10
-240.1872157729633
 20
-249.5729445787201
 30
0.0
 10
-240.315631707176
 20
-249.2201237373369
 30
0.0
 10
-240.5442137926223
 20
-248.9473583022923
 30
0.0
 10
-240.8729404974554
 20
-248.7548851239007
 30
0.0
  0
HATCH
  5
8A
330
7B
100
AcDbEntity
  8
Layer 1
 62
   251
420
  6316128
440
 33554687
100
AcDbHatch
 10
0.0
 20
0.0
 30
0.0
210
0.0
220
0.0
230
1.0
  2
SOLID
 70
     1
 71
     1
 91
        2
 92
        1
 93
        1
 72
     4
 94
        3
 73
     0
 74
     0
 95
       47
 96
       43
 40
0.0
 40
0.0
 40
0.0
 40
0.0
 40
1.0
 40
1.0
 40
1.0
 40
2.0
 40
2.0
 40
2.0
 40
3.0
 40
3.0
 40
3.0
 40
4.0
 40
4.0
 40
4.0
 40
5.0
 40
5.0
 40
5.0
 40
6.0
 40
6.0
 40
6.0
 40
7.0
 40
7.0
 40
7.0
 40
8.0
 40
8.0
 40
8.0
 40
9.0
 40
9.0
 40
9.0
 40
10.0
 40
10.0
 40
10.0
 40
11.0
 40
11.0
 40
11.0
 40
12.0
 40
12.0
 40
12.0
 40
13.0
 40
13.0
 40
13.0
 40
14.0
 40
14.0
 40
14.0
 40
14.0
 10
-245.7150437338209
 20
-245.0015397201081
 10
-246.1601070068216
 20
-245.2421150442125
 10
-246.7195259180858
 20
-245.3624350040348
 10
-247.3931712765329
 20
-245.3624350040348
 10
-248.0669027623671
 20
-245.3624350040348
 10
-248.7727382317544
 20
-245.2020873410432
 10
-249.5104408343803
 20
-244.8812197602858
 10
-249.5025817103046
 20
-244.1755780775195
 10
-249.4984691275691
 20
-243.3955653959654
 10
-249.4984691275691
 20
-242.541418565938
 10
-249.4984691275691
 20
-241.6872717359106
 10
-249.4984691275691
 20
-240.9233648757501
 10
-249.4984691275691
 20
-240.2496764536095
 10
-249.4984691275691
 20
-239.5760310951624
 10
-249.4984691275691
 20
-239.1991376490761
 10
-249.4984691275691
 20
-239.1188884561166
 10
-249.4984691275691
 20
-238.8222872666833
 10
-249.4764420483102
 20
-238.5233821696444
 10
-249.4323017624055
 20
-238.2226468656288
 10
-249.3882476038878
 20
-237.9218900297665
 10
-249.2980506977147
 20
-237.6392199452018
 10
-249.1616033846519
 20
-237.3745504845474
 10
-248.9531320441008
 20
-237.0217296431643
 10
-248.6785148702328
 20
-236.7651561569003
 10
-248.3375150127334
 20
-236.6046147072876
 10
-247.9967304737018
 20
-236.4442670442961
 10
-247.6338111961776
 20
-236.3640178513365
 10
-247.2488648393944
 20
-236.3640178513365
 10
-246.7035277559262
 20
-236.3640178513365
 10
-246.2142165377868
 20
-236.5164633265588
 10
-245.7812110989845
 20
-236.8211604903824
 10
-245.3480980009482
 20
-237.126051440827
 10
-245.0073134619167
 20
-237.5931633249333
 10
-244.7586206315752
 20
-238.2226468656288
 10
-244.5101431197016
 20
-238.8523457247921
 10
-244.3856675134501
 20
-239.656280288122
 10
-244.3856675134501
 20
-240.6346658740861
 10
-244.3856675134501
 20
-241.9419719515045
 10
-244.4960612919056
 20
-242.9365064225558
 10
-244.716504339268
 20
-243.6180970324657
 10
-244.9372057687918
 20
-244.2998383653031
 10
-245.2698728015863
 20
-244.760942864157
 10
-245.7150437338209
 20
-245.0015397201081
 97
        0
 97
        1
330
88
 92
        1
 93
        1
 72
     4
 94
        3
 73
     0
 74
     0
 95
      197
 96
      193
 40
0.0
 40
0.0
 40
0.0
 40
0.0
 40
1.0
 40
1.0
 40
1.0
 40
2.0
 40
2.0
 40
2.0
 40
3.0
 40
3.0
 40
3.0
 40
4.0
 40
4.0
 40
4.0
 40
5.0
 40
5.0
 40
5.0
 40
6.0
 40
6.0
 40
6.0
 40
7.0
 40
7.0
 40
7.0
 40
8.0
 40
8.0
 40
8.0
 40
9.0
 40
9.0
 40
9.0
 40
10.0
 40
10.0
 40
10.0
 40
11.0
 40
11.0
 40
11.0
 40
12.0
 40
12.0
 40
12.0
 40
13.0
 40
13.0
 40
13.0
 40
14.0
 40
14.0
 40
14.0
 40
15.0
 40
15.0
 40
15.0
 40
16.0
 40
16.0
 40
16.0
 40
17.0
 40
17.0
 40
17.0
 40
18.0
 40
18.0
 40
18.0
 40
19.0
 40
19.0
 40
19.0
 40
20.0
 40
20.0
 40
20.0
 40
21.0
 40
21.0
 40
21.0
 40
22.0
 40
22.0
 40
22.0
 40
23.0
 40
23.0
 40
23.0
 40
24.0
 40
24.0
 40
24.0
 40
25.0
 40
25.0
 40
25.0
 40
26.0
 40
26.0
 40
26.0
 40
27.0
 40
27.0
 40
27.0
 40
28.0
 40
28.0
 40
28.0
 40
29.0
 40
29.0
 40
29.0
 40
30.0
 40
30.0
 40
30.0
 40
31.0
 40
31.0
 40
31.0
 40
32.0
 40
32.0
 40
32.0
 40
33.0
 40
33.0
 40
33.0
 40
34.0
 40
34.0
 40
34.0
 40
35.0
 40
35.0
 40
35.0
 40
36.0
 40
36.0
 40
36.0
 40
37.0
 40
37.0
 40
37.0
 40
38.0
 40
38.0
 40
38.0
 40
39.0
 40
39.0
 40
39.0
 40
40.0
 40
40.0
 40
40.0
 40
41.0
 40
41.0
 40
41.0
 40
42.0
 40
42.0
 40
42.0
 40
43.0
 40
43.0
 40
43.0
 40
44.0
 40
44.0
 40
44.0
 40
45.0
 40
45.0
 40
45.0
 40
46.0
 40
46.0
 40
46.0
 40
47.0
 40
47.0
 40
47.0
 40
48.0
 40
48.0
 40
48.0
 40
49.0
 40
49.0
 40
49.0
 40
50.0
 40
50.0
 40
50.0
 40
51.0
 40
51.0
 40
51.0
 40
52.0
 40
52.0
 40
52.0
 40
53.0
 40
53.0
 40
53.0
 40
54.0
 40
54.0
 40
54.0
 40
55.0
 40
55.0
 40
55.0
 40
56.0
 40
56.0
 40
56.0
 40
57.0
 40
57.0
 40
57.0
 40
58.0
 40
58.0
 40
58.0
 40
59.0
 40
59.0
 40
59.0
 40
60.0
 40
60.0
 40
60.0
 40
61.0
 40
61.0
 40
61.0
 40
62.0
 40
62.0
 40
62.0
 40
63.0
 40
63.0
 40
63.0
 40
64.0
 40
64.0
 40
64.0
 40
64.0
 10
-240.8729404974554
 20
-248.7548851239007
 10
-241.2338357813822
 20
-248.5705079198995
 10
-241.5826732311105
 20
-248.5785608305962
 10
-241.9195605058744
 20
-248.7789146649103
 10
-242.0719844492499
 20
-248.8832579944198
 10
-242.176370842453
 20
-249.0236886991373
 10
-242.2323967077819
 20
-249.2000129924418
 10
-242.2885087004978
 20
-249.3764880086737
 10
-242.2765369936866
 20
-249.553027620446
 10
-242.1962878007271
 20
-249.7293088500569
 10
-242.092095194145
 20
-249.9138798406791
 10
-241.9477887570066
 20
-250.0622127331659
 10
-241.7631747026908
 20
-250.1744367185979
 10
-241.6109230140895
 20
-250.2787585162606
 10
-241.4785882837624
 20
-250.399078476083
 10
-241.3661705117093
 20
-250.5353320025246
 10
-241.1977484061742
 20
-250.8000014631789
 10
-241.1676684162186
 20
-251.0687835065688
 10
-241.2759736055361
 20
-251.3413120912988
 10
-241.3842787948537
 20
-251.6140344626499
 10
-241.578754434996
 20
-251.7984547303447
 10
-241.85942205781
 20
-251.8946805536171
 10
-242.1402619353982
 20
-251.9830687846605
 10
-242.4127905201282
 20
-251.9710109504621
 10
-242.6774599807826
 20
-251.8585931784091
 10
-242.9421294414368
 20
-251.7463691929771
 10
-243.1586321608381
 20
-251.5698941767451
 10
-243.3270757982199
 20
-251.3293403844876
 10
-243.5116898525358
 20
-251.0486942935204
 10
-243.6319667486646
 20
-250.7418870087121
 10
-243.6879710821467
 20
-250.4090261892967
 10
-243.7441907340966
 20
-250.0762730291151
 10
-243.7682202751062
 20
-249.7374048244472
 10
-243.7601673644094
 20
-249.3924861708333
 10
-243.7601673644094
 20
-249.2802621854013
 10
-243.7561624409078
 20
-249.163904085387
 10
-243.7481095302111
 20
-249.0436056574115
 10
-243.7080818270418
 20
-248.4823134754771
 10
-243.7481095302111
 20
-247.9289450131588
 10
-243.8683864263398
 20
-247.3834787386099
 10
-244.0608596047314
 20
-246.7659884365724
 10
-244.4217548886581
 20
-246.2808328648621
 10
-244.9510938099667
 20
-245.9278397687047
 10
-244.542117912174
 20
-245.7353665903131
 10
-244.1531666318893
 20
-245.4345882226041
 10
-243.7842184372659
 20
-245.0256123248113
 10
-243.4154640292634
 20
-244.616593363325
 10
-243.1146856615543
 20
-244.0733664008415
 10
-242.8819909933725
 20
-243.3955653959654
 10
-242.6494039844246
 20
-242.7178935821699
 10
-242.533067416257
 20
-241.8577608987369
 10
-242.533067416257
 20
-240.8151242819729
 10
-242.533067416257
 20
-240.1576062767662
 10
-242.6013449024053
 20
-239.5139763127344
 10
-242.7375984288469
 20
-238.884277453571
 10
-242.8740457419096
 20
-238.2547723810288
 10
-243.1105730788188
 20
-237.6873220909146
 10
-243.4473526943488
 20
-237.1820773061559
 10
-243.7842184372659
 20
-236.6768109895504
 10
-244.2493924551617
 20
-236.2719046107997
 10
-244.8427886206492
 20
-235.9670136603551
 10
-245.4364862319917
 20
-235.6623164965315
 10
-246.1901869967772
 20
-235.5098710213092
 10
-247.1044722748689
 20
-235.5098710213092
 10
-248.5642668912032
 20
-235.5098710213092
 10
-249.7913022438153
 20
-235.9110093268729
 10
-250.7856213963987
 20
-236.7128768329116
 10
-251.114541887853
 20
-236.0632610154742
 10
-251.8683503118724
 20
-235.8346789300279
 10
-253.0472835187717
 20
-236.0271521084194
 10
-252.7185568139385
 20
-236.2918215690738
 10
-252.4499685571697
 20
-236.5786688319144
 10
-252.2413034299975
 20
-236.887327855546
 10
-252.0328536212931
 20
-237.1961591339518
 10
-251.8463232326136
 20
-237.6072236208825
 10
-251.68190605058
 20
-238.1203921252573
 10
-251.5175965277804
 20
-238.6337328844062
 10
-251.4352372138362
 20
-239.267350539684
 10
-251.4352372138362
 20
-240.0210943681631
 10
-251.4352372138362
 20
-240.0210943681631
 10
-251.4352372138362
 20
-248.5503541113108
 10
-251.4352372138362
 20
-248.5503541113108
 10
-251.4352372138362
 20
-249.272166211011
 10
-251.5014045789997
 20
-249.8736583508888
 10
-251.6337393093269
 20
-250.3548305309443
 10
-251.7660740396541
 20
-250.8361103702337
 10
-251.9165170531256
 20
-251.2171163990556
 10
-252.0848530312736
 20
-251.4976763626356
 10
-252.2532751368087
 20
-251.7785377720706
 10
-252.4698855154438
 20
-252.0390946499894
 10
-252.7345549760982
 20
-252.2796269104002
 10
-252.4619402639809
 20
-252.2796269104002
 10
-252.2253267996847
 20
-252.2577074903753
 10
-252.0247145832092
 20
-252.2134595452366
 10
-251.8243822807419
 20
-252.1695130459529
 10
-251.6237700642665
 20
-252.0892638529933
 10
-251.4232655070249
 20
-251.9729272848258
 10
-251.2228470771705
 20
-251.8567629714325
 10
-251.0502908570531
 20
-251.6901495410271
 10
-250.9059844199147
 20
-251.473646821626
 10
-250.9059844199147
 20
-251.473646821626
 10
-250.3165070505416
 20
-252.6766311013816
 10
-250.3165070505416
 20
-252.6766311013816
 10
-250.3165070505416
 20
-252.6766311013816
 10
-249.8954733185505
 20
-251.473646821626
 10
-249.8954733185505
 20
-251.473646821626
 10
-249.7190844297057
 20
-251.754508231061
 10
-249.520582334215
 20
-251.9590392436509
 10
-249.2999670320783
 20
-252.0871537320086
 10
-249.0794378573288
 20
-252.2155696662213
 10
-248.8608250169429
 20
-252.2936010789622
 10
-248.6443222975417
 20
-252.3217647345541
 10
-248.4278195781405
 20
-252.3498207309121
 10
-248.1751218242975
 20
-252.3477106099274
 10
-247.8864012907867
 20
-252.3157358174549
 10
-248.2313199444006
 20
-251.9950404914717
 10
-248.5041284431388
 20
-251.698288579111
 10
-248.7044607456061
 20
-251.4255877396067
 10
-248.9050729620815
 20
-251.1529730274896
 10
-249.0614372334183
 20
-250.8441417490837
 10
-249.1736612188503
 20
-250.4992446273166
 10
-249.3823263460225
 20
-249.7695303398471
 10
-249.4905238761062
 20
-249.0236886991373
 10
-249.4984691275691
 20
-248.2616551096468
 10
-249.5065220382658
 20
-248.0050600915361
 10
-249.5104408343803
 20
-247.3434510354406
 10
-249.5104408343803
 20
-246.2767202821266
 10
-249.5104408343803
 20
-246.2767202821266
 10
-249.5104408343803
 20
-245.8917308616499
 10
-249.5104408343803
 20
-245.8917308616499
 10
-249.1736612188503
 20
-246.0601744990318
 10
-248.6484348802772
 20
-246.2086796462929
 10
-247.9345680320399
 20
-246.336858730191
 10
-247.8623717497771
 20
-246.4330845534633
 10
-247.8184252504934
 20
-246.4973786479568
 10
-247.8022333017127
 20
-246.5293319085825
 10
-247.6578407371872
 20
-246.8101717861707
 10
-247.5697539519987
 20
-247.3473698315551
 10
-247.5375638410584
 20
-248.141378213518
 10
-247.5777853308487
 20
-248.5584500857011
 10
-247.5777853308487
 20
-248.9734979642866
 10
-247.5375638410584
 20
-249.3864572537341
 10
-247.4975361378892
 20
-249.7995887979559
 10
-247.3330328284685
 20
-250.0622127331659
 10
-247.0443338268045
 20
-250.1744367185979
 10
-246.8036939071598
 20
-250.230634838701
 10
-246.6514422185586
 20
-250.1443567286423
 10
-246.5871911877587
 20
-249.9157961750428
 10
-246.5231339435798
 20
-249.6872140895964
 10
-246.5311653224298
 20
-249.1980966580781
 10
-246.6112207287683
 20
-248.4481424346328
 10
-246.6914699217278
 20
-247.6983174022681
 10
-246.899941262279
 20
-247.0146597350671
 10
-247.2368070051961
 20
-246.3969971782554
 10
-247.2368070051961
 20
-246.3969971782554
 10
-247.0322759926062
 20
-246.3969971782554
 10
-247.0322759926062
 20
-246.3969971782554
 10
-246.8719713933082
 20
-246.3969971782554
 10
-246.6834170110311
 20
-246.3849608759038
 10
-246.4669142916299
 20
-246.3609313348942
 10
-246.4187475503767
 20
-246.3849608759038
 10
-246.3706884683575
 20
-246.4131675951893
 10
-246.3225217271043
 20
-246.4451423876617
 10
-246.0980737562403
 20
-246.5895134203405
 10
-245.9135458293116
 20
-246.7699502963804
 10
-245.7691532647861
 20
-246.9864530157816
 10
-245.5928505033284
 20
-247.2913439662262
 10
-245.4884856419722
 20
-247.6221807920441
 10
-245.4564031902658
 20
-247.9789204295418
 10
-245.4244283977933
 20
-248.3359184492007
 10
-245.420294283211
 20
-248.7027995865331
 10
-245.4443453560674
 20
-249.0796930326194
 10
-245.4845668458577
 20
-249.641157469328
 10
-245.4443453560674
 20
-250.1744367185979
 10
-245.3240684599386
 20
-250.679638439663
 10
-245.1074580813035
 20
-251.361422836194
 10
-244.6825055531979
 20
-251.8827303786526
 10
-244.0488878979202
 20
-252.2435395351922
 10
-243.5195489766115
 20
-252.5161542473093
 10
-242.9361005243377
 20
-252.6123800705817
 10
-242.2984564137115
 20
-252.5323246642432
 10
-241.6609199623192
 20
-252.4519893438966
 10
-241.1255305920646
 20
-252.2075167555245
 10
-240.6925251532623
 20
-251.7984547303447
 10
-240.2594335870728
 20
-251.3494511293827
 10
-240.0470434504072
 20
-250.8119731699902
 10
-240.0548810426361
 20
-250.1864514891027
 10
-240.0710729914168
 20
-249.9698841741612
 10
-240.1150194907005
 20
-249.7653962252648
 10
-240.1872157729633
 20
-249.5729445787201
 10
-240.315631707176
 20
-249.2201237373369
 10
-240.5442137926223
 20
-248.9473583022923
 10
-240.8729404974554
 20
-248.7548851239007
 97
        0
 97
        1
330
89
 75
     2
 76
     1
 98
        1
 10
0.0
 20
0.0
450
        0
451
        0
460
0.0
461
0.0
452
        0
462
0.0
453
        0
470

  0
SPLINE
  5
8B
330
7B
100
AcDbEntity
  8
Layer 1
100
AcDbSpline
210
0.0
220
0.0
230
1.0
 70
     9
 71
     3
 72
    11
 73
     7
 74
     0
 42
0.0000000001
 43
0.0000000001
 40
0.0
 40
0.0
 40
0.0
 40
0.0
 40
1.0
 40
1.0
 40
1.0
 40
2.0
 40
2.0
 40
2.0
 40
2.0
 10
-236.801246738979
 20
-230.0072137893407
 30
0.0
 10
-236.654421075767
 20
-229.8207049325079
 30
0.0
 10
-236.6137043535007
 20
-229.7473889942124
 30
0.0
 10
-236.801246738979
 20
-230.0072137893407
 30
0.0
 10
-236.801246738979
 20
-230.0072137893407
 30
0.0
 10
-236.801246738979
 20
-230.0072137893407
 30
0.0
 10
-236.801246738979
 20
-230.0072137893407
 30
0.0
  0
HATCH
  5
8C
330
7B
100
AcDbEntity
  8
Layer 1
 62
   251
420
  6316128
440
 33554687
100
AcDbHatch
 10
0.0
 20
0.0
 30
0.0
210
0.0
220
0.0
230
1.0
  2
SOLID
 70
     1
 71
     1
 91
        1
 92
        1
 93
        1
 72
     4
 94
        3
 73
     0
 74
     0
 95
       11
 96
        7
 40
0.0
 40
0.0
 40
0.0
 40
0.0
 40
1.0
 40
1.0
 40
1.0
 40
2.0
 40
2.0
 40
2.0
 40
2.0
 10
-236.801246738979
 20
-230.0072137893407
 10
-236.654421075767
 20
-229.8207049325079
 10
-236.6137043535007
 20
-229.7473889942124
 10
-236.801246738979
 20
-230.0072137893407
 10
-236.801246738979
 20
-230.0072137893407
 10
-236.801246738979
 20
-230.0072137893407
 10
-236.801246738979
 20
-230.0072137893407
 97
        0
 97
        1
330
8B
 75
     2
 76
     1
 98
        1
 10
0.0
 20
0.0
450
        0
451
        0
460
0.0
461
0.0
452
        0
462
0.0
453
        0
470

  0
SPLINE
  5
8D
330
7B
100
AcDbEntity
  8
Layer 1
100
AcDbSpline
210
0.0
220
0.0
230
1.0
 70
     9
 71
     3
 72
    11
 73
     7
 74
     0
 42
0.0000000001
 43
0.0000000001
 40
0.0
 40
0.0
 40
0.0
 40
0.0
 40
1.0
 40
1.0
 40
1.0
 40
2.0
 40
2.0
 40
2.0
 40
2.0
 10
-234.2649459108913
 20
-230.0568877598686
 30
0.0
 10
-232.8085533263487
 20
-230.5462851053951
 30
0.0
 10
-231.6040187536247
 20
-231.4783556889295
 30
0.0
 10
-230.7062699338622
 20
-232.3807984512907
 30
0.0
 10
-232.6145729186824
 20
-230.0982719693852
 30
0.0
 10
-233.7419158206901
 20
-229.3541098127244
 30
0.0
 10
-234.2649459108913
 20
-230.0568877598686
 30
0.0
  0
HATCH
  5
8E
330
7B
100
AcDbEntity
  8
Layer 1
 62
   251
420
  6316128
440
 33554687
100
AcDbHatch
 10
0.0
 20
0.0
 30
0.0
210
0.0
220
0.0
230
1.0
  2
SOLID
 70
     1
 71
     1
 91
        1
 92
        1
 93
        1
 72
     4
 94
        3
 73
     0
 74
     0
 95
       11
 96
        7
 40
0.0
 40
0.0
 40
0.0
 40
0.0
 40
1.0
 40
1.0
 40
1.0
 40
2.0
 40
2.0
 40
2.0
 40
2.0
 10
-234.2649459108913
 20
-230.0568877598686
 10
-232.8085533263487
 20
-230.5462851053951
 10
-231.6040187536247
 20
-231.4783556889295
 10
-230.7062699338622
 20
-232.3807984512907
 10
-232.6145729186824
 20
-230.0982719693852
 10
-233.7419158206901
 20
-229.3541098127244
 10
-234.2649459108913
 20
-230.0568877598686
 97
        0
 97
        1
330
8D
 75
     2
 76
     1
 98
        1
 10
0.0
 20
0.0
450
        0
451
        0
460
0.0
461
0.0
452
        0
462
0.0
453
        0
470

  0
SPLINE
  5
8F
330
7B
100
AcDbEntity
  8
Layer 1
100
AcDbSpline
210
0.0
220
0.0
230
1.0
 70
     9
 71
     3
 72
    11
 73
     7
 74
     0
 42
0.0000000001
 43
0.0000000001
 40
0.0
 40
0.0
 40
0.0
 40
0.0
 40
1.0
 40
1.0
 40
1.0
 40
2.0
 40
2.0
 40
2.0
 40
2.0
 10
-234.3549490304435
 20
-230.2042947829437
 30
0.0
 10
-234.5172560914923
 20
-230.5229445834826
 30
0.0
 10
-234.6023284181312
 20
-231.0290937058061
 30
0.0
 10
-234.6179605388955
 20
-231.7199860735262
 30
0.0
 10
-234.604330879882
 20
-231.1173096820753
 30
0.0
 10
-234.5189786392349
 20
-230.6127323845668
 30
0.0
 10
-234.3549490304435
 20
-230.2042947829437
 30
0.0
  0
HATCH
  5
90
330
7B
100
AcDbEntity
  8
Layer 1
 62
   251
420
  6316128
440
 33554687
100
AcDbHatch
 10
0.0
 20
0.0
 30
0.0
210
0.0
220
0.0
230
1.0
  2
SOLID
 70
     1
 71
     1
 91
        1
 92
        1
 93
        1
 72
     4
 94
        3
 73
     0
 74
     0
 95
       11
 96
        7
 40
0.0
 40
0.0
 40
0.0
 40
0.0
 40
1.0
 40
1.0
 40
1.0
 40
2.0
 40
2.0
 40
2.0
 40
2.0
 10
-234.3549490304435
 20
-230.2042947829437
 10
-234.5172560914923
 20
-230.5229445834826
 10
-234.6023284181312
 20
-231.0290937058061
 10
-234.6179605388955
 20
-231.7199860735262
 10
-234.604330879882
 20
-231.1173096820753
 10
-234.5189786392349
 20
-230.6127323845668
 10
-234.3549490304435
 20
-230.2042947829437
 97
        0
 97
        1
330
8F
 75
     2
 76
     1
 98
        1
 10
0.0
 20
0.0
450
        0
451
        0
460
0.0
461
0.0
452
        0
462
0.0
453
        0
470

  0
SPLINE
  5
91
330
7B
100
AcDbEntity
  8
Layer 1
100
AcDbSpline
210
0.0
220
0.0
230
1.0
 70
     9
 71
     3
 72
    11
 73
     7
 74
     0
 42
0.0000000001
 43
0.0000000001
 40
0.0
 40
0.0
 40
0.0
 40
0.0
 40
1.0
 40
1.0
 40
1.0
 40
2.0
 40
2.0
 40
2.0
 40
2.0
 10
-230.7062699338622
 20
-232.3807984512907
 30
0.0
 10
-230.1627845892172
 20
-233.0308664375105
 30
0.0
 10
-229.5563185927325
 20
-233.805000924893
 30
0.0
 10
-228.882027278882
 20
-234.7067977318507
 30
0.0
 10
-228.8435929323747
 20
-234.7581942501212
 30
0.0
 10
-229.4965677179102
 20
-233.5968310301967
 30
0.0
 10
-230.7062699338622
 20
-232.3807984512907
 30
0.0
  0
HATCH
  5
92
330
7B
100
AcDbEntity
  8
Layer 1
 62
   251
420
  6316128
440
 33554687
100
AcDbHatch
 10
0.0
 20
0.0
 30
0.0
210
0.0
220
0.0
230
1.0
  2
SOLID
 70
     1
 71
     1
 91
        1
 92
        1
 93
        1
 72
     4
 94
        3
 73
     0
 74
     0
 95
       11
 96
        7
 40
0.0
 40
0.0
 40
0.0
 40
0.0
 40
1.0
 40
1.0
 40
1.0
 40
2.0
 40
2.0
 40
2.0
 40
2.0
 10
-230.7062699338622
 20
-232.3807984512907
 10
-230.1627845892172
 20
-233.0308664375105
 10
-229.5563185927325
 20
-233.805000924893
 10
-228.882027278882
 20
-234.7067977318507
 10
-228.8435929323747
 20
-234.7581942501212
 10
-229.4965677179102
 20
-233.5968310301967
 10
-230.7062699338622
 20
-232.3807984512907
 97
        0
 97
        1
330
91
 75
     2
 76
     1
 98
        1
 10
0.0
 20
0.0
450
        0
451
        0
460
0.0
461
0.0
452
        0
462
0.0
453
        0
470

  0
SPLINE
  5
93
330
7B
100
AcDbEntity
  8
Layer 1
100
AcDbSpline
210
0.0
220
0.0
230
1.0
 70
     9
 71
     3
 72
    14
 73
    10
 74
     0
 42
0.0000000001
 43
0.0000000001
 40
0.0
 40
0.0
 40
0.0
 40
0.0
 40
1.0
 40
1.0
 40
1.0
 40
2.0
 40
2.0
 40
2.0
 40
3.0
 40
3.0
 40
3.0
 40
3.0
 10
-234.2649459108913
 20
-230.0568877598686
 30
0.0
 10
-234.2721590795636
 20
-230.0544546611821
 30
0.0
 10
-234.279350716389
 20
-230.0519569669553
 30
0.0
 10
-234.286585416908
 20
-230.0495454001157
 30
0.0
 10
-234.310679553458
 20
-230.0995423483453
 30
0.0
 10
-234.3335463747413
 20
-230.151024994003
 30
0.0
 10
-234.3549490304435
 20
-230.2042947829437
 30
0.0
 10
-234.3271729480937
 20
-230.1497761468897
 30
0.0
 10
-234.2972867447591
 20
-230.1003605585231
 30
0.0
 10
-234.2649459108913
 20
-230.0568877598686
 30
0.0
  0
HATCH
  5
94
330
7B
100
AcDbEntity
  8
Layer 1
 62
   251
420
  6316128
440
 33554687
100
AcDbHatch
 10
0.0
 20
0.0
 30
0.0
210
0.0
220
0.0
230
1.0
  2
SOLID
 70
     1
 71
     1
 91
        1
 92
        1
 93
        1
 72
     4
 94
        3
 73
     0
 74
     0
 95
       14
 96
       10
 40
0.0
 40
0.0
 40
0.0
 40
0.0
 40
1.0
 40
1.0
 40
1.0
 40
2.0
 40
2.0
 40
2.0
 40
3.0
 40
3.0
 40
3.0
 40
3.0
 10
-234.2649459108913
 20
-230.0568877598686
 10
-234.2721590795636
 20
-230.0544546611821
 10
-234.279350716389
 20
-230.0519569669553
 10
-234.286585416908
 20
-230.0495454001157
 10
-234.310679553458
 20
-230.0995423483453
 10
-234.3335463747413
 20
-230.151024994003
 10
-234.3549490304435
 20
-230.2042947829437
 10
-234.3271729480937
 20
-230.1497761468897
 10
-234.2972867447591
 20
-230.1003605585231
 10
-234.2649459108913
 20
-230.0568877598686
 97
        0
 97
        1
330
93
 75
     2
 76
     1
 98
        1
 10
0.0
 20
0.0
450
        0
451
        0
460
0.0
461
0.0
452
        0
462
0.0
453
        0
470

  0
SPLINE
  5
95
330
7B
100
AcDbEntity
  8
Layer 1
100
AcDbSpline
210
0.0
220
0.0
230
1.0
 70
     9
 71
     3
 72
    11
 73
     7
 74
     0
 42
0.0000000001
 43
0.0000000001
 40
0.0
 40
0.0
 40
0.0
 40
0.0
 40
1.0
 40
1.0
 40
1.0
 40
2.0
 40
2.0
 40
2.0
 40
2.0
 10
-233.6593627201247
 20
-217.1225997381998
 30
0.0
 10
-233.7538444638077
 20
-218.2321358029181
 30
0.0
 10
-233.8450964304733
 20
-219.1945662904162
 30
0.0
 10
-233.9341090850734
 20
-220.0131209777115
 30
0.0
 10
-233.6088490075723
 20
-218.3152917951933
 30
0.0
 10
-233.6535706533402
 20
-217.0544945068258
 30
0.0
 10
-233.6593627201247
 20
-217.1225997381998
 30
0.0
  0
HATCH
  5
96
330
7B
100
AcDbEntity
  8
Layer 1
 62
   251
420
  6316128
440
 33554687
100
AcDbHatch
 10
0.0
 20
0.0
 30
0.0
210
0.0
220
0.0
230
1.0
  2
SOLID
 70
     1
 71
     1
 91
        1
 92
        1
 93
        1
 72
     4
 94
        3
 73
     0
 74
     0
 95
       11
 96
        7
 40
0.0
 40
0.0
 40
0.0
 40
0.0
 40
1.0
 40
1.0
 40
1.0
 40
2.0
 40
2.0
 40
2.0
 40
2.0
 10
-233.6593627201247
 20
-217.1225997381998
 10
-233.7538444638077
 20
-218.2321358029181
 10
-233.8450964304733
 20
-219.1945662904162
 10
-233.9341090850734
 20
-220.0131209777115
 10
-233.6088490075723
 20
-218.3152917951933
 10
-233.6535706533402
 20
-217.0544945068258
 10
-233.6593627201247
 20
-217.1225997381998
 97
        0
 97
        1
330
95
 75
     2
 76
     1
 98
        1
 10
0.0
 20
0.0
450
        0
451
        0
460
0.0
461
0.0
452
        0
462
0.0
453
        0
470

  0
SPLINE
  5
97
330
7B
100
AcDbEntity
  8
Layer 1
100
AcDbSpline
210
0.0
220
0.0
230
1.0
 70
     9
 71
     3
 72
    14
 73
    10
 74
     0
 42
0.0000000001
 43
0.0000000001
 40
0.0
 40
0.0
 40
0.0
 40
0.0
 40
1.0
 40
1.0
 40
1.0
 40
2.0
 40
2.0
 40
2.0
 40
3.0
 40
3.0
 40
3.0
 40
3.0
 10
-236.1987210704556
 20
-224.732492687415
 30
0.0
 10
-236.1300560110652
 20
-224.7655656040734
 30
0.0
 10
-236.0615847382959
 20
-224.7949996386255
 30
0.0
 10
-235.9932857203008
 20
-224.8206010044503
 30
0.0
 10
-235.9883979910811
 20
-224.8100073358331
 30
0.0
 10
-235.9832518797
 20
-224.799607453837
 30
0.0
 10
-235.9784072141739
 20
-224.788992253373
 30
0.0
 10
-236.0481488659034
 20
-224.7804010465067
 30
0.0
 10
-236.1215939952796
 20
-224.7614960850314
 30
0.0
 10
-236.1987210704556
 20
-224.732492687415
 30
0.0
  0
HATCH
  5
98
330
7B
100
AcDbEntity
  8
Layer 1
 62
   251
420
  6316128
440
 33554687
100
AcDbHatch
 10
0.0
 20
0.0
 30
0.0
210
0.0
220
0.0
230
1.0
  2
SOLID
 70
     1
 71
     1
 91
        1
 92
        1
 93
        1
 72
     4
 94
        3
 73
     0
 74
     0
 95
       14
 96
       10
 40
0.0
 40
0.0
 40
0.0
 40
0.0
 40
1.0
 40
1.0
 40
1.0
 40
2.0
 40
2.0
 40
2.0
 40
3.0
 40
3.0
 40
3.0
 40
3.0
 10
-236.1987210704556
 20
-224.732492687415
 10
-236.1300560110652
 20
-224.7655656040734
 10
-236.0615847382959
 20
-224.7949996386255
 10
-235.9932857203008
 20
-224.8206010044503
 10
-235.9883979910811
 20
-224.8100073358331
 10
-235.9832518797
 20
-224.799607453837
 10
-235.9784072141739
 20
-224.788992253373
 10
-236.0481488659034
 20
-224.7804010465067
 10
-236.1215939952796
 20
-224.7614960850314
 10
-236.1987210704556
 20
-224.732492687415
 97
        0
 97
        1
330
97
 75
     2
 76
     1
 98
        1
 10
0.0
 20
0.0
450
        0
451
        0
460
0.0
461
0.0
452
        0
462
0.0
453
        0
470

  0
SPLINE
  5
99
330
7B
100
AcDbEntity
  8
Layer 1
100
AcDbSpline
210
0.0
220
0.0
230
1.0
 70
     9
 71
     3
 72
    11
 73
     7
 74
     0
 42
0.0000000001
 43
0.0000000001
 40
0.0
 40
0.0
 40
0.0
 40
0.0
 40
1.0
 40
1.0
 40
1.0
 40
2.0
 40
2.0
 40
2.0
 40
2.0
 10
-236.1987210704556
 20
-224.732492687415
 30
0.0
 10
-236.5952300289611
 20
-224.5414406109111
 30
0.0
 10
-236.9984569236628
 20
-224.2263650969382
 30
0.0
 10
-237.4148828404424
 20
-223.7904528588202
 30
0.0
 10
-236.9375217972674
 20
-224.2901639589557
 30
0.0
 10
-236.5334120968476
 20
-224.6065959792759
 30
0.0
 10
-236.1987210704556
 20
-224.732492687415
 30
0.0
  0
HATCH
  5
9A
330
7B
100
AcDbEntity
  8
Layer 1
 62
   251
420
  6316128
440
 33554687
100
AcDbHatch
 10
0.0
 20
0.0
 30
0.0
210
0.0
220
0.0
230
1.0
  2
SOLID
 70
     1
 71
     1
 91
        1
 92
        1
 93
        1
 72
     4
 94
        3
 73
     0
 74
     0
 95
       11
 96
        7
 40
0.0
 40
0.0
 40
0.0
 40
0.0
 40
1.0
 40
1.0
 40
1.0
 40
2.0
 40
2.0
 40
2.0
 40
2.0
 10
-236.1987210704556
 20
-224.732492687415
 10
-236.5952300289611
 20
-224.5414406109111
 10
-236.9984569236628
 20
-224.2263650969382
 10
-237.4148828404424
 20
-223.7904528588202
 10
-236.9375217972674
 20
-224.2901639589557
 10
-236.5334120968476
 20
-224.6065959792759
 10
-236.1987210704556
 20
-224.732492687415
 97
        0
 97
        1
330
99
 75
     2
 76
     1
 98
        1
 10
0.0
 20
0.0
450
        0
451
        0
460
0.0
461
0.0
452
        0
462
0.0
453
        0
470

  0
SPLINE
  5
9B
330
7B
100
AcDbEntity
  8
Layer 1
100
AcDbSpline
210
0.0
220
0.0
230
1.0
 70
     9
 71
     3
 72
    14
 73
    10
 74
     0
 42
0.0000000001
 43
0.0000000001
 40
0.0
 40
0.0
 40
0.0
 40
0.0
 40
1.0
 40
1.0
 40
1.0
 40
2.0
 40
2.0
 40
2.0
 40
3.0
 40
3.0
 40
3.0
 40
3.0
 10
-231.2797276092287
 20
-229.0137128469349
 30
0.0
 10
-231.2858211218683
 20
-228.9946356306854
 30
0.0
 10
-231.2907734466283
 20
-228.9759459876779
 30
0.0
 10
-231.2954889210738
 20
-228.957299408364
 30
0.0
 10
-231.1801212860115
 20
-228.973555952685
 30
0.0
 10
-231.0617176605528
 20
-228.9926547007814
 30
0.0
 10
-230.9396751529878
 20
-229.0151339488226
 30
0.0
 10
-231.1000874115198
 20
-228.9877023760213
 30
0.0
 10
-231.2131296071295
 20
-228.9873148027792
 30
0.0
 10
-231.2797276092287
 20
-229.0137128469349
 30
0.0
  0
SPLINE
  5
9C
330
7B
100
AcDbEntity
  8
Layer 1
100
AcDbSpline
210
0.0
220
0.0
230
1.0
 70
     9
 71
     3
 72
    17
 73
    13
 74
     0
 42
0.0000000001
 43
0.0000000001
 40
0.0
 40
0.0
 40
0.0
 40
0.0
 40
1.0
 40
1.0
 40
1.0
 40
2.0
 40
2.0
 40
2.0
 40
3.0
 40
3.0
 40
3.0
 40
4.0
 40
4.0
 40
4.0
 40
4.0
 10
-233.577649361584
 20
-226.9646346478487
 30
0.0
 10
-233.6105069597746
 20
-226.9589287084512
 30
0.0
 10
-233.6415989465289
 20
-226.9531366416667
 30
0.0
 10
-233.6714420861699
 20
-226.9472799793418
 30
0.0
 10
-233.6408668637383
 20
-226.8854405153815
 30
0.0
 10
-233.5939920332921
 20
-226.8102943701095
 30
0.0
 10
-233.5301716394279
 20
-226.7211955881222
 30
0.0
 10
-233.3645056102809
 20
-226.6854096587692
 30
0.0
 10
-233.1638718619587
 20
-226.6362309207173
 30
0.0
 10
-232.9260956779361
 20
-226.5730134185629
 30
0.0
 10
-233.236606440391
 20
-226.740251272525
 30
0.0
 10
-233.4513866120496
 20
-226.8695500124558
 30
0.0
 10
-233.577649361584
 20
-226.9646346478487
 30
0.0
  0
SPLINE
  5
9D
330
7B
100
AcDbEntity
  8
Layer 1
100
AcDbSpline
210
0.0
220
0.0
230
1.0
 70
     9
 71
     3
 72
    14
 73
    10
 74
     0
 42
0.0000000001
 43
0.0000000001
 40
0.0
 40
0.0
 40
0.0
 40
0.0
 40
1.0
 40
1.0
 40
1.0
 40
2.0
 40
2.0
 40
2.0
 40
3.0
 40
3.0
 40
3.0
 40
3.0
 10
-235.0356998983288
 20
-223.4058510115856
 30
0.0
 10
-235.014469497401
 20
-223.2570228866228
 30
0.0
 10
-234.9968133830391
 20
-223.0964814370102
 30
0.0
 10
-234.9830330010981
 20
-222.9230424111746
 30
0.0
 10
-234.9608121352182
 20
-223.0092343938462
 30
0.0
 10
-234.9386989285723
 20
-223.0865337237965
 30
0.0
 10
-234.9166718493135
 20
-223.1546820188641
 30
0.0
 10
-234.9551707913611
 20
-223.23857009393
 30
0.0
 10
-234.9948324531351
 20
-223.3223074460683
 30
0.0
 10
-235.0356998983288
 20
-223.4058510115856
 30
0.0
  0
SPLINE
  5
9E
330
7B
100
AcDbEntity
  8
Layer 1
100
AcDbSpline
210
0.0
220
0.0
230
1.0
 70
     9
 71
     3
 72
    20
 73
    16
 74
     0
 42
0.0000000001
 43
0.0000000001
 40
0.0
 40
0.0
 40
0.0
 40
0.0
 40
1.0
 40
1.0
 40
1.0
 40
2.0
 40
2.0
 40
2.0
 40
3.0
 40
3.0
 40
3.0
 40
4.0
 40
4.0
 40
4.0
 40
5.0
 40
5.0
 40
5.0
 40
5.0
 10
-260.0367363029401
 20
-237.560973213993
 30
0.0
 10
-259.8682926655582
 20
-237.2923849572242
 30
0.0
 10
-259.6077573194861
 20
-237.0779277632674
 30
0.0
 10
-259.2547857551755
 20
-236.9174078455016
 30
0.0
 10
-258.8938904712488
 20
-236.7730583446696
 30
0.0
 10
-258.4627798349634
 20
-236.7110035622415
 30
0.0
 10
-257.9614969100127
 20
-236.7309205205156
 30
0.0
 10
-257.6794943126983
 20
-236.7422462719234
 30
0.0
 10
-257.3967165688996
 20
-236.7930614303308
 30
0.0
 10
-257.113335933391
 20
-236.8754638079686
 30
0.0
 10
-258.1876674286194
 20
-237.3629663509783
 30
0.0
 10
-259.2593505066935
 20
-237.8565193429339
 30
0.0
 10
-260.3330360465184
 20
-238.3455506470651
 30
0.0
 10
-260.2808213180701
 20
-238.0585095976034
 30
0.0
 10
-260.1839280075474
 20
-237.7960148534742
 30
0.0
 10
-260.0367363029401
 20
-237.560973213993
 30
0.0
  0
SPLINE
  5
9F
330
7B
100
AcDbEntity
  8
Layer 1
100
AcDbSpline
210
0.0
220
0.0
230
1.0
 70
     9
 71
     3
 72
    14
 73
    10
 74
     0
 42
0.0000000001
 43
0.0000000001
 40
0.0
 40
0.0
 40
0.0
 40
0.0
 40
1.0
 40
1.0
 40
1.0
 40
2.0
 40
2.0
 40
2.0
 40
3.0
 40
3.0
 40
3.0
 40
3.0
 10
-243.6778511141588
 20
-229.0367949866861
 30
0.0
 10
-243.6097028190912
 20
-229.0622671614302
 30
0.0
 10
-243.5430402214516
 20
-229.0846602820843
 30
0.0
 10
-243.4771958339897
 20
-229.105309323149
 30
0.0
 10
-243.5309393235596
 20
-229.1651463253585
 30
0.0
 10
-243.5879987175341
 20
-229.2206338945177
 30
0.0
 10
-243.6477065286628
 20
-229.2727409637322
 30
0.0
 10
-243.6502472865832
 20
-229.1995972802109
 30
0.0
 10
-243.6602165316436
 20
-229.1210275713005
 30
0.0
 10
-243.6778511141588
 20
-229.0367949866861
 30
0.0
  0
SPLINE
  5
A0
330
7B
100
AcDbEntity
  8
Layer 1
100
AcDbSpline
210
0.0
220
0.0
230
1.0
 70
     9
 71
     3
 72
    14
 73
    10
 74
     0
 42
0.0000000001
 43
0.0000000001
 40
0.0
 40
0.0
 40
0.0
 40
0.0
 40
1.0
 40
1.0
 40
1.0
 40
2.0
 40
2.0
 40
2.0
 40
3.0
 40
3.0
 40
3.0
 40
3.0
 10
-241.9782132565107
 20
-231.7605090091714
 30
0.0
 10
-241.9562292409455
 20
-231.7383312069851
 30
0.0
 10
-241.9339437795253
 20
-231.7164117869602
 30
0.0
 10
-241.9115291270244
 20
-231.6946430898628
 30
0.0
 10
-241.843660745965
 20
-231.7114379303534
 30
0.0
 10
-241.7752971324295
 20
-231.732689863128
 30
0.0
 10
-241.7066536048859
 20
-231.7562026398149
 30
0.0
 10
-241.8078963484587
 20
-231.7372330827992
 30
0.0
 10
-241.8983731686401
 20
-231.738546525453
 30
0.0
 10
-241.9782132565107
 20
-231.7605090091714
 30
0.0
  0
SPLINE
  5
A1
330
7B
100
AcDbEntity
  8
Layer 1
100
AcDbSpline
210
0.0
220
0.0
230
1.0
 70
     9
 71
     3
 72
   650
 73
   646
 74
     0
 42
0.0000000001
 43
0.0000000001
 40
0.0
 40
0.0
 40
0.0
 40
0.0
 40
1.0
 40
1.0
 40
1.0
 40
2.0
 40
2.0
 40
2.0
 40
3.0
 40
3.0
 40
3.0
 40
4.0
 40
4.0
 40
4.0
 40
5.0
 40
5.0
 40
5.0
 40
6.0
 40
6.0
 40
6.0
 40
7.0
 40
7.0
 40
7.0
 40
8.0
 40
8.0
 40
8.0
 40
9.0
 40
9.0
 40
9.0
 40
10.0
 40
10.0
 40
10.0
 40
11.0
 40
11.0
 40
11.0
 40
12.0
 40
12.0
 40
12.0
 40
13.0
 40
13.0
 40
13.0
 40
14.0
 40
14.0
 40
14.0
 40
15.0
 40
15.0
 40
15.0
 40
16.0
 40
16.0
 40
16.0
 40
17.0
 40
17.0
 40
17.0
 40
18.0
 40
18.0
 40
18.0
 40
19.0
 40
19.0
 40
19.0
 40
20.0
 40
20.0
 40
20.0
 40
21.0
 40
21.0
 40
21.0
 40
22.0
 40
22.0
 40
22.0
 40
23.0
 40
23.0
 40
23.0
 40
24.0
 40
24.0
 40
24.0
 40
25.0
 40
25.0
 40
25.0
 40
26.0
 40
26.0
 40
26.0
 40
27.0
 40
27.0
 40
27.0
 40
28.0
 40
28.0
 40
28.0
 40
29.0
 40
29.0
 40
29.0
 40
30.0
 40
30.0
 40
30.0
 40
31.0
 40
31.0
 40
31.0
 40
32.0
 40
32.0
 40
32.0
 40
33.0
 40
33.0
 40
33.0
 40
34.0
 40
34.0
 40
34.0
 40
35.0
 40
35.0
 40
35.0
 40
36.0
 40
36.0
 40
36.0
 40
37.0
 40
37.0
 40
37.0
 40
38.0
 40
38.0
 40
38.0
 40
39.0
 40
39.0
 40
39.0
 40
40.0
 40
40.0
 40
40.0
 40
41.0
 40
41.0
 40
41.0
 40
42.0
 40
42.0
 40
42.0
 40
43.0
 40
43.0
 40
43.0
 40
44.0
 40
44.0
 40
44.0
 40
45.0
 40
45.0
 40
45.0
 40
46.0
 40
46.0
 40
46.0
 40
47.0
 40
47.0
 40
47.0
 40
48.0
 40
48.0
 40
48.0
 40
49.0
 40
49.0
 40
49.0
 40
50.0
 40
50.0
 40
50.0
 40
51.0
 40
51.0
 40
51.0
 40
52.0
 40
52.0
 40
52.0
 40
53.0
 40
53.0
 40
53.0
 40
54.0
 40
54.0
 40
54.0
 40
55.0
 40
55.0
 40
55.0
 40
56.0
 40
56.0
 40
56.0
 40
57.0
 40
57.0
 40
57.0
 40
58.0
 40
58.0
 40
58.0
 40
59.0
 40
59.0
 40
59.0
 40
60.0
 40
60.0
 40
60.0
 40
61.0
 40
61.0
 40
61.0
 40
62.0
 40
62.0
 40
62.0
 40
63.0
 40
63.0
 40
63.0
 40
64.0
 40
64.0
 40
64.0
 40
65.0
 40
65.0
 40
65.0
 40
66.0
 40
66.0
 40
66.0
 40
67.0
 40
67.0
 40
67.0
 40
68.0
 40
68.0
 40
68.0
 40
69.0
 40
69.0
 40
69.0
 40
70.0
 40
70.0
 40
70.0
 40
71.0
 40
71.0
 40
71.0
 40
72.0
 40
72.0
 40
72.0
 40
73.0
 40
73.0
 40
73.0
 40
74.0
 40
74.0
 40
74.0
 40
75.0
 40
75.0
 40
75.0
 40
76.0
 40
76.0
 40
76.0
 40
77.0
 40
77.0
 40
77.0
 40
78.0
 40
78.0
 40
78.0
 40
79.0
 40
79.0
 40
79.0
 40
80.0
 40
80.0
 40
80.0
 40
81.0
 40
81.0
 40
81.0
 40
82.0
 40
82.0
 40
82.0
 40
83.0
 40
83.0
 40
83.0
 40
84.0
 40
84.0
 40
84.0
 40
85.0
 40
85.0
 40
85.0
 40
86.0
 40
86.0
 40
86.0
 40
87.0
 40
87.0
 40
87.0
 40
88.0
 40
88.0
 40
88.0
 40
89.0
 40
89.0
 40
89.0
 40
90.0
 40
90.0
 40
90.0
 40
91.0
 40
91.0
 40
91.0
 40
92.0
 40
92.0
 40
92.0
 40
93.0
 40
93.0
 40
93.0
 40
94.0
 40
94.0
 40
94.0
 40
95.0
 40
95.0
 40
95.0
 40
96.0
 40
96.0
 40
96.0
 40
97.0
 40
97.0
 40
97.0
 40
98.0
 40
98.0
 40
98.0
 40
99.0
 40
99.0
 40
99.0
 40
100.0
 40
100.0
 40
100.0
 40
101.0
 40
101.0
 40
101.0
 40
102.0
 40
102.0
 40
102.0
 40
103.0
 40
103.0
 40
103.0
 40
104.0
 40
104.0
 40
104.0
 40
105.0
 40
105.0
 40
105.0
 40
106.0
 40
106.0
 40
106.0
 40
107.0
 40
107.0
 40
107.0
 40
108.0
 40
108.0
 40
108.0
 40
109.0
 40
109.0
 40
109.0
 40
110.0
 40
110.0
 40
110.0
 40
111.0
 40
111.0
 40
111.0
 40
112.0
 40
112.0
 40
112.0
 40
113.0
 40
113.0
 40
113.0
 40
114.0
 40
114.0
 40
114.0
 40
115.0
 40
115.0
 40
115.0
 40
116.0
 40
116.0
 40
116.0
 40
117.0
 40
117.0
 40
117.0
 40
118.0
 40
118.0
 40
118.0
 40
119.0
 40
119.0
 40
119.0
 40
120.0
 40
120.0
 40
120.0
 40
121.0
 40
121.0
 40
121.0
 40
122.0
 40
122.0
 40
122.0
 40
123.0
 40
123.0
 40
123.0
 40
124.0
 40
124.0
 40
124.0
 40
125.0
 40
125.0
 40
125.0
 40
126.0
 40
126.0
 40
126.0
 40
127.0
 40
127.0
 40
127.0
 40
128.0
 40
128.0
 40
128.0
 40
129.0
 40
129.0
 40
129.0
 40
130.0
 40
130.0
 40
130.0
 40
131.0
 40
131.0
 40
131.0
 40
132.0
 40
132.0
 40
132.0
 40
133.0
 40
133.0
 40
133.0
 40
134.0
 40
134.0
 40
134.0
 40
135.0
 40
135.0
 40
135.0
 40
136.0
 40
136.0
 40
136.0
 40
137.0
 40
137.0
 40
137.0
 40
138.0
 40
138.0
 40
138.0
 40
139.0
 40
139.0
 40
139.0
 40
140.0
 40
140.0
 40
140.0
 40
141.0
 40
141.0
 40
141.0
 40
142.0
 40
142.0
 40
142.0
 40
143.0
 40
143.0
 40
143.0
 40
144.0
 40
144.0
 40
144.0
 40
145.0
 40
145.0
 40
145.0
 40
146.0
 40
146.0
 40
146.0
 40
147.0
 40
147.0
 40
147.0
 40
148.0
 40
148.0
 40
148.0
 40
149.0
 40
149.0
 40
149.0
 40
150.0
 40
150.0
 40
150.0
 40
151.0
 40
151.0
 40
151.0
 40
152.0
 40
152.0
 40
152.0
 40
153.0
 40
153.0
 40
153.0
 40
154.0
 40
154.0
 40
154.0
 40
155.0
 40
155.0
 40
155.0
 40
156.0
 40
156.0
 40
156.0
 40
157.0
 40
157.0
 40
157.0
 40
158.0
 40
158.0
 40
158.0
 40
159.0
 40
159.0
 40
159.0
 40
160.0
 40
160.0
 40
160.0
 40
161.0
 40
161.0
 40
161.0
 40
162.0
 40
162.0
 40
162.0
 40
163.0
 40
163.0
 40
163.0
 40
164.0
 40
164.0
 40
164.0
 40
165.0
 40
165.0
 40
165.0
 40
166.0
 40
166.0
 40
166.0
 40
167.0
 40
167.0
 40
167.0
 40
168.0
 40
168.0
 40
168.0
 40
169.0
 40
169.0
 40
169.0
 40
170.0
 40
170.0
 40
170.0
 40
171.0
 40
171.0
 40
171.0
 40
172.0
 40
172.0
 40
172.0
 40
173.0
 40
173.0
 40
173.0
 40
174.0
 40
174.0
 40
174.0
 40
175.0
 40
175.0
 40
175.0
 40
176.0
 40
176.0
 40
176.0
 40
177.0
 40
177.0
 40
177.0
 40
178.0
 40
178.0
 40
178.0
 40
179.0
 40
179.0
 40
179.0
 40
180.0
 40
180.0
 40
180.0
 40
181.0
 40
181.0
 40
181.0
 40
182.0
 40
182.0
 40
182.0
 40
183.0
 40
183.0
 40
183.0
 40
184.0
 40
184.0
 40
184.0
 40
185.0
 40
185.0
 40
185.0
 40
186.0
 40
186.0
 40
186.0
 40
187.0
 40
187.0
 40
187.0
 40
188.0
 40
188.0
 40
188.0
 40
189.0
 40
189.0
 40
189.0
 40
190.0
 40
190.0
 40
190.0
 40
191.0
 40
191.0
 40
191.0
 40
192.0
 40
192.0
 40
192.0
 40
193.0
 40
193.0
 40
193.0
 40
194.0
 40
194.0
 40
194.0
 40
195.0
 40
195.0
 40
195.0
 40
196.0
 40
196.0
 40
196.0
 40
197.0
 40
197.0
 40
197.0
 40
198.0
 40
198.0
 40
198.0
 40
199.0
 40
199.0
 40
199.0
 40
200.0
 40
200.0
 40
200.0
 40
201.0
 40
201.0
 40
201.0
 40
202.0
 40
202.0
 40
202.0
 40
203.0
 40
203.0
 40
203.0
 40
204.0
 40
204.0
 40
204.0
 40
205.0
 40
205.0
 40
205.0
 40
206.0
 40
206.0
 40
206.0
 40
207.0
 40
207.0
 40
207.0
 40
208.0
 40
208.0
 40
208.0
 40
209.0
 40
209.0
 40
209.0
 40
210.0
 40
210.0
 40
210.0
 40
211.0
 40
211.0
 40
211.0
 40
212.0
 40
212.0
 40
212.0
 40
213.0
 40
213.0
 40
213.0
 40
214.0
 40
214.0
 40
214.0
 40
215.0
 40
215.0
 40
215.0
 40
215.0
 10
-223.9052208090433
 20
-231.9315795318609
 30
0.0
 10
-227.6150718823346
 20
-230.1952944709885
 30
0.0
 10
-229.8879520968814
 20
-229.2377947764037
 30
0.0
 10
-230.8366883298257
 20
-229.0350509070967
 30
0.0
 10
-229.7837379584526
 20
-229.2407661712597
 30
0.0
 10
-228.4883605241518
 20
-229.6703265145768
 30
0.0
 10
-226.9214665019199
 20
-230.3196193543125
 30
0.0
 10
-228.9116335682084
 20
-229.4949496225308
 30
0.0
 10
-230.3556022771573
 20
-228.9213627560835
 30
0.0
 10
-231.290708851088
 20
-228.5882435545066
 30
0.0
 10
-230.9966484195751
 20
-227.7177109890775
 30
0.0
 10
-228.5044232818518
 20
-227.5338290175523
 30
0.0
 10
-223.5581489707512
 20
-227.9236631035551
 30
0.0
 10
-228.7352877430572
 20
-227.5156346070208
 30
0.0
 10
-231.5286357580381
 20
-227.4672094836063
 30
0.0
 10
-232.3426687575091
 20
-227.8095012519127
 30
0.0
 10
-231.7261043248832
 20
-227.3990181248451
 30
0.0
 10
-229.6687148329388
 20
-227.2517402928507
 30
0.0
 10
-225.975271026896
 20
-227.3117495498344
 30
0.0
 10
-229.1619628189053
 20
-227.2599869901685
 30
0.0
 10
-231.3115516787738
 20
-227.1869509658813
 30
0.0
 10
-232.6006418138139
 20
-227.0790333498058
 30
0.0
 10
-232.4239084154206
 20
-226.8131365738848
 30
0.0
 10
-232.1281039043183
 20
-226.5302511708523
 30
0.0
 10
-231.7078237869647
 20
-226.2249726471655
 30
0.0
 10
-230.7815237383681
 20
-225.9477070561433
 30
0.0
 10
-229.5709387166981
 20
-225.5650000114256
 30
0.0
 10
-228.0426943594413
 20
-225.0679588602912
 30
0.0
 10
-229.373857723095
 20
-225.5008997035532
 30
0.0
 10
-230.460720753151
 20
-225.7996971413582
 30
0.0
 10
-231.3256765702633
 20
-225.9633607087544
 30
0.0
 10
-230.5572695541251
 20
-225.4645754780305
 30
0.0
 10
-229.4802465780489
 20
-224.9070513692832
 30
0.0
 10
-228.0739155372763
 20
-224.2697302363588
 30
0.0
 10
-229.7454543348727
 20
-225.0272421380249
 30
0.0
 10
-231.0105795244436
 20
-225.6155783195184
 30
0.0
 10
-231.9148094300878
 20
-226.058380748607
 30
0.0
 10
-232.3502264357298
 20
-226.1146649960972
 30
0.0
 10
-232.7140715826657
 20
-226.1261630022792
 30
0.0
 10
-233.0104574536311
 20
-226.0927025123788
 30
0.0
 10
-232.1783592347094
 20
-225.165132084822
 30
0.0
 10
-230.5799425887874
 20
-223.5956111772825
 30
0.0
 10
-228.0599629005611
 20
-221.218710610928
 30
0.0
 10
-230.9160977807607
 20
-223.9126676211594
 30
0.0
 10
-232.565631030945
 20
-225.188128097186
 30
0.0
 10
-233.2259697080803
 20
-225.1522345085991
 30
0.0
 10
-232.2354616923774
 20
-224.5431200949602
 30
0.0
 10
-230.2896932941551
 20
-222.6572748263344
 30
0.0
 10
-227.171386647528
 20
-219.3247908997586
 30
0.0
 10
-230.1518464110515
 20
-222.5099539306464
 30
0.0
 10
-232.0303277880776
 20
-224.0884966819879
 30
0.0
 10
-232.9872676546461
 20
-224.121397343872
 30
0.0
 10
-232.5217921908953
 20
-223.2738392589602
 30
0.0
 10
-231.7973532058875
 20
-221.7930510920127
 30
0.0
 10
-230.7867559771363
 20
-219.6353447259071
 30
0.0
 10
-231.7438465666323
 20
-221.6788031129831
 30
0.0
 10
-232.6082425557282
 20
-223.1115321979114
 30
0.0
 10
-233.437067933939
 20
-223.9707174800859
 30
0.0
 10
-233.4450777809422
 20
-223.9633966521797
 30
0.0
 10
-233.4526569910098
 20
-223.9553006777894
 30
0.0
 10
-233.460365392158
 20
-223.9474415537137
 30
0.0
 10
-233.4539919655103
 20
-223.9215387420339
 30
0.0
 10
-233.4476616025561
 20
-223.8956359303542
 30
0.0
 10
-233.4407283478921
 20
-223.8689149084967
 30
0.0
 10
-233.4476400707094
 20
-223.8955928666606
 30
0.0
 10
-233.4541857521313
 20
-223.9213234235661
 30
0.0
 10
-233.4607529654001
 20
-223.9470539804716
 30
0.0
 10
-233.5185659740119
 20
-223.888121315827
 30
0.0
 10
-233.5680246260721
 20
-223.8146546546041
 30
0.0
 10
-233.6088059438787
 20
-223.7259649777057
 30
0.0
 10
-233.1743148076483
 20
-223.5612248179704
 30
0.0
 10
-232.056058344983
 20
-221.2432353844136
 30
0.0
 10
-230.1300131184138
 20
-216.5989021607483
 30
0.0
 10
-231.7251784554716
 20
-220.4454158655701
 30
0.0
 10
-232.8903097485831
 20
-222.6415350463362
 30
0.0
 10
-233.7304393463548
 20
-223.272267434145
 30
0.0
 10
-233.7898672434754
 20
-222.8392404634959
 30
0.0
 10
-233.7581938968579
 20
-222.2419470337407
 30
0.0
 10
-233.6415343509886
 20
-221.4819589696946
 30
0.0
 10
-233.7741059316304
 20
-222.3455582804596
 30
0.0
 10
-233.8340936567673
 20
-222.9640605792959
 30
0.0
 10
-233.8170404341153
 20
-223.332448945903
 30
0.0
 10
-234.0786093088329
 20
-223.4993638221633
 30
0.0
 10
-234.3074497764406
 20
-223.5070722233116
 30
0.0
 10
-234.5066193591816
 20
-223.3566076779933
 30
0.0
 10
-234.3200243749617
 20
-222.9463398693936
 30
0.0
 10
-234.1326973079513
 20
-221.8393876262893
 30
0.0
 10
-233.9341090850734
 20
-220.0131209777115
 30
0.0
 10
-234.1061270090213
 20
-220.910977456708
 30
0.0
 10
-234.3819284344623
 20
-221.9309410388098
 30
0.0
 10
-234.8215226183802
 20
-222.9414952038675
 30
0.0
 10
-234.8709597385935
 20
-222.8432884506911
 30
0.0
 10
-234.9180283556608
 20
-222.7316458251222
 30
0.0
 10
-234.9627069377351
 20
-222.6059859672977
 30
0.0
 10
-234.9046570788086
 20
-221.4535154000945
 30
0.0
 10
-234.9847986125343
 20
-219.8339760124786
 30
0.0
 10
-235.1926885932223
 20
-217.7172662826475
 30
0.0
 10
-235.0455399523086
 20
-219.2155813728763
 30
0.0
 10
-235.0336543728845
 20
-220.5760711118482
 30
0.0
 10
-235.1798771443866
 20
-221.8020083402743
 30
0.0
 10
-235.2454200859934
 20
-221.4900118803914
 30
0.0
 10
-235.3041374321701
 20
-221.1355976823463
 30
0.0
 10
-235.3562229695378
 20
-220.73708626209
 30
0.0
 10
-235.2998095309668
 20
-221.1687997900854
 30
0.0
 10
-235.2444942165818
 20
-221.5512053889482
 30
0.0
 10
-235.190040176068
 20
-221.8840016128233
 30
0.0
 10
-235.3247649413881
 20
-222.9557923501313
 30
0.0
 10
-235.5819843830555
 20
-223.9237349904058
 30
0.0
 10
-235.9784072141739
 20
-224.788992253373
 30
0.0
 10
-235.9350420747533
 20
-224.7943321513752
 30
0.0
 10
-235.8931195690672
 20
-224.795645594029
 30
0.0
 10
-235.8525966334219
 20
-224.7930187087215
 30
0.0
 10
-235.86706603446
 20
-224.8135385587055
 30
0.0
 10
-235.8819876042804
 20
-224.8338430902217
 30
0.0
 10
-235.8966723237863
 20
-224.8542768128185
 30
0.0
 10
-235.9288409028799
 20
-224.8438769308225
 30
0.0
 10
-235.961052545667
 20
-224.8326803704954
 30
0.0
 10
-235.9932857203008
 20
-224.8206010044503
 30
0.0
 10
-236.0678074420161
 20
-224.9813577725307
 30
0.0
 10
-236.1472384247979
 20
-225.1384971903517
 30
0.0
 10
-236.2315140731058
 20
-225.2921484489938
 30
0.0
 10
-236.3714495453473
 20
-225.4636280767721
 30
0.0
 10
-236.5187273773417
 20
-225.6311243128956
 30
0.0
 10
-236.6741873111136
 20
-225.7934959694848
 30
0.0
 10
-237.3783002327584
 20
-226.5289592600453
 30
0.0
 10
-238.1731698885926
 20
-227.0839210790255
 30
0.0
 10
-238.9908848338635
 20
-227.5044595785406
 30
0.0
 10
-238.8202664799565
 20
-227.3785844022482
 30
0.0
 10
-238.6368366772137
 20
-227.24913493939
 30
0.0
 10
-238.439712619917
 20
-227.1157020848769
 30
0.0
 10
-238.7420843442881
 20
-227.3203838203943
 30
0.0
 10
-239.0376520050757
 20
-227.5047825562423
 30
0.0
 10
-239.3275352583128
 20
-227.6693719930501
 30
0.0
 10
-239.8337274443298
 20
-227.9059208618061
 30
0.0
 10
-240.3450226780345
 20
-228.0943675848492
 30
0.0
 10
-240.8457673068156
 20
-228.2439277926027
 30
0.0
 10
-240.5750043335217
 20
-227.6103316691716
 30
0.0
 10
-240.0341458741842
 20
-226.8005835072105
 30
0.0
 10
-239.2281657854101
 20
-225.7998478642857
 30
0.0
 10
-240.7418976779353
 20
-227.6793197062638
 30
0.0
 10
-241.9850819156344
 20
-228.6018947453669
 30
0.0
 10
-243.113630601062
 20
-228.5810519176811
 30
0.0
 10
-242.9452730910671
 20
-228.2953243108732
 30
0.0
 10
-242.82404879368
 20
-227.8220973822806
 30
0.0
 10
-242.7417110115825
 20
-227.162490787936
 30
0.0
 10
-242.8124000645704
 20
-227.7287352946303
 30
0.0
 10
-242.9381245179353
 20
-228.1998090385447
 30
0.0
 10
-243.1266789002124
 20
-228.5805566852051
 30
0.0
 10
-244.1108565529611
 20
-228.5560103798727
 30
0.0
 10
-245.008174735788
 20
-227.8131616658657
 30
0.0
 10
-245.9221585680248
 20
-226.3598050717195
 30
0.0
 10
-245.3585840103314
 20
-227.2559820666669
 30
0.0
 10
-244.8830101104395
 20
-227.9132847534058
 30
0.0
 10
-244.4835728207715
 20
-228.3356103962038
 30
0.0
 10
-245.4118753311189
 20
-227.9889261311538
 30
0.0
 10
-246.3511160196319
 20
-227.3778307876109
 30
0.0
 10
-247.3487295447732
 20
-226.4985562923879
 30
0.0
 10
-245.8185688531526
 20
-227.8472250474762
 30
0.0
 10
-244.6337574520816
 20
-228.6787419065348
 30
0.0
 10
-243.680004298837
 20
-229.0359337128148
 30
0.0
 10
-243.6643075825323
 20
-229.1195849375661
 30
0.0
 10
-243.6566422450777
 20
-229.2010183820986
 30
0.0
 10
-243.6567714361584
 20
-229.2804278330336
 30
0.0
 10
-244.4489926748384
 20
-229.9630304397423
 30
0.0
 10
-245.7688302870844
 20
-229.9776075000143
 30
0.0
 10
-247.7970441266381
 20
-229.400747792856
 30
0.0
 10
-245.2557909737903
 20
-230.1235288256614
 30
0.0
 10
-243.9880604307587
 20
-230.2046608243391
 30
0.0
 10
-243.7076296582594
 20
-229.6097574295767
 30
0.0
 10
-243.9952090038906
 20
-230.5077215678071
 30
0.0
 10
-245.5183072497663
 20
-231.1253841246188
 30
0.0
 10
-248.6703973639957
 20
-231.6830589562937
 30
0.0
 10
-246.9203965167227
 20
-231.3734525314036
 30
0.0
 10
-245.5161110013945
 20
-231.1472389491034
 30
0.0
 10
-244.3514964726058
 20
-230.9909177414602
 30
0.0
 10
-244.5422471032547
 20
-231.1219605609803
 30
0.0
 10
-244.7436559980611
 20
-231.2583217466559
 30
0.0
 10
-244.9518258927574
 20
-231.3981280278167
 30
0.0
 10
-248.2096158428435
 20
-232.8554680136178
 30
0.0
 10
-251.4647573757754
 20
-234.3188584483648
 30
0.0
 10
-254.716453813222
 20
-235.7901941345746
 30
0.0
 10
-254.6572627664161
 20
-235.6600987163129
 30
0.0
 10
-254.6367644482788
 20
-235.5460229920575
 30
0.0
 10
-254.6592436963201
 20
-235.4497541050915
 30
0.0
 10
-255.0844976702806
 20
-235.6503017260267
 30
0.0
 10
-255.4854421892233
 20
-235.784703513645
 30
0.0
 10
-255.8623356353097
 20
-235.8527441494786
 30
0.0
 10
-256.2393367406299
 20
-235.9209570400866
 30
0.0
 10
-256.6763686347806
 20
-235.9110093268729
 30
0.0
 10
-257.173517445149
 20
-235.8226641595231
 30
0.0
 10
-257.5344342609225
 20
-235.766659826041
 30
0.0
 10
-257.8994636594315
 20
-235.7384531067555
 30
0.0
 10
-258.268304194821
 20
-235.7384531067555
 30
0.0
 10
-258.6532505516041
 20
-235.7384531067555
 30
0.0
 10
-259.1344227316596
 20
-235.8007016758046
 30
0.0
 10
-259.7118422668343
 20
-235.9249404317414
 30
0.0
 10
-260.289347929396
 20
-236.0493729742993
 30
0.0
 10
-260.8747988434207
 20
-236.2879027729593
 30
0.0
 10
-261.4682811362953
 20
-236.6407236143424
 30
0.0
 10
-261.9656452651315
 20
-236.0873336201774
 30
0.0
 10
-262.7995952228766
 20
-235.878883811473
 30
0.0
 10
-263.9704970509259
 20
-236.0151373379146
 30
0.0
 10
-263.2246554102161
 20
-236.8493672096679
 30
0.0
 10
-262.769515232921
 20
-237.5109977976101
 30
0.0
 10
-262.6051195827342
 20
-238.0000721654349
 30
0.0
 10
-262.4829478840886
 20
-238.3638527168305
 30
0.0
 10
-262.4064882961627
 20
-238.7901402194366
 30
0.0
 10
-262.3750948635534
 20
-239.2779442083012
 30
0.0
 10
-263.7249909339082
 20
-239.8942287269188
 30
0.0
 10
-265.0758774692151
 20
-240.508273933471
 30
0.0
 10
-266.4247400109243
 20
-241.1269915507751
 30
0.0
 10
-266.424675415384
 20
-241.0152627978191
 30
0.0
 10
-266.4246323516904
 20
-240.9141061816335
 30
0.0
 10
-266.4246323516904
 20
-240.8271390524777
 30
0.0
 10
-266.4246323516904
 20
-240.169621047271
 30
0.0
 10
-266.4246323516904
 20
-239.7846746904879
 30
0.0
 10
-266.4246323516904
 20
-239.6722569184348
 30
0.0
 10
-266.4246323516904
 20
-238.9666367675153
 30
0.0
 10
-266.3584649865267
 20
-238.3790326688123
 30
0.0
 10
-266.2261302561996
 20
-237.9098752592617
 30
0.0
 10
-266.0937955258725
 20
-237.440717849711
 30
0.0
 10
-265.9433740442478
 20
-237.0698533207239
 30
0.0
 10
-265.7750165342529
 20
-236.7970878856792
 30
0.0
 10
-265.6065944287178
 20
-236.5245593009491
 30
0.0
 10
-265.3942042920522
 20
-236.2677920280642
 30
0.0
 10
-265.1373939554736
 20
-236.0271521084194
 30
0.0
 10
-266.0276281607089
 20
-235.9630948642406
 30
0.0
 10
-266.637216274977
 20
-236.2316831210093
 30
0.0
 10
-266.9659429798103
 20
-236.8331752608872
 30
0.0
 10
-266.9659429798103
 20
-236.8331752608872
 30
0.0
 10
-267.4471151598658
 20
-235.6422057516363
 30
0.0
 10
-267.4471151598658
 20
-235.6422057516363
 30
0.0
 10
-267.4471151598658
 20
-235.6422057516363
 30
0.0
 10
-267.9764540811744
 20
-236.8211604903824
 30
0.0
 10
-267.9764540811744
 20
-236.8211604903824
 30
0.0
 10
-268.2573154906094
 20
-236.3801667364236
 30
0.0
 10
-268.9229079383596
 20
-236.1034825052645
 30
0.0
 10
-269.9734682747398
 20
-235.991107796905
 30
0.0
 10
-269.2276051021832
 20
-236.8493672096679
 30
0.0
 10
-268.7724864567349
 20
-237.5290414852141
 30
0.0
 10
-268.6080692747014
 20
-238.0301952190841
 30
0.0
 10
-268.4437597519017
 20
-238.5314781440347
 30
0.0
 10
-268.3614004379574
 20
-239.1510139715165
 30
0.0
 10
-268.3614004379574
 20
-239.8888242333764
 30
0.0
 10
-268.3614004379574
 20
-239.8888242333764
 30
0.0
 10
-268.3614004379574
 20
-242.0112399026049
 30
0.0
 10
-268.3614004379574
 20
-242.0112399026049
 30
0.0
 10
-271.0970431035605
 20
-243.2688935413421
 30
0.0
 10
-273.8275611896291
 20
-244.538475823197
 30
0.0
 10
-276.5588974858756
 20
-245.8061202388415
 30
0.0
 10
-276.5617612214977
 20
-245.2765875309118
 30
0.0
 10
-276.5640866609502
 20
-244.6881436901843
 30
0.0
 10
-276.5658092086928
 20
-244.0331018473576
 30
0.0
 10
-276.5739482467767
 20
-241.0297537307039
 30
0.0
 10
-276.5257815055236
 20
-239.1068736856118
 30
0.0
 10
-276.4215027715545
 20
-238.2647416260892
 30
0.0
 10
-276.2611120448692
 20
-237.382624927091
 30
0.0
 10
-275.8801921434346
 20
-236.6286442482973
 30
0.0
 10
-275.2786354080164
 20
-236.0031225674098
 30
0.0
 10
-275.7598291199187
 20
-235.9711477749374
 30
0.0
 10
-276.1348062316413
 20
-236.0271521084194
 30
0.0
 10
-276.4033944884101
 20
-236.1715662047918
 30
0.0
 10
-276.6722841910338
 20
-236.3159157056237
 30
0.0
 10
-276.8987561554955
 20
-236.5284780970636
 30
0.0
 10
-277.0831764231902
 20
-236.809102656184
 30
0.0
 10
-277.0831764231902
 20
-236.809102656184
 30
0.0
 10
-277.6726537925632
 20
-235.6422057516363
 30
0.0
 10
-277.6726537925632
 20
-235.6422057516363
 30
0.0
 10
-277.6726537925632
 20
-235.6422057516363
 30
0.0
 10
-278.0936875245544
 20
-236.7970878856792
 30
0.0
 10
-278.0936875245544
 20
-236.7970878856792
 30
0.0
 10
-278.1899133478268
 20
-236.6608343592376
 30
0.0
 10
-278.3101902439555
 20
-236.5305451543548
 30
0.0
 10
-278.4546043403278
 20
-236.4061126117969
 30
0.0
 10
-278.5988892456195
 20
-236.2818738558601
 30
0.0
 10
-278.7874436278965
 20
-236.1736117302361
 30
0.0
 10
-279.0199445094573
 20
-236.0813047030782
 30
0.0
 10
-279.2526176457924
 20
-235.9891914625413
 30
0.0
 10
-279.6015627547546
 20
-235.9591114725858
 30
0.0
 10
-280.0665645178763
 20
-235.991107796905
 30
0.0
 10
-279.3128637530907
 20
-236.6166294777924
 30
0.0
 10
-278.8596399101593
 20
-237.3705670928926
 30
0.0
 10
-278.707194434937
 20
-238.2527268555844
 30
0.0
 10
-278.5549427463358
 20
-239.1350158093569
 30
0.0
 10
-278.4746935533762
 20
-241.1880343364044
 30
0.0
 10
-278.4665545152923
 20
-244.4120623507351
 30
0.0
 10
-278.4644874580012
 20
-245.259017543937
 30
0.0
 10
-278.4678248942525
 20
-246.0181012704182
 30
0.0
 10
-278.4762438463446
 20
-246.6940290046242
 30
0.0
 10
-279.2388587956982
 20
-247.0487446485243
 30
0.0
 10
-280.0034762068026
 20
-247.398830945366
 30
0.0
 10
-280.7657681784545
 20
-247.7543217357502
 30
0.0
 10
-280.3754603918225
 20
-248.0416642310669
 30
0.0
 10
-280.217373572743
 20
-248.7215107613874
 30
0.0
 10
-281.0274231805592
 20
-249.9428186427552
 30
0.0
 10
-280.7718832229408
 20
-249.7872295179026
 30
0.0
 10
-279.8788283457769
 20
-249.3098900065744
 30
0.0
 10
-278.5226449761615
 20
-248.6043344511953
 30
0.0
 10
-278.5567298896187
 20
-249.4420955458209
 30
0.0
 10
-278.6061024142917
 20
-250.0311853419519
 30
0.0
 10
-278.671107059729
 20
-250.3669098969894
 30
0.0
 10
-278.8315839138013
 20
-251.1529730274896
 30
0.0
 10
-279.2004459810377
 20
-251.810512564543
 30
0.0
 10
-279.7778439843655
 20
-252.3398514858517
 30
0.0
 10
-279.3128637530907
 20
-252.3557635206242
 30
0.0
 10
-278.8596399101593
 20
-252.2977351935445
 30
0.0
 10
-278.418495433273
 20
-252.1654004632174
 30
0.0
 10
-277.9775447430079
 20
-252.0330657328902
 30
0.0
 10
-277.6004575103005
 20
-251.8025673130802
 30
0.0
 10
-277.2876213083931
 20
-251.473646821626
 30
0.0
 10
-276.2770886751821
 20
-252.0751820251974
 30
0.0
 10
-275.1884385018432
 20
-252.3918508958322
 30
0.0
 10
-274.0215631291423
 20
-252.4240410067725
 30
0.0
 10
-272.8545800972075
 20
-252.4560157992449
 30
0.0
 10
-271.7298210168137
 20
-252.2356804111165
 30
0.0
 10
-270.6471136331868
 20
-251.7623458232899
 30
0.0
 10
-270.9920107549539
 20
-251.1289219546331
 30
0.0
 10
-271.3468986536282
 20
-250.3469714068685
 30
0.0
 10
-271.7117342655162
 20
-249.4165157118429
 30
0.0
 10
-272.0767421321784
 20
-248.4862968671319
 30
0.0
 10
-272.255133482774
 20
-247.696250344977
 30
0.0
 10
-272.247102103924
 20
-247.0466560593863
 30
0.0
 10
-272.2391568524611
 20
-246.9665360575075
 30
0.0
 10
-272.2211562285507
 20
-246.8863083963948
 30
0.0
 10
-272.1929925729587
 20
-246.8060161397417
 30
0.0
 10
-272.1649365766008
 20
-246.7259607334032
 30
0.0
 10
-272.1147673735968
 20
-246.6697410814532
 30
0.0
 10
-272.0425710913341
 20
-246.6376155660533
 30
0.0
 10
-271.9625156849956
 20
-246.5975447991905
 30
0.0
 10
-271.8801563710513
 20
-246.5954992737461
 30
0.0
 10
-271.7959883819773
 20
-246.6315866489541
 30
0.0
 10
-271.7117342655162
 20
-246.6676955560089
 30
0.0
 10
-271.6296548655801
 20
-246.7139459628984
 30
0.0
 10
-271.5493195452334
 20
-246.7699502963804
 30
0.0
 10
-271.5333213830738
 20
-246.7860991814676
 30
0.0
 10
-271.5132106381787
 20
-246.7981570156659
 30
0.0
 10
-271.489181097169
 20
-246.8060161397417
 30
0.0
 10
-271.4572063046966
 20
-246.8300887444448
 30
0.0
 10
-271.4251238529902
 20
-246.85019948934
 30
0.0
 10
-271.3929552738966
 20
-246.8661976514996
 30
0.0
 10
-271.1204266891666
 20
-246.9864530157816
 30
0.0
 10
-270.8596760246268
 20
-246.9545212870027
 30
0.0
 10
-270.6110047261321
 20
-246.7699502963804
 30
0.0
 10
-270.3625272142584
 20
-246.5855300286857
 30
0.0
 10
-270.2381377353941
 20
-246.3449547045813
 30
0.0
 10
-270.2381377353941
 20
-246.0481381966802
 30
0.0
 10
-270.2701986552537
 20
-245.751537007247
 30
0.0
 10
-270.4064737135421
 20
-245.5169475365483
 30
0.0
 10
-270.6471136331868
 20
-245.3443913164308
 30
0.0
 10
-270.8877320209847
 20
-245.1720288829344
 30
0.0
 10
-271.1565355962214
 20
-245.093846747266
 30
0.0
 10
-271.453093721961
 20
-245.1097803138853
 30
0.0
 10
-271.9504363189504
 20
-245.1819765961481
 30
0.0
 10
-272.2951611859433
 20
-245.4066183536332
 30
0.0
 10
-272.4877420235687
 20
-245.7834687360259
 30
0.0
 10
-272.6801936701134
 20
-246.1605559687333
 30
0.0
 10
-272.760442863073
 20
-246.5774340542953
 30
0.0
 10
-272.7282742839795
 20
-247.0345766933412
 30
0.0
 10
-272.7122761218199
 20
-247.2832695236827
 30
0.0
 10
-272.6461087566562
 20
-247.6141063495006
 30
0.0
 10
-272.5297721884887
 20
-248.0270871707949
 30
0.0
 10
-272.4136078750955
 20
-248.4402402468635
 30
0.0
 10
-272.283189479132
 20
-248.8571613961191
 30
0.0
 10
-272.1387969146065
 20
-249.2781951281102
 30
0.0
 10
-271.994490477468
 20
-249.6992288601012
 30
0.0
 10
-271.8020172990765
 20
-250.2225388643107
 30
0.0
 10
-271.5613773794318
 20
-250.8480820770449
 30
0.0
 10
-272.1069082495211
 20
-251.1048924136235
 30
0.0
 10
-272.7303844049642
 20
-251.2511151851256
 30
0.0
 10
-273.4320857597692
 20
-251.2872025603336
 30
0.0
 10
-274.1338732419614
 20
-251.3233114673884
 30
0.0
 10
-274.7192380285989
 20
-251.2330069019813
 30
0.0
 10
-275.1884385018432
 20
-251.0165041825801
 30
0.0
 10
-275.6575528477003
 20
-250.8000014631789
 30
0.0
 10
-275.9865809983884
 20
-250.5154150442505
 30
0.0
 10
-276.1748339348105
 20
-250.1624219480931
 30
0.0
 10
-276.3633667852408
 20
-249.8096011067099
 30
0.0
 10
-276.4737820955431
 20
-249.4507513482276
 30
0.0
 10
-276.5056707606285
 20
-249.0857219497186
 30
0.0
 10
-276.5215397317074
 20
-248.9058233698482
 30
0.0
 10
-276.5344588397771
 20
-248.4036791710263
 30
0.0
 10
-276.5444280848375
 20
-247.5823253436491
 30
0.0
 10
-274.3477706079019
 20
-246.4542072951573
 30
0.0
 10
-271.5061266605871
 20
-245.0136406180001
 30
0.0
 10
-268.3614004379574
 20
-243.4445072837027
 30
0.0
 10
-268.3614004379574
 20
-243.4445072837027
 30
0.0
 10
-268.3614004379574
 20
-248.6466445301235
 30
0.0
 10
-268.3614004379574
 20
-248.6466445301235
 30
0.0
 10
-268.3614004379574
 20
-249.3524584676641
 30
0.0
 10
-268.4497886690009
 20
-250.0140890556063
 30
0.0
 10
-268.6260698986118
 20
-250.6315793576438
 30
0.0
 10
-268.8025449148437
 20
-251.2491988507619
 30
0.0
 10
-269.1474635684576
 20
-251.8025673130802
 30
0.0
 10
-269.6606320728323
 20
-252.2917062764453
 30
0.0
 10
-268.8507116560968
 20
-252.3076829067582
 30
0.0
 10
-268.2411235418287
 20
-252.0432072327249
 30
0.0
 10
-267.8320615166488
 20
-251.4976763626356
 30
0.0
 10
-267.8320615166488
 20
-251.4976763626356
 30
0.0
 10
-267.2425841472758
 20
-252.6766311013816
 30
0.0
 10
-267.2425841472758
 20
-252.6766311013816
 30
0.0
 10
-267.2425841472758
 20
-252.6766311013816
 30
0.0
 10
-266.8216365426719
 20
-251.4976763626356
 30
0.0
 10
-266.8216365426719
 20
-251.4976763626356
 30
0.0
 10
-266.3965763553323
 20
-252.1714293803166
 30
0.0
 10
-265.7268713248466
 20
-252.4480705477821
 30
0.0
 10
-264.8125860467549
 20
-252.3277936516533
 30
0.0
 10
-265.3981230881667
 20
-251.9349020434074
 30
0.0
 10
-265.8111254413078
 20
-251.3635329571787
 30
0.0
 10
-266.0516577017185
 20
-250.6134710744994
 30
0.0
 10
-266.2922976213632
 20
-249.8637106376751
 30
0.0
 10
-266.4166871002275
 20
-249.1158019396742
 30
0.0
 10
-266.4246323516904
 20
-248.369895703424
 30
0.0
 10
-266.4326852623872
 20
-248.1454907962536
 30
0.0
 10
-266.4347953833718
 20
-246.9966160474631
 30
0.0
 10
-266.4306612687895
 20
-244.9233360525929
 30
0.0
 10
-266.4287879981194
 20
-243.9520775079139
 30
0.0
 10
-266.427345364385
 20
-243.142393941493
 30
0.0
 10
-266.426354899433
 20
-242.4818184140432
 30
0.0
 10
-265.1018018127416
 20
-241.8248817686996
 30
0.0
 10
-263.7382545515265
 20
-241.1527867032209
 30
0.0
 10
-262.3584507459904
 20
-240.4776556473459
 30
0.0
 10
-262.3584507459904
 20
-240.4776556473459
 30
0.0
 10
-262.3584507459904
 20
-248.7909940309555
 30
0.0
 10
-262.3584507459904
 20
-248.7909940309555
 30
0.0
 10
-262.3584507459904
 20
-249.4727353637928
 30
0.0
 10
-262.4246181111539
 20
-250.0421019882707
 30
0.0
 10
-262.5569528414811
 20
-250.4992446273166
 30
0.0
 10
-262.6892875718082
 20
-250.9563657345157
 30
0.0
 10
-262.8397090534329
 20
-251.31928501204
 30
0.0
 10
-263.008045031581
 20
-251.5879809280427
 30
0.0
 10
-263.1764886689629
 20
-251.8567629714325
 30
0.0
 10
-263.3250153480708
 20
-252.0471260288394
 30
0.0
 10
-263.4532159638156
 20
-252.1593715461182
 30
0.0
 10
-263.5815457706412
 20
-252.2717893181712
 30
0.0
 10
-263.6498017249427
 20
-252.3277936516533
 30
0.0
 10
-263.6577685082523
 20
-252.3277936516533
 30
0.0
 10
-262.9439877874022
 20
-252.3116232347194
 30
0.0
 10
-262.3906193250838
 20
-252.1875997972504
 30
0.0
 10
-261.9975339302168
 20
-251.9548190016815
 30
0.0
 10
-261.6047499812048
 20
-251.7223396519674
 30
0.0
 10
-261.3319414824665
 20
-251.501896604605
 30
0.0
 10
-261.1794960072443
 20
-251.2932530092796
 30
0.0
 10
-260.3374070114153
 20
-251.9108725023977
 30
0.0
 10
-259.3870343581155
 20
-252.2435395351922
 30
0.0
 10
-258.3284426428854
 20
-252.2917062764453
 30
0.0
 10
-257.7991037215768
 20
-252.3157358174549
 30
0.0
 10
-257.2779038383521
 20
-252.2796269104002
 30
0.0
 10
-256.7645415473563
 20
-252.1834010871278
 30
0.0
 10
-256.5882603177454
 20
-252.1515124220425
 30
0.0
 10
-256.4116991741264
 20
-252.1112909322521
 30
0.0
 10
-256.2352026260476
 20
-252.063124190999
 30
0.0
 10
-255.8983368831305
 20
-251.9590392436509
 30
0.0
 10
-255.5635812611982
 20
-251.900731002563
 30
0.0
 10
-255.2307204417827
 20
-251.8886516365179
 30
0.0
 10
-254.8979672816011
 20
-251.8766799297066
 30
0.0
 10
-254.6192375249976
 20
-251.9388423713686
 30
0.0
 10
-254.3946818948997
 20
-252.0751820251974
 30
0.0
 10
-254.1702339240357
 20
-252.2116508701068
 30
0.0
 10
-254.0258198276633
 20
-252.4560157992449
 30
0.0
 10
-253.9615687968634
 20
-252.8089658317088
 30
0.0
 10
-253.8493448114314
 20
-252.6003222363834
 30
0.0
 10
-253.7991756084275
 20
-252.3176521518186
 30
0.0
 10
-253.8111473152387
 20
-251.9608479187807
 30
0.0
 10
-253.8232051494371
 20
-251.6040652175894
 30
0.0
 10
-254.0258198276633
 20
-251.3373932951843
 30
0.0
 10
-254.4187114359093
 20
-251.1609182789524
 30
0.0
 10
-254.0899847310761
 20
-250.9364487762416
 30
0.0
 10
-253.8532636075459
 20
-250.5755534923149
 30
0.0
 10
-253.7089787022543
 20
-250.0781893634787
 30
0.0
 10
-254.0138481208521
 20
-250.2465899371671
 30
0.0
 10
-254.3265981953724
 20
-250.3509117348298
 30
0.0
 10
-254.6472935213556
 20
-250.3909394379991
 30
0.0
 10
-254.5510461662364
 20
-250.1263130410383
 30
0.0
 10
-254.519071373764
 20
-249.8958792167687
 30
0.0
 10
-254.5510461662364
 20
-249.6992288601012
 30
0.0
 10
-254.5831286179429
 20
-249.5027938219017
 30
0.0
 10
-254.639326738046
 20
-249.3404006334657
 30
0.0
 10
-254.7194898036184
 20
-249.2120277629466
 30
0.0
 10
-254.7997174647311
 20
-249.0838056153549
 30
0.0
 10
-254.9239346888212
 20
-248.9755650215777
 30
0.0
 10
-255.0923567943563
 20
-248.8872198542278
 30
0.0
 10
-255.0923567943563
 20
-249.1118185480194
 30
0.0
 10
-255.1265493670474
 20
-249.36654029546
 30
0.0
 10
-255.1946330665747
 20
-249.6511267143885
 30
0.0
 10
-255.262910552723
 20
-249.9359069199379
 30
0.0
 10
-255.3891948341042
 20
-250.2105240938059
 30
0.0
 10
-255.5735289744118
 20
-250.4751935544602
 30
0.0
 10
-255.7581430287277
 20
-250.7398630151145
 30
0.0
 10
-256.0267528173432
 20
-250.9624161834617
 30
0.0
 10
-256.3796167224199
 20
-251.142809995808
 30
0.0
 10
-256.7325667548838
 20
-251.3233114673884
 30
0.0
 10
-257.1976546453925
 20
-251.4135083735616
 30
0.0
 10
-257.7750741805672
 20
-251.4135083735616
 30
0.0
 10
-258.1521614132745
 20
-251.4135083735616
 30
0.0
 10
-258.5310573211117
 20
-251.3674517532931
 30
0.0
 10
-258.9118910951593
 20
-251.2751447261352
 30
0.0
 10
-259.2928971239811
 20
-251.1830314855984
 30
0.0
 10
-259.6155949117151
 20
-251.0044463483817
 30
0.0
 10
-259.8802643723694
 20
-250.7398630151145
 30
0.0
 10
-260.1611257818044
 20
-250.4270268132071
 30
0.0
 10
-260.3274592982016
 20
-250.0682416502651
 30
0.0
 10
-260.3795448355693
 20
-249.6631414848933
 30
0.0
 10
-260.431824159558
 20
-249.258278169836
 30
0.0
 10
-260.4457122007328
 20
-247.551900844145
 30
0.0
 10
-260.4216826597232
 20
-244.5443970810623
 30
0.0
 10
-259.6036232049039
 20
-244.4240771212399
 30
0.0
 10
-258.9460621360036
 20
-244.4000475802303
 30
0.0
 10
-258.4487195390142
 20
-244.4722438624931
 30
0.0
 10
-257.9515491967991
 20
-244.5443970810623
 30
0.0
 10
-257.5906323810256
 20
-244.6406229043347
 30
0.0
 10
-257.3659906235405
 20
-244.760942864157
 30
0.0
 10
-257.3659906235405
 20
-244.760942864157
 30
0.0
 10
-257.0411827148218
 20
-244.9414012720438
 30
0.0
 10
-257.0411827148218
 20
-244.9414012720438
 30
0.0
 10
-256.8487310682771
 20
-244.7810536090521
 30
0.0
 10
-256.6201489828308
 20
-244.6267348631597
 30
0.0
 10
-256.3554795221764
 20
-244.4782297158987
 30
0.0
 10
-256.0908961889092
 20
-244.3299398871054
 30
0.0
 10
-255.7540304459921
 20
-244.1515485365099
 30
0.0
 10
-255.3449684208123
 20
-243.9429049411844
 30
0.0
 10
-255.7300009049825
 20
-243.8225849813621
 30
0.0
 10
-256.0468635622384
 20
-243.6863099230737
 30
0.0
 10
-256.295341074112
 20
-243.5338644478513
 30
0.0
 10
-256.5440339044535
 20
-243.3816127592501
 30
0.0
 10
-256.7245353760338
 20
-243.2492780289229
 30
0.0
 10
-256.8367593614658
 20
-243.1368602568699
 30
0.0
 10
-256.8367593614658
 20
-243.1368602568699
 30
0.0
 10
-257.0171531738122
 20
-242.9684812150283
 30
0.0
 10
-257.0171531738122
 20
-242.9684812150283
 30
0.0
 10
-257.2258183009844
 20
-243.1930799088198
 30
0.0
 10
-257.5626840439015
 20
-243.3494872438501
 30
0.0
 10
-258.0276642751763
 20
-243.437638624579
 30
0.0
 10
-258.4929459523061
 20
-243.5259837919288
 30
0.0
 10
-258.956031381064
 20
-243.5720404121973
 30
0.0
 10
-259.4172004754583
 20
-243.5759592083118
 30
0.0
 10
-259.8784556972397
 20
-243.5801148547408
 30
0.0
 10
-260.213211319172
 20
-243.5740859376417
 30
0.0
 10
-260.4216826597232
 20
-243.5579585844013
 30
0.0
 10
-260.4216826597232
 20
-243.5579585844013
 30
0.0
 10
-260.4216826597232
 20
-239.5333980385324
 30
0.0
 10
-260.4216826597232
 20
-239.5333980385324
 30
0.0
 10
-258.946212858931
 20
-238.816667454673
 30
0.0
 10
-257.464886395814
 20
-238.103166647831
 30
0.0
 10
-256.0044458240763
 20
-237.407601869359
 30
0.0
 10
-255.6715419409672
 20
-237.6550673844339
 30
0.0
 10
-255.3585980798258
 20
-237.9850214045337
 30
0.0
 10
-255.0683272533467
 20
-238.4090911269212
 30
0.0
 10
-254.8198282096263
 20
-237.9119207847061
 30
0.0
 10
-254.8758540749552
 20
-237.4869036610602
 30
0.0
 10
-255.2367493588818
 20
-237.1339536285963
 30
0.0
 10
-255.0363524608743
 20
-237.126051440827
 30
0.0
 10
-254.7675488856377
 20
-237.1459683991011
 30
0.0
 10
-254.4306831427205
 20
-237.1940920766607
 30
0.0
 10
-254.4960322977064
 20
-237.0309237417405
 30
0.0
 10
-254.5865521815813
 20
-236.8988043298812
 30
0.0
 10
-254.6917137212686
 20
-236.7847501374726
 30
0.0
 10
-250.6232282079628
 20
-234.8607935000413
 30
0.0
 10
-246.7909470538644
 20
-233.1158311049155
 30
0.0
 10
-243.8012931917646
 20
-231.8767594499518
 30
0.0
 10
-244.2850707252808
 20
-232.3459383913493
 30
0.0
 10
-244.8740528621779
 20
-233.155535830383
 30
0.0
 10
-245.6045207642847
 20
-234.3369667315091
 30
0.0
 10
-244.5356583581392
 20
-232.6081962851639
 30
0.0
 10
-243.5824004373706
 20
-231.7281466434569
 30
0.0
 10
-242.5788441225173
 20
-231.6399091353409
 30
0.0
 10
-243.166771198922
 20
-232.5101187230682
 30
0.0
 10
-243.5458393615333
 20
-234.0290182588213
 30
0.0
 10
-243.8001735357319
 20
-236.3655250806113
 30
0.0
 10
-243.6023389274914
 20
-234.5480003618274
 30
0.0
 10
-243.1441842916468
 20
-233.1791562663037
 30
0.0
 10
-242.3411540658818
 20
-232.169097333722
 30
0.0
 10
-242.5191793750821
 20
-232.7019028823627
 30
0.0
 10
-242.4544761754998
 20
-233.7400178113024
 30
0.0
 10
-242.1695667788696
 20
-235.3186036263374
 30
0.0
 10
-242.4745007930078
 20
-233.6290426729838
 30
0.0
 10
-242.3126674325882
 20
-232.4754309179011
 30
0.0
 10
-241.6023964027635
 20
-231.7937326487573
 30
0.0
 10
-241.2064472722744
 20
-231.9477714806415
 30
0.0
 10
-240.7959856770537
 20
-232.2108906483275
 30
0.0
 10
-240.3619897732994
 20
-232.5814106677661
 30
0.0
 10
-240.8675144720662
 20
-232.1498047990047
 30
0.0
 10
-241.2761243284636
 20
-231.8820778161072
 30
0.0
 10
-241.5931161768002
 20
-231.7845600820279
 30
0.0
 10
-240.7737217474803
 20
-231.0082508781203
 30
0.0
 10
-239.2335702789526
 20
-230.8513698424608
 30
0.0
 10
-236.848444547127
 20
-231.2187677441159
 30
0.0
 10
-238.1996755919823
 20
-231.0106193812664
 30
0.0
 10
-239.1832503530211
 20
-230.7597518343999
 30
0.0
 10
-239.8072002090934
 20
-230.4489826897836
 30
0.0
 10
-239.6785689564129
 20
-230.3947009040441
 30
0.0
 10
-239.5481074967559
 20
-230.3426584303701
 30
0.0
 10
-239.4160742122837
 20
-230.2927045458339
 30
0.0
 10
-239.0479657596847
 20
-230.1786503534254
 30
0.0
 10
-238.6515429285664
 20
-230.0834580587986
 30
0.0
 10
-238.2293249450022
 20
-230.0034241843069
 30
0.0
 10
-238.0875377339374
 20
-229.994682254513
 30
0.0
 10
-237.9730098408996
 20
-230.0016585728707
 30
0.0
 10
-237.8921792880769
 20
-230.0279704896393
 30
0.0
 10
-237.8921792880769
 20
-230.0279704896393
 30
0.0
 10
-237.9281159403574
 20
-229.9502620546001
 30
0.0
 10
-237.9281159403574
 20
-229.9502620546001
 30
0.0
 10
-237.8315456075366
 20
-229.9341992969001
 30
0.0
 10
-237.7362456536758
 20
-229.9174044564095
 30
0.0
 10
-237.6368761807732
 20
-229.9028919916779
 30
0.0
 10
-237.7390878574511
 20
-229.9178135614984
 30
0.0
 10
-237.834473938699
 20
-229.9293330995272
 30
0.0
 10
-237.9319701409316
 20
-229.9419076980484
 30
0.0
 10
-237.9319701409316
 20
-229.9419076980484
 30
0.0
 10
-237.9654306308321
 20
-229.8695176291646
 30
0.0
 10
-237.9654306308321
 20
-229.8695176291646
 30
0.0
 10
-237.0326710282007
 20
-229.6774104921683
 30
0.0
 10
-236.0483211206777
 20
-229.6349927540062
 30
0.0
 10
-235.0446356147437
 20
-229.8442392410415
 30
0.0
 10
-234.7849184788494
 20
-229.8983918357003
 30
0.0
 10
-234.5322853205467
 20
-229.9678535734217
 30
0.0
 10
-234.286585416908
 20
-230.0495454001157
 30
0.0
 10
-234.1966038292027
 20
-229.8628858203555
 30
0.0
 10
-234.087911066643
 20
-229.6987700841769
 30
0.0
 10
-233.9591721547286
 20
-229.5576288285156
 30
0.0
 10
-233.2542194910594
 20
-229.7358909880304
 30
0.0
 10
-232.5534224738192
 20
-229.9971799487399
 30
0.0
 10
-231.8517641827077
 20
-230.3366725769644
 30
0.0
 10
-231.6567071827023
 20
-230.7568235032375
 30
0.0
 10
-231.2215270273748
 20
-231.4455196225857
 30
0.0
 10
-230.5549656465193
 20
-232.3992297121368
 30
0.0
 10
-231.13040425179
 20
-231.5758949548556
 30
0.0
 10
-231.4940771439516
 20
-230.9243412712077
 30
0.0
 10
-231.636897883662
 20
-230.4429753045312
 30
0.0
 10
-230.072092450568
 20
-231.2353687979854
 30
0.0
 10
-228.5002676354228
 20
-232.4132900080859
 30
0.0
 10
-226.8647946811875
 20
-233.924459610844
 30
0.0
 10
-229.5074197686888
 20
-231.4826835901328
 30
0.0
 10
-231.0935417300978
 20
-230.1484196405423
 30
0.0
 10
-231.6937204273219
 20
-229.8918246224316
 30
0.0
 10
-231.6480729121423
 20
-229.6464261646478
 30
0.0
 10
-231.4739018035162
 20
-229.4978348899997
 30
0.0
 10
-231.168171111047
 20
-229.4447373558333
 30
0.0
 10
-230.9323973887752
 20
-229.7282902461161
 30
0.0
 10
-230.4710560396067
 20
-230.1446085036618
 30
0.0
 10
-229.7908865315845
 20
-230.6930031093732
 30
0.0
 10
-230.3894718721466
 20
-230.2104098274301
 30
0.0
 10
-230.8155655881317
 20
-229.7906464743991
 30
0.0
 10
-231.0636555267632
 20
-229.4308062509648
 30
0.0
 10
-230.0179398559092
 20
-229.3301448672552
 30
0.0
 10
-227.6767606233673
 20
-230.1664202644527
 30
0.0
 10
-223.9052208090433
 20
-231.9315795318609
 30
0.0
  0
HATCH
  5
A2
330
7B
100
AcDbEntity
  8
Layer 1
 62
   251
420
  6316128
440
 33554687
100
AcDbHatch
 10
0.0
 20
0.0
 30
0.0
210
0.0
220
0.0
230
1.0
  2
SOLID
 70
     1
 71
     1
 91
        7
 92
        1
 93
        1
 72
     4
 94
        3
 73
     0
 74
     0
 95
       14
 96
       10
 40
0.0
 40
0.0
 40
0.0
 40
0.0
 40
1.0
 40
1.0
 40
1.0
 40
2.0
 40
2.0
 40
2.0
 40
3.0
 40
3.0
 40
3.0
 40
3.0
 10
-231.2797276092287
 20
-229.0137128469349
 10
-231.2858211218683
 20
-228.9946356306854
 10
-231.2907734466283
 20
-228.9759459876779
 10
-231.2954889210738
 20
-228.957299408364
 10
-231.1801212860115
 20
-228.973555952685
 10
-231.0617176605528
 20
-228.9926547007814
 10
-230.9396751529878
 20
-229.0151339488226
 10
-231.1000874115198
 20
-228.9877023760213
 10
-231.2131296071295
 20
-228.9873148027792
 10
-231.2797276092287
 20
-229.0137128469349
 97
        0
 97
        1
330
9B
 92
        1
 93
        1
 72
     4
 94
        3
 73
     0
 74
     0
 95
       17
 96
       13
 40
0.0
 40
0.0
 40
0.0
 40
0.0
 40
1.0
 40
1.0
 40
1.0
 40
2.0
 40
2.0
 40
2.0
 40
3.0
 40
3.0
 40
3.0
 40
4.0
 40
4.0
 40
4.0
 40
4.0
 10
-233.577649361584
 20
-226.9646346478487
 10
-233.6105069597746
 20
-226.9589287084512
 10
-233.6415989465289
 20
-226.9531366416667
 10
-233.6714420861699
 20
-226.9472799793418
 10
-233.6408668637383
 20
-226.8854405153815
 10
-233.5939920332921
 20
-226.8102943701095
 10
-233.5301716394279
 20
-226.7211955881222
 10
-233.3645056102809
 20
-226.6854096587692
 10
-233.1638718619587
 20
-226.6362309207173
 10
-232.9260956779361
 20
-226.5730134185629
 10
-233.236606440391
 20
-226.740251272525
 10
-233.4513866120496
 20
-226.8695500124558
 10
-233.577649361584
 20
-226.9646346478487
 97
        0
 97
        1
330
9C
 92
        1
 93
        1
 72
     4
 94
        3
 73
     0
 74
     0
 95
       14
 96
       10
 40
0.0
 40
0.0
 40
0.0
 40
0.0
 40
1.0
 40
1.0
 40
1.0
 40
2.0
 40
2.0
 40
2.0
 40
3.0
 40
3.0
 40
3.0
 40
3.0
 10
-235.0356998983288
 20
-223.4058510115856
 10
-235.014469497401
 20
-223.2570228866228
 10
-234.9968133830391
 20
-223.0964814370102
 10
-234.9830330010981
 20
-222.9230424111746
 10
-234.9608121352182
 20
-223.0092343938462
 10
-234.9386989285723
 20
-223.0865337237965
 10
-234.9166718493135
 20
-223.1546820188641
 10
-234.9551707913611
 20
-223.23857009393
 10
-234.9948324531351
 20
-223.3223074460683
 10
-235.0356998983288
 20
-223.4058510115856
 97
        0
 97
        1
330
9D
 92
        1
 93
        1
 72
     4
 94
        3
 73
     0
 74
     0
 95
       20
 96
       16
 40
0.0
 40
0.0
 40
0.0
 40
0.0
 40
1.0
 40
1.0
 40
1.0
 40
2.0
 40
2.0
 40
2.0
 40
3.0
 40
3.0
 40
3.0
 40
4.0
 40
4.0
 40
4.0
 40
5.0
 40
5.0
 40
5.0
 40
5.0
 10
-260.0367363029401
 20
-237.560973213993
 10
-259.8682926655582
 20
-237.2923849572242
 10
-259.6077573194861
 20
-237.0779277632674
 10
-259.2547857551755
 20
-236.9174078455016
 10
-258.8938904712488
 20
-236.7730583446696
 10
-258.4627798349634
 20
-236.7110035622415
 10
-257.9614969100127
 20
-236.7309205205156
 10
-257.6794943126983
 20
-236.7422462719234
 10
-257.3967165688996
 20
-236.7930614303308
 10
-257.113335933391
 20
-236.8754638079686
 10
-258.1876674286194
 20
-237.3629663509783
 10
-259.2593505066935
 20
-237.8565193429339
 10
-260.3330360465184
 20
-238.3455506470651
 10
-260.2808213180701
 20
-238.0585095976034
 10
-260.1839280075474
 20
-237.7960148534742
 10
-260.0367363029401
 20
-237.560973213993
 97
        0
 97
        1
330
9E
 92
        1
 93
        1
 72
     4
 94
        3
 73
     0
 74
     0
 95
       14
 96
       10
 40
0.0
 40
0.0
 40
0.0
 40
0.0
 40
1.0
 40
1.0
 40
1.0
 40
2.0
 40
2.0
 40
2.0
 40
3.0
 40
3.0
 40
3.0
 40
3.0
 10
-243.6778511141588
 20
-229.0367949866861
 10
-243.6097028190912
 20
-229.0622671614302
 10
-243.5430402214516
 20
-229.0846602820843
 10
-243.4771958339897
 20
-229.105309323149
 10
-243.5309393235596
 20
-229.1651463253585
 10
-243.5879987175341
 20
-229.2206338945177
 10
-243.6477065286628
 20
-229.2727409637322
 10
-243.6502472865832
 20
-229.1995972802109
 10
-243.6602165316436
 20
-229.1210275713005
 10
-243.6778511141588
 20
-229.0367949866861
 97
        0
 97
        1
330
9F
 92
        1
 93
        1
 72
     4
 94
        3
 73
     0
 74
     0
 95
       14
 96
       10
 40
0.0
 40
0.0
 40
0.0
 40
0.0
 40
1.0
 40
1.0
 40
1.0
 40
2.0
 40
2.0
 40
2.0
 40
3.0
 40
3.0
 40
3.0
 40
3.0
 10
-241.9782132565107
 20
-231.7605090091714
 10
-241.9562292409455
 20
-231.7383312069851
 10
-241.9339437795253
 20
-231.7164117869602
 10
-241.9115291270244
 20
-231.6946430898628
 10
-241.843660745965
 20
-231.7114379303534
 10
-241.7752971324295
 20
-231.732689863128
 10
-241.7066536048859
 20
-231.7562026398149
 10
-241.8078963484587
 20
-231.7372330827992
 10
-241.8983731686401
 20
-231.738546525453
 10
-241.9782132565107
 20
-231.7605090091714
 97
        0
 97
        1
330
A0
 92
        1
 93
        1
 72
     4
 94
        3
 73
     0
 74
     0
 95
      650
 96
      646
 40
0.0
 40
0.0
 40
0.0
 40
0.0
 40
1.0
 40
1.0
 40
1.0
 40
2.0
 40
2.0
 40
2.0
 40
3.0
 40
3.0
 40
3.0
 40
4.0
 40
4.0
 40
4.0
 40
5.0
 40
5.0
 40
5.0
 40
6.0
 40
6.0
 40
6.0
 40
7.0
 40
7.0
 40
7.0
 40
8.0
 40
8.0
 40
8.0
 40
9.0
 40
9.0
 40
9.0
 40
10.0
 40
10.0
 40
10.0
 40
11.0
 40
11.0
 40
11.0
 40
12.0
 40
12.0
 40
12.0
 40
13.0
 40
13.0
 40
13.0
 40
14.0
 40
14.0
 40
14.0
 40
15.0
 40
15.0
 40
15.0
 40
16.0
 40
16.0
 40
16.0
 40
17.0
 40
17.0
 40
17.0
 40
18.0
 40
18.0
 40
18.0
 40
19.0
 40
19.0
 40
19.0
 40
20.0
 40
20.0
 40
20.0
 40
21.0
 40
21.0
 40
21.0
 40
22.0
 40
22.0
 40
22.0
 40
23.0
 40
23.0
 40
23.0
 40
24.0
 40
24.0
 40
24.0
 40
25.0
 40
25.0
 40
25.0
 40
26.0
 40
26.0
 40
26.0
 40
27.0
 40
27.0
 40
27.0
 40
28.0
 40
28.0
 40
28.0
 40
29.0
 40
29.0
 40
29.0
 40
30.0
 40
30.0
 40
30.0
 40
31.0
 40
31.0
 40
31.0
 40
32.0
 40
32.0
 40
32.0
 40
33.0
 40
33.0
 40
33.0
 40
34.0
 40
34.0
 40
34.0
 40
35.0
 40
35.0
 40
35.0
 40
36.0
 40
36.0
 40
36.0
 40
37.0
 40
37.0
 40
37.0
 40
38.0
 40
38.0
 40
38.0
 40
39.0
 40
39.0
 40
39.0
 40
40.0
 40
40.0
 40
40.0
 40
41.0
 40
41.0
 40
41.0
 40
42.0
 40
42.0
 40
42.0
 40
43.0
 40
43.0
 40
43.0
 40
44.0
 40
44.0
 40
44.0
 40
45.0
 40
45.0
 40
45.0
 40
46.0
 40
46.0
 40
46.0
 40
47.0
 40
47.0
 40
47.0
 40
48.0
 40
48.0
 40
48.0
 40
49.0
 40
49.0
 40
49.0
 40
50.0
 40
50.0
 40
50.0
 40
51.0
 40
51.0
 40
51.0
 40
52.0
 40
52.0
 40
52.0
 40
53.0
 40
53.0
 40
53.0
 40
54.0
 40
54.0
 40
54.0
 40
55.0
 40
55.0
 40
55.0
 40
56.0
 40
56.0
 40
56.0
 40
57.0
 40
57.0
 40
57.0
 40
58.0
 40
58.0
 40
58.0
 40
59.0
 40
59.0
 40
59.0
 40
60.0
 40
60.0
 40
60.0
 40
61.0
 40
61.0
 40
61.0
 40
62.0
 40
62.0
 40
62.0
 40
63.0
 40
63.0
 40
63.0
 40
64.0
 40
64.0
 40
64.0
 40
65.0
 40
65.0
 40
65.0
 40
66.0
 40
66.0
 40
66.0
 40
67.0
 40
67.0
 40
67.0
 40
68.0
 40
68.0
 40
68.0
 40
69.0
 40
69.0
 40
69.0
 40
70.0
 40
70.0
 40
70.0
 40
71.0
 40
71.0
 40
71.0
 40
72.0
 40
72.0
 40
72.0
 40
73.0
 40
73.0
 40
73.0
 40
74.0
 40
74.0
 40
74.0
 40
75.0
 40
75.0
 40
75.0
 40
76.0
 40
76.0
 40
76.0
 40
77.0
 40
77.0
 40
77.0
 40
78.0
 40
78.0
 40
78.0
 40
79.0
 40
79.0
 40
79.0
 40
80.0
 40
80.0
 40
80.0
 40
81.0
 40
81.0
 40
81.0
 40
82.0
 40
82.0
 40
82.0
 40
83.0
 40
83.0
 40
83.0
 40
84.0
 40
84.0
 40
84.0
 40
85.0
 40
85.0
 40
85.0
 40
86.0
 40
86.0
 40
86.0
 40
87.0
 40
87.0
 40
87.0
 40
88.0
 40
88.0
 40
88.0
 40
89.0
 40
89.0
 40
89.0
 40
90.0
 40
90.0
 40
90.0
 40
91.0
 40
91.0
 40
91.0
 40
92.0
 40
92.0
 40
92.0
 40
93.0
 40
93.0
 40
93.0
 40
94.0
 40
94.0
 40
94.0
 40
95.0
 40
95.0
 40
95.0
 40
96.0
 40
96.0
 40
96.0
 40
97.0
 40
97.0
 40
97.0
 40
98.0
 40
98.0
 40
98.0
 40
99.0
 40
99.0
 40
99.0
 40
100.0
 40
100.0
 40
100.0
 40
101.0
 40
101.0
 40
101.0
 40
102.0
 40
102.0
 40
102.0
 40
103.0
 40
103.0
 40
103.0
 40
104.0
 40
104.0
 40
104.0
 40
105.0
 40
105.0
 40
105.0
 40
106.0
 40
106.0
 40
106.0
 40
107.0
 40
107.0
 40
107.0
 40
108.0
 40
108.0
 40
108.0
 40
109.0
 40
109.0
 40
109.0
 40
110.0
 40
110.0
 40
110.0
 40
111.0
 40
111.0
 40
111.0
 40
112.0
 40
112.0
 40
112.0
 40
113.0
 40
113.0
 40
113.0
 40
114.0
 40
114.0
 40
114.0
 40
115.0
 40
115.0
 40
115.0
 40
116.0
 40
116.0
 40
116.0
 40
117.0
 40
117.0
 40
117.0
 40
118.0
 40
118.0
 40
118.0
 40
119.0
 40
119.0
 40
119.0
 40
120.0
 40
120.0
 40
120.0
 40
121.0
 40
121.0
 40
121.0
 40
122.0
 40
122.0
 40
122.0
 40
123.0
 40
123.0
 40
123.0
 40
124.0
 40
124.0
 40
124.0
 40
125.0
 40
125.0
 40
125.0
 40
126.0
 40
126.0
 40
126.0
 40
127.0
 40
127.0
 40
127.0
 40
128.0
 40
128.0
 40
128.0
 40
129.0
 40
129.0
 40
129.0
 40
130.0
 40
130.0
 40
130.0
 40
131.0
 40
131.0
 40
131.0
 40
132.0
 40
132.0
 40
132.0
 40
133.0
 40
133.0
 40
133.0
 40
134.0
 40
134.0
 40
134.0
 40
135.0
 40
135.0
 40
135.0
 40
136.0
 40
136.0
 40
136.0
 40
137.0
 40
137.0
 40
137.0
 40
138.0
 40
138.0
 40
138.0
 40
139.0
 40
139.0
 40
139.0
 40
140.0
 40
140.0
 40
140.0
 40
141.0
 40
141.0
 40
141.0
 40
142.0
 40
142.0
 40
142.0
 40
143.0
 40
143.0
 40
143.0
 40
144.0
 40
144.0
 40
144.0
 40
145.0
 40
145.0
 40
145.0
 40
146.0
 40
146.0
 40
146.0
 40
147.0
 40
147.0
 40
147.0
 40
148.0
 40
148.0
 40
148.0
 40
149.0
 40
149.0
 40
149.0
 40
150.0
 40
150.0
 40
150.0
 40
151.0
 40
151.0
 40
151.0
 40
152.0
 40
152.0
 40
152.0
 40
153.0
 40
153.0
 40
153.0
 40
154.0
 40
154.0
 40
154.0
 40
155.0
 40
155.0
 40
155.0
 40
156.0
 40
156.0
 40
156.0
 40
157.0
 40
157.0
 40
157.0
 40
158.0
 40
158.0
 40
158.0
 40
159.0
 40
159.0
 40
159.0
 40
160.0
 40
160.0
 40
160.0
 40
161.0
 40
161.0
 40
161.0
 40
162.0
 40
162.0
 40
162.0
 40
163.0
 40
163.0
 40
163.0
 40
164.0
 40
164.0
 40
164.0
 40
165.0
 40
165.0
 40
165.0
 40
166.0
 40
166.0
 40
166.0
 40
167.0
 40
167.0
 40
167.0
 40
168.0
 40
168.0
 40
168.0
 40
169.0
 40
169.0
 40
169.0
 40
170.0
 40
170.0
 40
170.0
 40
171.0
 40
171.0
 40
171.0
 40
172.0
 40
172.0
 40
172.0
 40
173.0
 40
173.0
 40
173.0
 40
174.0
 40
174.0
 40
174.0
 40
175.0
 40
175.0
 40
175.0
 40
176.0
 40
176.0
 40
176.0
 40
177.0
 40
177.0
 40
177.0
 40
178.0
 40
178.0
 40
178.0
 40
179.0
 40
179.0
 40
179.0
 40
180.0
 40
180.0
 40
180.0
 40
181.0
 40
181.0
 40
181.0
 40
182.0
 40
182.0
 40
182.0
 40
183.0
 40
183.0
 40
183.0
 40
184.0
 40
184.0
 40
184.0
 40
185.0
 40
185.0
 40
185.0
 40
186.0
 40
186.0
 40
186.0
 40
187.0
 40
187.0
 40
187.0
 40
188.0
 40
188.0
 40
188.0
 40
189.0
 40
189.0
 40
189.0
 40
190.0
 40
190.0
 40
190.0
 40
191.0
 40
191.0
 40
191.0
 40
192.0
 40
192.0
 40
192.0
 40
193.0
 40
193.0
 40
193.0
 40
194.0
 40
194.0
 40
194.0
 40
195.0
 40
195.0
 40
195.0
 40
196.0
 40
196.0
 40
196.0
 40
197.0
 40
197.0
 40
197.0
 40
198.0
 40
198.0
 40
198.0
 40
199.0
 40
199.0
 40
199.0
 40
200.0
 40
200.0
 40
200.0
 40
201.0
 40
201.0
 40
201.0
 40
202.0
 40
202.0
 40
202.0
 40
203.0
 40
203.0
 40
203.0
 40
204.0
 40
204.0
 40
204.0
 40
205.0
 40
205.0
 40
205.0
 40
206.0
 40
206.0
 40
206.0
 40
207.0
 40
207.0
 40
207.0
 40
208.0
 40
208.0
 40
208.0
 40
209.0
 40
209.0
 40
209.0
 40
210.0
 40
210.0
 40
210.0
 40
211.0
 40
211.0
 40
211.0
 40
212.0
 40
212.0
 40
212.0
 40
213.0
 40
213.0
 40
213.0
 40
214.0
 40
214.0
 40
214.0
 40
215.0
 40
215.0
 40
215.0
 40
215.0
 10
-223.9052208090433
 20
-231.9315795318609
 10
-227.6150718823346
 20
-230.1952944709885
 10
-229.8879520968814
 20
-229.2377947764037
 10
-230.8366883298257
 20
-229.0350509070967
 10
-229.7837379584526
 20
-229.2407661712597
 10
-228.4883605241518
 20
-229.6703265145768
 10
-226.9214665019199
 20
-230.3196193543125
 10
-228.9116335682084
 20
-229.4949496225308
 10
-230.3556022771573
 20
-228.9213627560835
 10
-231.290708851088
 20
-228.5882435545066
 10
-230.9966484195751
 20
-227.7177109890775
 10
-228.5044232818518
 20
-227.5338290175523
 10
-223.5581489707512
 20
-227.9236631035551
 10
-228.7352877430572
 20
-227.5156346070208
 10
-231.5286357580381
 20
-227.4672094836063
 10
-232.3426687575091
 20
-227.8095012519127
 10
-231.7261043248832
 20
-227.3990181248451
 10
-229.6687148329388
 20
-227.2517402928507
 10
-225.975271026896
 20
-227.3117495498344
 10
-229.1619628189053
 20
-227.2599869901685
 10
-231.3115516787738
 20
-227.1869509658813
 10
-232.6006418138139
 20
-227.0790333498058
 10
-232.4239084154206
 20
-226.8131365738848
 10
-232.1281039043183
 20
-226.5302511708523
 10
-231.7078237869647
 20
-226.2249726471655
 10
-230.7815237383681
 20
-225.9477070561433
 10
-229.5709387166981
 20
-225.5650000114256
 10
-228.0426943594413
 20
-225.0679588602912
 10
-229.373857723095
 20
-225.5008997035532
 10
-230.460720753151
 20
-225.7996971413582
 10
-231.3256765702633
 20
-225.9633607087544
 10
-230.5572695541251
 20
-225.4645754780305
 10
-229.4802465780489
 20
-224.9070513692832
 10
-228.0739155372763
 20
-224.2697302363588
 10
-229.7454543348727
 20
-225.0272421380249
 10
-231.0105795244436
 20
-225.6155783195184
 10
-231.9148094300878
 20
-226.058380748607
 10
-232.3502264357298
 20
-226.1146649960972
 10
-232.7140715826657
 20
-226.1261630022792
 10
-233.0104574536311
 20
-226.0927025123788
 10
-232.1783592347094
 20
-225.165132084822
 10
-230.5799425887874
 20
-223.5956111772825
 10
-228.0599629005611
 20
-221.218710610928
 10
-230.9160977807607
 20
-223.9126676211594
 10
-232.565631030945
 20
-225.188128097186
 10
-233.2259697080803
 20
-225.1522345085991
 10
-232.2354616923774
 20
-224.5431200949602
 10
-230.2896932941551
 20
-222.6572748263344
 10
-227.171386647528
 20
-219.3247908997586
 10
-230.1518464110515
 20
-222.5099539306464
 10
-232.0303277880776
 20
-224.0884966819879
 10
-232.9872676546461
 20
-224.121397343872
 10
-232.5217921908953
 20
-223.2738392589602
 10
-231.7973532058875
 20
-221.7930510920127
 10
-230.7867559771363
 20
-219.6353447259071
 10
-231.7438465666323
 20
-221.6788031129831
 10
-232.6082425557282
 20
-223.1115321979114
 10
-233.437067933939
 20
-223.9707174800859
 10
-233.4450777809422
 20
-223.9633966521797
 10
-233.4526569910098
 20
-223.9553006777894
 10
-233.460365392158
 20
-223.9474415537137
 10
-233.4539919655103
 20
-223.9215387420339
 10
-233.4476616025561
 20
-223.8956359303542
 10
-233.4407283478921
 20
-223.8689149084967
 10
-233.4476400707094
 20
-223.8955928666606
 10
-233.4541857521313
 20
-223.9213234235661
 10
-233.4607529654001
 20
-223.9470539804716
 10
-233.5185659740119
 20
-223.888121315827
 10
-233.5680246260721
 20
-223.8146546546041
 10
-233.6088059438787
 20
-223.7259649777057
 10
-233.1743148076483
 20
-223.5612248179704
 10
-232.056058344983
 20
-221.2432353844136
 10
-230.1300131184138
 20
-216.5989021607483
 10
-231.7251784554716
 20
-220.4454158655701
 10
-232.8903097485831
 20
-222.6415350463362
 10
-233.7304393463548
 20
-223.272267434145
 10
-233.7898672434754
 20
-222.8392404634959
 10
-233.7581938968579
 20
-222.2419470337407
 10
-233.6415343509886
 20
-221.4819589696946
 10
-233.7741059316304
 20
-222.3455582804596
 10
-233.8340936567673
 20
-222.9640605792959
 10
-233.8170404341153
 20
-223.332448945903
 10
-234.0786093088329
 20
-223.4993638221633
 10
-234.3074497764406
 20
-223.5070722233116
 10
-234.5066193591816
 20
-223.3566076779933
 10
-234.3200243749617
 20
-222.9463398693936
 10
-234.1326973079513
 20
-221.8393876262893
 10
-233.9341090850734
 20
-220.0131209777115
 10
-234.1061270090213
 20
-220.910977456708
 10
-234.3819284344623
 20
-221.9309410388098
 10
-234.8215226183802
 20
-222.9414952038675
 10
-234.8709597385935
 20
-222.8432884506911
 10
-234.9180283556608
 20
-222.7316458251222
 10
-234.9627069377351
 20
-222.6059859672977
 10
-234.9046570788086
 20
-221.4535154000945
 10
-234.9847986125343
 20
-219.8339760124786
 10
-235.1926885932223
 20
-217.7172662826475
 10
-235.0455399523086
 20
-219.2155813728763
 10
-235.0336543728845
 20
-220.5760711118482
 10
-235.1798771443866
 20
-221.8020083402743
 10
-235.2454200859934
 20
-221.4900118803914
 10
-235.3041374321701
 20
-221.1355976823463
 10
-235.3562229695378
 20
-220.73708626209
 10
-235.2998095309668
 20
-221.1687997900854
 10
-235.2444942165818
 20
-221.5512053889482
 10
-235.190040176068
 20
-221.8840016128233
 10
-235.3247649413881
 20
-222.9557923501313
 10
-235.5819843830555
 20
-223.9237349904058
 10
-235.9784072141739
 20
-224.788992253373
 10
-235.9350420747533
 20
-224.7943321513752
 10
-235.8931195690672
 20
-224.795645594029
 10
-235.8525966334219
 20
-224.7930187087215
 10
-235.86706603446
 20
-224.8135385587055
 10
-235.8819876042804
 20
-224.8338430902217
 10
-235.8966723237863
 20
-224.8542768128185
 10
-235.9288409028799
 20
-224.8438769308225
 10
-235.961052545667
 20
-224.8326803704954
 10
-235.9932857203008
 20
-224.8206010044503
 10
-236.0678074420161
 20
-224.9813577725307
 10
-236.1472384247979
 20
-225.1384971903517
 10
-236.2315140731058
 20
-225.2921484489938
 10
-236.3714495453473
 20
-225.4636280767721
 10
-236.5187273773417
 20
-225.6311243128956
 10
-236.6741873111136
 20
-225.7934959694848
 10
-237.3783002327584
 20
-226.5289592600453
 10
-238.1731698885926
 20
-227.0839210790255
 10
-238.9908848338635
 20
-227.5044595785406
 10
-238.8202664799565
 20
-227.3785844022482
 10
-238.6368366772137
 20
-227.24913493939
 10
-238.439712619917
 20
-227.1157020848769
 10
-238.7420843442881
 20
-227.3203838203943
 10
-239.0376520050757
 20
-227.5047825562423
 10
-239.3275352583128
 20
-227.6693719930501
 10
-239.8337274443298
 20
-227.9059208618061
 10
-240.3450226780345
 20
-228.0943675848492
 10
-240.8457673068156
 20
-228.2439277926027
 10
-240.5750043335217
 20
-227.6103316691716
 10
-240.0341458741842
 20
-226.8005835072105
 10
-239.2281657854101
 20
-225.7998478642857
 10
-240.7418976779353
 20
-227.6793197062638
 10
-241.9850819156344
 20
-228.6018947453669
 10
-243.113630601062
 20
-228.5810519176811
 10
-242.9452730910671
 20
-228.2953243108732
 10
-242.82404879368
 20
-227.8220973822806
 10
-242.7417110115825
 20
-227.162490787936
 10
-242.8124000645704
 20
-227.7287352946303
 10
-242.9381245179353
 20
-228.1998090385447
 10
-243.1266789002124
 20
-228.5805566852051
 10
-244.1108565529611
 20
-228.5560103798727
 10
-245.008174735788
 20
-227.8131616658657
 10
-245.9221585680248
 20
-226.3598050717195
 10
-245.3585840103314
 20
-227.2559820666669
 10
-244.8830101104395
 20
-227.9132847534058
 10
-244.4835728207715
 20
-228.3356103962038
 10
-245.4118753311189
 20
-227.9889261311538
 10
-246.3511160196319
 20
-227.3778307876109
 10
-247.3487295447732
 20
-226.4985562923879
 10
-245.8185688531526
 20
-227.8472250474762
 10
-244.6337574520816
 20
-228.6787419065348
 10
-243.680004298837
 20
-229.0359337128148
 10
-243.6643075825323
 20
-229.1195849375661
 10
-243.6566422450777
 20
-229.2010183820986
 10
-243.6567714361584
 20
-229.2804278330336
 10
-244.4489926748384
 20
-229.9630304397423
 10
-245.7688302870844
 20
-229.9776075000143
 10
-247.7970441266381
 20
-229.400747792856
 10
-245.2557909737903
 20
-230.1235288256614
 10
-243.9880604307587
 20
-230.2046608243391
 10
-243.7076296582594
 20
-229.6097574295767
 10
-243.9952090038906
 20
-230.5077215678071
 10
-245.5183072497663
 20
-231.1253841246188
 10
-248.6703973639957
 20
-231.6830589562937
 10
-246.9203965167227
 20
-231.3734525314036
 10
-245.5161110013945
 20
-231.1472389491034
 10
-244.3514964726058
 20
-230.9909177414602
 10
-244.5422471032547
 20
-231.1219605609803
 10
-244.7436559980611
 20
-231.2583217466559
 10
-244.9518258927574
 20
-231.3981280278167
 10
-248.2096158428435
 20
-232.8554680136178
 10
-251.4647573757754
 20
-234.3188584483648
 10
-254.716453813222
 20
-235.7901941345746
 10
-254.6572627664161
 20
-235.6600987163129
 10
-254.6367644482788
 20
-235.5460229920575
 10
-254.6592436963201
 20
-235.4497541050915
 10
-255.0844976702806
 20
-235.6503017260267
 10
-255.4854421892233
 20
-235.784703513645
 10
-255.8623356353097
 20
-235.8527441494786
 10
-256.2393367406299
 20
-235.9209570400866
 10
-256.6763686347806
 20
-235.9110093268729
 10
-257.173517445149
 20
-235.8226641595231
 10
-257.5344342609225
 20
-235.766659826041
 10
-257.8994636594315
 20
-235.7384531067555
 10
-258.268304194821
 20
-235.7384531067555
 10
-258.6532505516041
 20
-235.7384531067555
 10
-259.1344227316596
 20
-235.8007016758046
 10
-259.7118422668343
 20
-235.9249404317414
 10
-260.289347929396
 20
-236.0493729742993
 10
-260.8747988434207
 20
-236.2879027729593
 10
-261.4682811362953
 20
-236.6407236143424
 10
-261.9656452651315
 20
-236.0873336201774
 10
-262.7995952228766
 20
-235.878883811473
 10
-263.9704970509259
 20
-236.0151373379146
 10
-263.2246554102161
 20
-236.8493672096679
 10
-262.769515232921
 20
-237.5109977976101
 10
-262.6051195827342
 20
-238.0000721654349
 10
-262.4829478840886
 20
-238.3638527168305
 10
-262.4064882961627
 20
-238.7901402194366
 10
-262.3750948635534
 20
-239.2779442083012
 10
-263.7249909339082
 20
-239.8942287269188
 10
-265.0758774692151
 20
-240.508273933471
 10
-266.4247400109243
 20
-241.1269915507751
 10
-266.424675415384
 20
-241.0152627978191
 10
-266.4246323516904
 20
-240.9141061816335
 10
-266.4246323516904
 20
-240.8271390524777
 10
-266.4246323516904
 20
-240.169621047271
 10
-266.4246323516904
 20
-239.7846746904879
 10
-266.4246323516904
 20
-239.6722569184348
 10
-266.4246323516904
 20
-238.9666367675153
 10
-266.3584649865267
 20
-238.3790326688123
 10
-266.2261302561996
 20
-237.9098752592617
 10
-266.0937955258725
 20
-237.440717849711
 10
-265.9433740442478
 20
-237.0698533207239
 10
-265.7750165342529
 20
-236.7970878856792
 10
-265.6065944287178
 20
-236.5245593009491
 10
-265.3942042920522
 20
-236.2677920280642
 10
-265.1373939554736
 20
-236.0271521084194
 10
-266.0276281607089
 20
-235.9630948642406
 10
-266.637216274977
 20
-236.2316831210093
 10
-266.9659429798103
 20
-236.8331752608872
 10
-266.9659429798103
 20
-236.8331752608872
 10
-267.4471151598658
 20
-235.6422057516363
 10
-267.4471151598658
 20
-235.6422057516363
 10
-267.4471151598658
 20
-235.6422057516363
 10
-267.9764540811744
 20
-236.8211604903824
 10
-267.9764540811744
 20
-236.8211604903824
 10
-268.2573154906094
 20
-236.3801667364236
 10
-268.9229079383596
 20
-236.1034825052645
 10
-269.9734682747398
 20
-235.991107796905
 10
-269.2276051021832
 20
-236.8493672096679
 10
-268.7724864567349
 20
-237.5290414852141
 10
-268.6080692747014
 20
-238.0301952190841
 10
-268.4437597519017
 20
-238.5314781440347
 10
-268.3614004379574
 20
-239.1510139715165
 10
-268.3614004379574
 20
-239.8888242333764
 10
-268.3614004379574
 20
-239.8888242333764
 10
-268.3614004379574
 20
-242.0112399026049
 10
-268.3614004379574
 20
-242.0112399026049
 10
-271.0970431035605
 20
-243.2688935413421
 10
-273.8275611896291
 20
-244.538475823197
 10
-276.5588974858756
 20
-245.8061202388415
 10
-276.5617612214977
 20
-245.2765875309118
 10
-276.5640866609502
 20
-244.6881436901843
 10
-276.5658092086928
 20
-244.0331018473576
 10
-276.5739482467767
 20
-241.0297537307039
 10
-276.5257815055236
 20
-239.1068736856118
 10
-276.4215027715545
 20
-238.2647416260892
 10
-276.2611120448692
 20
-237.382624927091
 10
-275.8801921434346
 20
-236.6286442482973
 10
-275.2786354080164
 20
-236.0031225674098
 10
-275.7598291199187
 20
-235.9711477749374
 10
-276.1348062316413
 20
-236.0271521084194
 10
-276.4033944884101
 20
-236.1715662047918
 10
-276.6722841910338
 20
-236.3159157056237
 10
-276.8987561554955
 20
-236.5284780970636
 10
-277.0831764231902
 20
-236.809102656184
 10
-277.0831764231902
 20
-236.809102656184
 10
-277.6726537925632
 20
-235.6422057516363
 10
-277.6726537925632
 20
-235.6422057516363
 10
-277.6726537925632
 20
-235.6422057516363
 10
-278.0936875245544
 20
-236.7970878856792
 10
-278.0936875245544
 20
-236.7970878856792
 10
-278.1899133478268
 20
-236.6608343592376
 10
-278.3101902439555
 20
-236.5305451543548
 10
-278.4546043403278
 20
-236.4061126117969
 10
-278.5988892456195
 20
-236.2818738558601
 10
-278.7874436278965
 20
-236.1736117302361
 10
-279.0199445094573
 20
-236.0813047030782
 10
-279.2526176457924
 20
-235.9891914625413
 10
-279.6015627547546
 20
-235.9591114725858
 10
-280.0665645178763
 20
-235.991107796905
 10
-279.3128637530907
 20
-236.6166294777924
 10
-278.8596399101593
 20
-237.3705670928926
 10
-278.707194434937
 20
-238.2527268555844
 10
-278.5549427463358
 20
-239.1350158093569
 10
-278.4746935533762
 20
-241.1880343364044
 10
-278.4665545152923
 20
-244.4120623507351
 10
-278.4644874580012
 20
-245.259017543937
 10
-278.4678248942525
 20
-246.0181012704182
 10
-278.4762438463446
 20
-246.6940290046242
 10
-279.2388587956982
 20
-247.0487446485243
 10
-280.0034762068026
 20
-247.398830945366
 10
-280.7657681784545
 20
-247.7543217357502
 10
-280.3754603918225
 20
-248.0416642310669
 10
-280.217373572743
 20
-248.7215107613874
 10
-281.0274231805592
 20
-249.9428186427552
 10
-280.7718832229408
 20
-249.7872295179026
 10
-279.8788283457769
 20
-249.3098900065744
 10
-278.5226449761615
 20
-248.6043344511953
 10
-278.5567298896187
 20
-249.4420955458209
 10
-278.6061024142917
 20
-250.0311853419519
 10
-278.671107059729
 20
-250.3669098969894
 10
-278.8315839138013
 20
-251.1529730274896
 10
-279.2004459810377
 20
-251.810512564543
 10
-279.7778439843655
 20
-252.3398514858517
 10
-279.3128637530907
 20
-252.3557635206242
 10
-278.8596399101593
 20
-252.2977351935445
 10
-278.418495433273
 20
-252.1654004632174
 10
-277.9775447430079
 20
-252.0330657328902
 10
-277.6004575103005
 20
-251.8025673130802
 10
-277.2876213083931
 20
-251.473646821626
 10
-276.2770886751821
 20
-252.0751820251974
 10
-275.1884385018432
 20
-252.3918508958322
 10
-274.0215631291423
 20
-252.4240410067725
 10
-272.8545800972075
 20
-252.4560157992449
 10
-271.7298210168137
 20
-252.2356804111165
 10
-270.6471136331868
 20
-251.7623458232899
 10
-270.9920107549539
 20
-251.1289219546331
 10
-271.3468986536282
 20
-250.3469714068685
 10
-271.7117342655162
 20
-249.4165157118429
 10
-272.0767421321784
 20
-248.4862968671319
 10
-272.255133482774
 20
-247.696250344977
 10
-272.247102103924
 20
-247.0466560593863
 10
-272.2391568524611
 20
-246.9665360575075
 10
-272.2211562285507
 20
-246.8863083963948
 10
-272.1929925729587
 20
-246.8060161397417
 10
-272.1649365766008
 20
-246.7259607334032
 10
-272.1147673735968
 20
-246.6697410814532
 10
-272.0425710913341
 20
-246.6376155660533
 10
-271.9625156849956
 20
-246.5975447991905
 10
-271.8801563710513
 20
-246.5954992737461
 10
-271.7959883819773
 20
-246.6315866489541
 10
-271.7117342655162
 20
-246.6676955560089
 10
-271.6296548655801
 20
-246.7139459628984
 10
-271.5493195452334
 20
-246.7699502963804
 10
-271.5333213830738
 20
-246.7860991814676
 10
-271.5132106381787
 20
-246.7981570156659
 10
-271.489181097169
 20
-246.8060161397417
 10
-271.4572063046966
 20
-246.8300887444448
 10
-271.4251238529902
 20
-246.85019948934
 10
-271.3929552738966
 20
-246.8661976514996
 10
-271.1204266891666
 20
-246.9864530157816
 10
-270.8596760246268
 20
-246.9545212870027
 10
-270.6110047261321
 20
-246.7699502963804
 10
-270.3625272142584
 20
-246.5855300286857
 10
-270.2381377353941
 20
-246.3449547045813
 10
-270.2381377353941
 20
-246.0481381966802
 10
-270.2701986552537
 20
-245.751537007247
 10
-270.4064737135421
 20
-245.5169475365483
 10
-270.6471136331868
 20
-245.3443913164308
 10
-270.8877320209847
 20
-245.1720288829344
 10
-271.1565355962214
 20
-245.093846747266
 10
-271.453093721961
 20
-245.1097803138853
 10
-271.9504363189504
 20
-245.1819765961481
 10
-272.2951611859433
 20
-245.4066183536332
 10
-272.4877420235687
 20
-245.7834687360259
 10
-272.6801936701134
 20
-246.1605559687333
 10
-272.760442863073
 20
-246.5774340542953
 10
-272.7282742839795
 20
-247.0345766933412
 10
-272.7122761218199
 20
-247.2832695236827
 10
-272.6461087566562
 20
-247.6141063495006
 10
-272.5297721884887
 20
-248.0270871707949
 10
-272.4136078750955
 20
-248.4402402468635
 10
-272.283189479132
 20
-248.8571613961191
 10
-272.1387969146065
 20
-249.2781951281102
 10
-271.994490477468
 20
-249.6992288601012
 10
-271.8020172990765
 20
-250.2225388643107
 10
-271.5613773794318
 20
-250.8480820770449
 10
-272.1069082495211
 20
-251.1048924136235
 10
-272.7303844049642
 20
-251.2511151851256
 10
-273.4320857597692
 20
-251.2872025603336
 10
-274.1338732419614
 20
-251.3233114673884
 10
-274.7192380285989
 20
-251.2330069019813
 10
-275.1884385018432
 20
-251.0165041825801
 10
-275.6575528477003
 20
-250.8000014631789
 10
-275.9865809983884
 20
-250.5154150442505
 10
-276.1748339348105
 20
-250.1624219480931
 10
-276.3633667852408
 20
-249.8096011067099
 10
-276.4737820955431
 20
-249.4507513482276
 10
-276.5056707606285
 20
-249.0857219497186
 10
-276.5215397317074
 20
-248.9058233698482
 10
-276.5344588397771
 20
-248.4036791710263
 10
-276.5444280848375
 20
-247.5823253436491
 10
-274.3477706079019
 20
-246.4542072951573
 10
-271.5061266605871
 20
-245.0136406180001
 10
-268.3614004379574
 20
-243.4445072837027
 10
-268.3614004379574
 20
-243.4445072837027
 10
-268.3614004379574
 20
-248.6466445301235
 10
-268.3614004379574
 20
-248.6466445301235
 10
-268.3614004379574
 20
-249.3524584676641
 10
-268.4497886690009
 20
-250.0140890556063
 10
-268.6260698986118
 20
-250.6315793576438
 10
-268.8025449148437
 20
-251.2491988507619
 10
-269.1474635684576
 20
-251.8025673130802
 10
-269.6606320728323
 20
-252.2917062764453
 10
-268.8507116560968
 20
-252.3076829067582
 10
-268.2411235418287
 20
-252.0432072327249
 10
-267.8320615166488
 20
-251.4976763626356
 10
-267.8320615166488
 20
-251.4976763626356
 10
-267.2425841472758
 20
-252.6766311013816
 10
-267.2425841472758
 20
-252.6766311013816
 10
-267.2425841472758
 20
-252.6766311013816
 10
-266.8216365426719
 20
-251.4976763626356
 10
-266.8216365426719
 20
-251.4976763626356
 10
-266.3965763553323
 20
-252.1714293803166
 10
-265.7268713248466
 20
-252.4480705477821
 10
-264.8125860467549
 20
-252.3277936516533
 10
-265.3981230881667
 20
-251.9349020434074
 10
-265.8111254413078
 20
-251.3635329571787
 10
-266.0516577017185
 20
-250.6134710744994
 10
-266.2922976213632
 20
-249.8637106376751
 10
-266.4166871002275
 20
-249.1158019396742
 10
-266.4246323516904
 20
-248.369895703424
 10
-266.4326852623872
 20
-248.1454907962536
 10
-266.4347953833718
 20
-246.9966160474631
 10
-266.4306612687895
 20
-244.9233360525929
 10
-266.4287879981194
 20
-243.9520775079139
 10
-266.427345364385
 20
-243.142393941493
 10
-266.426354899433
 20
-242.4818184140432
 10
-265.1018018127416
 20
-241.8248817686996
 10
-263.7382545515265
 20
-241.1527867032209
 10
-262.3584507459904
 20
-240.4776556473459
 10
-262.3584507459904
 20
-240.4776556473459
 10
-262.3584507459904
 20
-248.7909940309555
 10
-262.3584507459904
 20
-248.7909940309555
 10
-262.3584507459904
 20
-249.4727353637928
 10
-262.4246181111539
 20
-250.0421019882707
 10
-262.5569528414811
 20
-250.4992446273166
 10
-262.6892875718082
 20
-250.9563657345157
 10
-262.8397090534329
 20
-251.31928501204
 10
-263.008045031581
 20
-251.5879809280427
 10
-263.1764886689629
 20
-251.8567629714325
 10
-263.3250153480708
 20
-252.0471260288394
 10
-263.4532159638156
 20
-252.1593715461182
 10
-263.5815457706412
 20
-252.2717893181712
 10
-263.6498017249427
 20
-252.3277936516533
 10
-263.6577685082523
 20
-252.3277936516533
 10
-262.9439877874022
 20
-252.3116232347194
 10
-262.3906193250838
 20
-252.1875997972504
 10
-261.9975339302168
 20
-251.9548190016815
 10
-261.6047499812048
 20
-251.7223396519674
 10
-261.3319414824665
 20
-251.501896604605
 10
-261.1794960072443
 20
-251.2932530092796
 10
-260.3374070114153
 20
-251.9108725023977
 10
-259.3870343581155
 20
-252.2435395351922
 10
-258.3284426428854
 20
-252.2917062764453
 10
-257.7991037215768
 20
-252.3157358174549
 10
-257.2779038383521
 20
-252.2796269104002
 10
-256.7645415473563
 20
-252.1834010871278
 10
-256.5882603177454
 20
-252.1515124220425
 10
-256.4116991741264
 20
-252.1112909322521
 10
-256.2352026260476
 20
-252.063124190999
 10
-255.8983368831305
 20
-251.9590392436509
 10
-255.5635812611982
 20
-251.900731002563
 10
-255.2307204417827
 20
-251.8886516365179
 10
-254.8979672816011
 20
-251.8766799297066
 10
-254.6192375249976
 20
-251.9388423713686
 10
-254.3946818948997
 20
-252.0751820251974
 10
-254.1702339240357
 20
-252.2116508701068
 10
-254.0258198276633
 20
-252.4560157992449
 10
-253.9615687968634
 20
-252.8089658317088
 10
-253.8493448114314
 20
-252.6003222363834
 10
-253.7991756084275
 20
-252.3176521518186
 10
-253.8111473152387
 20
-251.9608479187807
 10
-253.8232051494371
 20
-251.6040652175894
 10
-254.0258198276633
 20
-251.3373932951843
 10
-254.4187114359093
 20
-251.1609182789524
 10
-254.0899847310761
 20
-250.9364487762416
 10
-253.8532636075459
 20
-250.5755534923149
 10
-253.7089787022543
 20
-250.0781893634787
 10
-254.0138481208521
 20
-250.2465899371671
 10
-254.3265981953724
 20
-250.3509117348298
 10
-254.6472935213556
 20
-250.3909394379991
 10
-254.5510461662364
 20
-250.1263130410383
 10
-254.519071373764
 20
-249.8958792167687
 10
-254.5510461662364
 20
-249.6992288601012
 10
-254.5831286179429
 20
-249.5027938219017
 10
-254.639326738046
 20
-249.3404006334657
 10
-254.7194898036184
 20
-249.2120277629466
 10
-254.7997174647311
 20
-249.0838056153549
 10
-254.9239346888212
 20
-248.9755650215777
 10
-255.0923567943563
 20
-248.8872198542278
 10
-255.0923567943563
 20
-249.1118185480194
 10
-255.1265493670474
 20
-249.36654029546
 10
-255.1946330665747
 20
-249.6511267143885
 10
-255.262910552723
 20
-249.9359069199379
 10
-255.3891948341042
 20
-250.2105240938059
 10
-255.5735289744118
 20
-250.4751935544602
 10
-255.7581430287277
 20
-250.7398630151145
 10
-256.0267528173432
 20
-250.9624161834617
 10
-256.3796167224199
 20
-251.142809995808
 10
-256.7325667548838
 20
-251.3233114673884
 10
-257.1976546453925
 20
-251.4135083735616
 10
-257.7750741805672
 20
-251.4135083735616
 10
-258.1521614132745
 20
-251.4135083735616
 10
-258.5310573211117
 20
-251.3674517532931
 10
-258.9118910951593
 20
-251.2751447261352
 10
-259.2928971239811
 20
-251.1830314855984
 10
-259.6155949117151
 20
-251.0044463483817
 10
-259.8802643723694
 20
-250.7398630151145
 10
-260.1611257818044
 20
-250.4270268132071
 10
-260.3274592982016
 20
-250.0682416502651
 10
-260.3795448355693
 20
-249.6631414848933
 10
-260.431824159558
 20
-249.258278169836
 10
-260.4457122007328
 20
-247.551900844145
 10
-260.4216826597232
 20
-244.5443970810623
 10
-259.6036232049039
 20
-244.4240771212399
 10
-258.9460621360036
 20
-244.4000475802303
 10
-258.4487195390142
 20
-244.4722438624931
 10
-257.9515491967991
 20
-244.5443970810623
 10
-257.5906323810256
 20
-244.6406229043347
 10
-257.3659906235405
 20
-244.760942864157
 10
-257.3659906235405
 20
-244.760942864157
 10
-257.0411827148218
 20
-244.9414012720438
 10
-257.0411827148218
 20
-244.9414012720438
 10
-256.8487310682771
 20
-244.7810536090521
 10
-256.6201489828308
 20
-244.6267348631597
 10
-256.3554795221764
 20
-244.4782297158987
 10
-256.0908961889092
 20
-244.3299398871054
 10
-255.7540304459921
 20
-244.1515485365099
 10
-255.3449684208123
 20
-243.9429049411844
 10
-255.7300009049825
 20
-243.8225849813621
 10
-256.0468635622384
 20
-243.6863099230737
 10
-256.295341074112
 20
-243.5338644478513
 10
-256.5440339044535
 20
-243.3816127592501
 10
-256.7245353760338
 20
-243.2492780289229
 10
-256.8367593614658
 20
-243.1368602568699
 10
-256.8367593614658
 20
-243.1368602568699
 10
-257.0171531738122
 20
-242.9684812150283
 10
-257.0171531738122
 20
-242.9684812150283
 10
-257.2258183009844
 20
-243.1930799088198
 10
-257.5626840439015
 20
-243.3494872438501
 10
-258.0276642751763
 20
-243.437638624579
 10
-258.4929459523061
 20
-243.5259837919288
 10
-258.956031381064
 20
-243.5720404121973
 10
-259.4172004754583
 20
-243.5759592083118
 10
-259.8784556972397
 20
-243.5801148547408
 10
-260.213211319172
 20
-243.5740859376417
 10
-260.4216826597232
 20
-243.5579585844013
 10
-260.4216826597232
 20
-243.5579585844013
 10
-260.4216826597232
 20
-239.5333980385324
 10
-260.4216826597232
 20
-239.5333980385324
 10
-258.946212858931
 20
-238.816667454673
 10
-257.464886395814
 20
-238.103166647831
 10
-256.0044458240763
 20
-237.407601869359
 10
-255.6715419409672
 20
-237.6550673844339
 10
-255.3585980798258
 20
-237.9850214045337
 10
-255.0683272533467
 20
-238.4090911269212
 10
-254.8198282096263
 20
-237.9119207847061
 10
-254.8758540749552
 20
-237.4869036610602
 10
-255.2367493588818
 20
-237.1339536285963
 10
-255.0363524608743
 20
-237.126051440827
 10
-254.7675488856377
 20
-237.1459683991011
 10
-254.4306831427205
 20
-237.1940920766607
 10
-254.4960322977064
 20
-237.0309237417405
 10
-254.5865521815813
 20
-236.8988043298812
 10
-254.6917137212686
 20
-236.7847501374726
 10
-250.6232282079628
 20
-234.8607935000413
 10
-246.7909470538644
 20
-233.1158311049155
 10
-243.8012931917646
 20
-231.8767594499518
 10
-244.2850707252808
 20
-232.3459383913493
 10
-244.8740528621779
 20
-233.155535830383
 10
-245.6045207642847
 20
-234.3369667315091
 10
-244.5356583581392
 20
-232.6081962851639
 10
-243.5824004373706
 20
-231.7281466434569
 10
-242.5788441225173
 20
-231.6399091353409
 10
-243.166771198922
 20
-232.5101187230682
 10
-243.5458393615333
 20
-234.0290182588213
 10
-243.8001735357319
 20
-236.3655250806113
 10
-243.6023389274914
 20
-234.5480003618274
 10
-243.1441842916468
 20
-233.1791562663037
 10
-242.3411540658818
 20
-232.169097333722
 10
-242.5191793750821
 20
-232.7019028823627
 10
-242.4544761754998
 20
-233.7400178113024
 10
-242.1695667788696
 20
-235.3186036263374
 10
-242.4745007930078
 20
-233.6290426729838
 10
-242.3126674325882
 20
-232.4754309179011
 10
-241.6023964027635
 20
-231.7937326487573
 10
-241.2064472722744
 20
-231.9477714806415
 10
-240.7959856770537
 20
-232.2108906483275
 10
-240.3619897732994
 20
-232.5814106677661
 10
-240.8675144720662
 20
-232.1498047990047
 10
-241.2761243284636
 20
-231.8820778161072
 10
-241.5931161768002
 20
-231.7845600820279
 10
-240.7737217474803
 20
-231.0082508781203
 10
-239.2335702789526
 20
-230.8513698424608
 10
-236.848444547127
 20
-231.2187677441159
 10
-238.1996755919823
 20
-231.0106193812664
 10
-239.1832503530211
 20
-230.7597518343999
 10
-239.8072002090934
 20
-230.4489826897836
 10
-239.6785689564129
 20
-230.3947009040441
 10
-239.5481074967559
 20
-230.3426584303701
 10
-239.4160742122837
 20
-230.2927045458339
 10
-239.0479657596847
 20
-230.1786503534254
 10
-238.6515429285664
 20
-230.0834580587986
 10
-238.2293249450022
 20
-230.0034241843069
 10
-238.0875377339374
 20
-229.994682254513
 10
-237.9730098408996
 20
-230.0016585728707
 10
-237.8921792880769
 20
-230.0279704896393
 10
-237.8921792880769
 20
-230.0279704896393
 10
-237.9281159403574
 20
-229.9502620546001
 10
-237.9281159403574
 20
-229.9502620546001
 10
-237.8315456075366
 20
-229.9341992969001
 10
-237.7362456536758
 20
-229.9174044564095
 10
-237.6368761807732
 20
-229.9028919916779
 10
-237.7390878574511
 20
-229.9178135614984
 10
-237.834473938699
 20
-229.9293330995272
 10
-237.9319701409316
 20
-229.9419076980484
 10
-237.9319701409316
 20
-229.9419076980484
 10
-237.9654306308321
 20
-229.8695176291646
 10
-237.9654306308321
 20
-229.8695176291646
 10
-237.0326710282007
 20
-229.6774104921683
 10
-236.0483211206777
 20
-229.6349927540062
 10
-235.0446356147437
 20
-229.8442392410415
 10
-234.7849184788494
 20
-229.8983918357003
 10
-234.5322853205467
 20
-229.9678535734217
 10
-234.286585416908
 20
-230.0495454001157
 10
-234.1966038292027
 20
-229.8628858203555
 10
-234.087911066643
 20
-229.6987700841769
 10
-233.9591721547286
 20
-229.5576288285156
 10
-233.2542194910594
 20
-229.7358909880304
 10
-232.5534224738192
 20
-229.9971799487399
 10
-231.8517641827077
 20
-230.3366725769644
 10
-231.6567071827023
 20
-230.7568235032375
 10
-231.2215270273748
 20
-231.4455196225857
 10
-230.5549656465193
 20
-232.3992297121368
 10
-231.13040425179
 20
-231.5758949548556
 10
-231.4940771439516
 20
-230.9243412712077
 10
-231.636897883662
 20
-230.4429753045312
 10
-230.072092450568
 20
-231.2353687979854
 10
-228.5002676354228
 20
-232.4132900080859
 10
-226.8647946811875
 20
-233.924459610844
 10
-229.5074197686888
 20
-231.4826835901328
 10
-231.0935417300978
 20
-230.1484196405423
 10
-231.6937204273219
 20
-229.8918246224316
 10
-231.6480729121423
 20
-229.6464261646478
 10
-231.4739018035162
 20
-229.4978348899997
 10
-231.168171111047
 20
-229.4447373558333
 10
-230.9323973887752
 20
-229.7282902461161
 10
-230.4710560396067
 20
-230.1446085036618
 10
-229.7908865315845
 20
-230.6930031093732
 10
-230.3894718721466
 20
-230.2104098274301
 10
-230.8155655881317
 20
-229.7906464743991
 10
-231.0636555267632
 20
-229.4308062509648
 10
-230.0179398559092
 20
-229.3301448672552
 10
-227.6767606233673
 20
-230.1664202644527
 10
-223.9052208090433
 20
-231.9315795318609
 97
        0
 97
        1
330
A1
 75
     2
 76
     1
 98
        1
 10
0.0
 20
0.0
450
        0
451
        0
460
0.0
461
0.0
452
        0
462
0.0
453
        0
470

  0
ENDBLK
  5
7E
330
7B
100
AcDbEntity
  8
0
100
AcDbBlockEnd
  0
ENDSEC
  0
SECTION
  2
ENTITIES
  0
SPLINE
  5
79
330
70
100
AcDbEntity
  8
Layer 1
100
AcDbSpline
210
0.0
220
0.0
230
1.0
 70
     9
 71
     3
 72
    29
 73
    25
 74
     0
 42
0.0000000001
 43
0.0000000001
 40
0.0
 40
0.0
 40
0.0
 40
0.0
 40
1.0
 40
1.0
 40
1.0
 40
2.0
 40
2.0
 40
2.0
 40
3.0
 40
3.0
 40
3.0
 40
4.0
 40
4.0
 40
4.0
 40
5.0
 40
5.0
 40
5.0
 40
6.0
 40
6.0
 40
6.0
 40
7.0
 40
7.0
 40
7.0
 40
8.0
 40
8.0
 40
8.0
 40
8.0
 10
-229.6533730245392
 20
-272.5363687675351
 30
0.0
 10
-229.6533730245392
 20
-272.5363687675351
 30
0.0
 10
-319.9357720623652
 20
-272.5363687675351
 30
0.0
 10
-319.9357720623652
 20
-272.5363687675351
 30
0.0
 10
-323.7237829630219
 20
-272.5363687675351
 30
0.0
 10
-326.7945725304523
 20
-269.4655792001051
 30
0.0
 10
-326.7945725304523
 20
-265.6775682994481
 30
0.0
 10
-326.7945725304523
 20
-265.6775682994481
 30
0.0
 10
-326.7945725304523
 20
-214.3951692518722
 30
0.0
 10
-326.7945725304523
 20
-214.3951692518722
 30
0.0
 10
-326.7945725304523
 20
-210.6071583512151
 30
0.0
 10
-323.7237829630219
 20
-207.5363687837851
 30
0.0
 10
-319.9357720623652
 20
-207.5363687837851
 30
0.0
 10
-319.9357720623652
 20
-207.5363687837851
 30
0.0
 10
-229.6533730245392
 20
-207.5363687837851
 30
0.0
 10
-229.6533730245392
 20
-207.5363687837851
 30
0.0
 10
-225.8653621238825
 20
-207.5363687837851
 30
0.0
 10
-222.7945725564522
 20
-210.6071583512151
 30
0.0
 10
-222.7945725564522
 20
-214.3951692518722
 30
0.0
 10
-222.7945725564522
 20
-214.3951692518722
 30
0.0
 10
-222.7945725564522
 20
-265.6775682994481
 30
0.0
 10
-222.7945725564522
 20
-265.6775682994481
 30
0.0
 10
-222.7945725564522
 20
-269.4655792001051
 30
0.0
 10
-225.8653621238825
 20
-272.5363687675351
 30
0.0
 10
-229.6533730245392
 20
-272.5363687675351
 30
0.0
  0
HATCH
  5
7A
330
70
100
AcDbEntity
  8
Layer 1
 62
     9
420
 12040119
440
 33554687
100
AcDbHatch
 10
0.0
 20
0.0
 30
0.0
210
0.0
220
0.0
230
1.0
  2
SOLID
 70
     1
 71
     1
 91
        1
 92
        1
 93
        1
 72
     4
 94
        3
 73
     0
 74
     0
 95
       29
 96
       25
 40
0.0
 40
0.0
 40
0.0
 40
0.0
 40
1.0
 40
1.0
 40
1.0
 40
2.0
 40
2.0
 40
2.0
 40
3.0
 40
3.0
 40
3.0
 40
4.0
 40
4.0
 40
4.0
 40
5.0
 40
5.0
 40
5.0
 40
6.0
 40
6.0
 40
6.0
 40
7.0
 40
7.0
 40
7.0
 40
8.0
 40
8.0
 40
8.0
 40
8.0
 10
-229.6533730245392
 20
-272.5363687675351
 10
-229.6533730245392
 20
-272.5363687675351
 10
-319.9357720623652
 20
-272.5363687675351
 10
-319.9357720623652
 20
-272.5363687675351
 10
-323.7237829630219
 20
-272.5363687675351
 10
-326.7945725304523
 20
-269.4655792001051
 10
-326.7945725304523
 20
-265.6775682994481
 10
-326.7945725304523
 20
-265.6775682994481
 10
-326.7945725304523
 20
-214.3951692518722
 10
-326.7945725304523
 20
-214.3951692518722
 10
-326.7945725304523
 20
-210.6071583512151
 10
-323.7237829630219
 20
-207.5363687837851
 10
-319.9357720623652
 20
-207.5363687837851
 10
-319.9357720623652
 20
-207.5363687837851
 10
-229.6533730245392
 20
-207.5363687837851
 10
-229.6533730245392
 20
-207.5363687837851
 10
-225.8653621238825
 20
-207.5363687837851
 10
-222.7945725564522
 20
-210.6071583512151
 10
-222.7945725564522
 20
-214.3951692518722
 10
-222.7945725564522
 20
-214.3951692518722
 10
-222.7945725564522
 20
-265.6775682994481
 10
-222.7945725564522
 20
-265.6775682994481
 10
-222.7945725564522
 20
-269.4655792001051
 10
-225.8653621238825
 20
-272.5363687675351
 10
-229.6533730245392
 20
-272.5363687675351
 97
        0
 97
        1
330
79
 75
     2
 76
     1
 98
        1
 10
0.0
 20
0.0
450
        0
451
        0
460
0.0
461
0.0
452
        0
462
0.0
453
        0
470

  0
INSERT
  5
7C
330
70
100
AcDbEntity
  8
Layer 1
100
AcDbBlockReference
  2
Block_0
 10
0.0
 20
0.0
 30
0.0
  0
ENDSEC
  0
SECTION
  2
OBJECTS
  0
DICTIONARY
  5
C
330
0
100
AcDbDictionary
281
     1
  3
ACAD_COLOR
350
63
  3
ACAD_DETAILVIEWSTYLE
350
6A
  3
ACAD_GROUP
350
D
  3
ACAD_LAYOUT
350
62
  3
ACAD_MATERIAL
350
10
  3
ACAD_MLEADERSTYLE
350
66
  3
ACAD_MLINESTYLE
350
5F
  3
ACAD_PLOTSETTINGS
350
61
  3
ACAD_PLOTSTYLENAME
350
E
  3
ACAD_SCALELIST
350
42
  3
ACAD_SECTIONVIEWSTYLE
350
68
  3
ACAD_TABLESTYLE
350
64
  3
ACAD_VISUALSTYLE
350
29
  3
ACDB_RECOMPOSE_DATA
350
AB
  3
AcDbVariableDictionary
350
A3
  0
DICTIONARY
  5
63
102
{ACAD_REACTORS
330
C
102
}
330
C
100
AcDbDictionary
281
     1
  0
DICTIONARY
  5
6A
102
{ACAD_REACTORS
330
C
102
}
330
C
100
AcDbDictionary
281
     1
  3
Imperial24
350
6B
  0
DICTIONARY
  5
D
102
{ACAD_REACTORS
330
C
102
}
330
C
100
AcDbDictionary
281
     1
  0
DICTIONARY
  5
62
102
{ACAD_REACTORS
330
C
102
}
330
C
100
AcDbDictionary
281
     1
  3
Layout1
350
6F
  3
Layout2
350
77
  3
Model
350
73
  0
DICTIONARY
  5
10
102
{ACAD_REACTORS
330
C
102
}
330
C
100
AcDbDictionary
281
     1
  3
ByBlock
350
19
  3
ByLayer
350
11
  3
Global
350
21
  0
DICTIONARY
  5
66
102
{ACAD_REACTORS
330
C
102
}
330
C
100
AcDbDictionary
281
     1
  3
Standard
350
67
  0
DICTIONARY
  5
5F
102
{ACAD_REACTORS
330
C
102
}
330
C
100
AcDbDictionary
281
     1
  3
Standard
350
60
  0
DICTIONARY
  5
61
102
{ACAD_REACTORS
330
C
102
}
330
C
100
AcDbDictionary
281
     1
  0
ACDBDICTIONARYWDFLT
  5
E
102
{ACAD_REACTORS
330
C
102
}
330
C
100
AcDbDictionary
281
     1
  3
Normal
350
F
100
AcDbDictionaryWithDefault
340
F
  0
DICTIONARY
  5
42
102
{ACAD_REACTORS
330
C
102
}
330
C
100
AcDbDictionary
281
     1
  3
A0
350
43
  3
A1
350
44
  3
A2
350
45
  3
A3
350
46
  3
A4
350
47
  3
A5
350
48
  3
A6
350
49
  3
A7
350
4A
  3
A8
350
4B
  3
A9
350
4C
  3
B0
350
4D
  3
B1
350
4E
  3
B2
350
4F
  3
B3
350
50
  3
B4
350
51
  3
B5
350
52
  3
B6
350
53
  0
DICTIONARY
  5
68
102
{ACAD_REACTORS
330
C
102
}
330
C
100
AcDbDictionary
281
     1
  3
Imperial24
350
69
  0
DICTIONARY
  5
64
102
{ACAD_REACTORS
330
C
102
}
330
C
100
AcDbDictionary
281
     1
  3
Standard
350
65
  0
DICTIONARY
  5
29
102
{ACAD_REACTORS
330
C
102
}
330
C
100
AcDbDictionary
281
     1
  3
2dWireframe
350
2F
  3
Basic
350
2E
  3
Brighten
350
35
  3
ColorChange
350
39
  3
Conceptual
350
32
  3
Dim
350
34
  3
EdgeColorOff
350
41
  3
Facepattern
350
38
  3
Flat
350
2A
  3
FlatWithEdges
350
2B
  3
Gouraud
350
2C
  3
GouraudWithEdges
350
2D
  3
Hidden
350
31
  3
JitterOff
350
3F
  3
Linepattern
350
37
  3
OverhangOff
350
40
  3
Realistic
350
33
  3
Shaded
350
3E
  3
Shaded with edges
350
3D
  3
Shades of Gray
350
3A
  3
Sketchy
350
3B
  3
Thicken
350
36
  3
Wireframe
350
30
  3
X-Ray
350
3C
  0
XRECORD
  5
AB
102
{ACAD_REACTORS
330
C
102
}
330
C
100
AcDbXrecord
280
     1
 90
        1
330
65
  0
DICTIONARY
  5
A3
102
{ACAD_REACTORS
330
C
102
}
330
C
100
AcDbDictionary
281
     1
  3
CANNOSCALE
350
A8
  3
CMLEADERSTYLE
350
A5
  3
CTABLESTYLE
350
A4
  3
CVIEWDETAILSTYLE
350
A6
  3
CVIEWSECTIONSTYLE
350
A7
  0
ACDBDETAILVIEWSTYLE
  5
6B
102
{ACAD_REACTORS
330
6A
102
}
330
6A
100
AcDbModelDocViewStyle
 70
     0
  3
Imperial24
290
     1
300
Imperial24
 90
        0
100
AcDbDetailViewStyle
 70
     0
 71
     0
 90
        3
 71
     1
340
55
 62
   256
 40
0.24
340
0
 62
   256
 40
0.24
300

 40
0.36
280
     3
 71
     2
340
5D
 90
       25
 62
   256
 71
     3
340
55
 62
   256
 40
0.24
 90
        1
 40
0.75
 90
        1
300
%<\AcVar ViewType \f "%tc1">% %<\AcVar ViewDetailId>%\PSCALE %<\AcVar ViewScale \f "%sn">%
 71
     4
340
5D
 90
       25
 62
   256
340
5D
 90
       25
 62
   256
280
     0
  0
LAYOUT
  5
6F
102
{ACAD_REACTORS
330
62
102
}
330
62
100
AcDbPlotSettings
  1

  2

  4

  6

 40
0.0
 41
0.0
 42
0.0
 43
0.0
 44
0.0
 45
0.0
 46
0.0
 47
0.0
 48
0.0
 49
0.0
140
0.0
141
0.0
142
1.0
143
1.0
 70
   688
 72
     0
 73
     0
 74
     5
  7

 75
    16
147
1.0
 76
     0
 77
     2
 78
   300
148
0.0
149
0.0
100
AcDbLayout
  1
Layout1
 70
     1
 71
     1
 10
0.0
 20
0.0
 11
12.0
 21
9.0
 12
0.0
 22
0.0
 32
0.0
 14
0.0
 24
0.0
 34
0.0
 15
0.0
 25
0.0
 35
0.0
146
0.0
 13
0.0
 23
0.0
 33
0.0
 16
1.0
 26
0.0
 36
0.0
 17
0.0
 27
1.0
 37
0.0
 76
     0
330
6C
  0
LAYOUT
  5
77
102
{ACAD_REACTORS
330
62
102
}
330
62
100
AcDbPlotSettings
  1

  2

  4

  6

 40
0.0
 41
0.0
 42
0.0
 43
0.0
 44
0.0
 45
0.0
 46
0.0
 47
0.0
 48
0.0
 49
0.0
140
0.0
141
0.0
142
1.0
143
1.0
 70
   688
 72
     0
 73
     0
 74
     5
  7

 75
    16
147
1.0
 76
     0
 77
     2
 78
   300
148
0.0
149
0.0
100
AcDbLayout
  1
Layout2
 70
     1
 71
     2
 10
0.0
 20
0.0
 11
12.0
 21
9.0
 12
0.0
 22
0.0
 32
0.0
 14
0.0
 24
0.0
 34
0.0
 15
0.0
 25
0.0
 35
0.0
146
0.0
 13
0.0
 23
0.0
 33
0.0
 16
1.0
 26
0.0
 36
0.0
 17
0.0
 27
1.0
 37
0.0
 76
     0
330
74
  0
LAYOUT
  5
73
102
{ACAD_REACTORS
330
62
102
}
330
62
100
AcDbPlotSettings
  1

  2

  4

  6

 40
0.0
 41
0.0
 42
0.0
 43
0.0
 44
0.0
 45
0.0
 46
0.0
 47
0.0
 48
0.0
 49
0.0
140
0.0
141
0.0
142
1.0
143
1.0
 70
  1712
 72
     0
 73
     0
 74
     0
  7

 75
     0
147
1.0
 76
     0
 77
     2
 78
   300
148
0.0
149
0.0
100
AcDbLayout
  1
Model
 70
     1
 71
     0
 10
0.0
 20
0.0
 11
12.0
 21
9.0
 12
0.0
 22
0.0
 32
0.0
 14
0.0
 24
0.0
 34
0.0
 15
0.0
 25
0.0
 35
0.0
146
0.0
 13
0.0
 23
0.0
 33
0.0
 16
1.0
 26
0.0
 36
0.0
 17
0.0
 27
1.0
 37
0.0
 76
     0
330
70
  0
MATERIAL
  5
19
102
{ACAD_XDICTIONARY
360
1A
102
}
102
{ACAD_REACTORS
330
10
102
}
330
10
100
AcDbMaterial
  1
ByBlock
 72
     0
 43
0.0208333333333333
 43
0.0
 43
0.0
 43
0.0
 43
0.0
 43
0.0208333333333333
 43
0.0
 43
0.0
 43
0.0
 43
0.0
 43
1.0
 43
0.0
 43
0.0
 43
0.0
 43
0.0
 43
1.0
 77
     0
 47
0.0208333333333333
 47
0.0
 47
0.0
 47
0.0
 47
0.0
 47
0.0208333333333333
 47
0.0
 47
0.0
 47
0.0
 47
0.0
 47
1.0
 47
0.0
 47
0.0
 47
0.0
 47
0.0
 47
1.0
171
     0
 49
0.0208333333333333
 49
0.0
 49
0.0
 49
0.0
 49
0.0
 49
0.0208333333333333
 49
0.0
 49
0.0
 49
0.0
 49
0.0
 49
1.0
 49
0.0
 49
0.0
 49
0.0
 49
0.0
 49
1.0
175
     0
142
0.0208333333333333
142
0.0
142
0.0
142
0.0
142
0.0
142
0.0208333333333333
142
0.0
142
0.0
142
0.0
142
0.0
142
1.0
142
0.0
142
0.0
142
0.0
142
0.0
142
1.0
179
     0
144
0.0208333333333333
144
0.0
144
0.0
144
0.0
144
0.0
144
0.0208333333333333
144
0.0
144
0.0
144
0.0
144
0.0
144
1.0
144
0.0
144
0.0
144
0.0
144
0.0
144
1.0
147
0.0208333333333333
147
0.0
147
0.0
147
0.0
147
0.0
147
0.0208333333333333
147
0.0
147
0.0
147
0.0
147
0.0
147
1.0
147
0.0
147
0.0
147
0.0
147
0.0
147
1.0
  0
MATERIAL
  5
11
102
{ACAD_XDICTIONARY
360
12
102
}
102
{ACAD_REACTORS
330
10
102
}
330
10
100
AcDbMaterial
  1
ByLayer
 72
     0
 43
0.0208333333333333
 43
0.0
 43
0.0
 43
0.0
 43
0.0
 43
0.0208333333333333
 43
0.0
 43
0.0
 43
0.0
 43
0.0
 43
1.0
 43
0.0
 43
0.0
 43
0.0
 43
0.0
 43
1.0
 77
     0
 47
0.0208333333333333
 47
0.0
 47
0.0
 47
0.0
 47
0.0
 47
0.0208333333333333
 47
0.0
 47
0.0
 47
0.0
 47
0.0
 47
1.0
 47
0.0
 47
0.0
 47
0.0
 47
0.0
 47
1.0
171
     0
 49
0.0208333333333333
 49
0.0
 49
0.0
 49
0.0
 49
0.0
 49
0.0208333333333333
 49
0.0
 49
0.0
 49
0.0
 49
0.0
 49
1.0
 49
0.0
 49
0.0
 49
0.0
 49
0.0
 49
1.0
175
     0
142
0.0208333333333333
142
0.0
142
0.0
142
0.0
142
0.0
142
0.0208333333333333
142
0.0
142
0.0
142
0.0
142
0.0
142
1.0
142
0.0
142
0.0
142
0.0
142
0.0
142
1.0
179
     0
144
0.0208333333333333
144
0.0
144
0.0
144
0.0
144
0.0
144
0.0208333333333333
144
0.0
144
0.0
144
0.0
144
0.0
144
1.0
144
0.0
144
0.0
144
0.0
144
0.0
144
1.0
147
0.0208333333333333
147
0.0
147
0.0
147
0.0
147
0.0
147
0.0208333333333333
147
0.0
147
0.0
147
0.0
147
0.0
147
1.0
147
0.0
147
0.0
147
0.0
147
0.0
147
1.0
  0
MATERIAL
  5
21
102
{ACAD_XDICTIONARY
360
22
102
}
102
{ACAD_REACTORS
330
10
102
}
330
10
100
AcDbMaterial
  1
Global
 72
     0
 43
0.0208333333333333
 43
0.0
 43
0.0
 43
0.0
 43
0.0
 43
0.0208333333333333
 43
0.0
 43
0.0
 43
0.0
 43
0.0
 43
1.0
 43
0.0
 43
0.0
 43
0.0
 43
0.0
 43
1.0
 77
     0
 47
0.0208333333333333
 47
0.0
 47
0.0
 47
0.0
 47
0.0
 47
0.0208333333333333
 47
0.0
 47
0.0
 47
0.0
 47
0.0
 47
1.0
 47
0.0
 47
0.0
 47
0.0
 47
0.0
 47
1.0
171
     0
 49
0.0208333333333333
 49
0.0
 49
0.0
 49
0.0
 49
0.0
 49
0.0208333333333333
 49
0.0
 49
0.0
 49
0.0
 49
0.0
 49
1.0
 49
0.0
 49
0.0
 49
0.0
 49
0.0
 49
1.0
175
     0
142
0.0208333333333333
142
0.0
142
0.0
142
0.0
142
0.0
142
0.0208333333333333
142
0.0
142
0.0
142
0.0
142
0.0
142
1.0
142
0.0
142
0.0
142
0.0
142
0.0
142
1.0
179
     0
144
0.0208333333333333
144
0.0
144
0.0
144
0.0
144
0.0
144
0.0208333333333333
144
0.0
144
0.0
144
0.0
144
0.0
144
1.0
144
0.0
144
0.0
144
0.0
144
0.0
144
1.0
147
0.0208333333333333
147
0.0
147
0.0
147
0.0
147
0.0
147
0.0208333333333333
147
0.0
147
0.0
147
0.0
147
0.0
147
1.0
147
0.0
147
0.0
147
0.0
147
0.0
147
1.0
  0
MLEADERSTYLE
  5
67
102
{ACAD_REACTORS
330
66
102
}
330
66
100
AcDbMLeaderStyle
179
     2
170
     2
171
     1
172
     0
 90
        2
 40
0.0
 41
0.0
173
     1
 91
-1056964608
340
5B
 92
       -2
290
     1
 42
0.09
291
     1
 43
0.36
  3
Standard
 44
0.18
300

342
55
174
     1
178
     6
175
     1
176
     0
 93
-1056964608
 45
0.18
292
     0
297
     0
 46
0.18
 94
-1056964608
 47
1.0
 49
1.0
140
1.0
293
     1
141
0.0
294
     1
177
     0
142
1.0
295
     1
296
     0
143
0.125
271
     0
272
     9
273
     9
298
     1
  0
MLINESTYLE
  5
60
102
{ACAD_REACTORS
330
5F
102
}
330
5F
100
AcDbMlineStyle
  2
STANDARD
 70
     0
  3

 62
   256
 51
90.0
 52
90.0
 71
     2
 49
0.5
 62
   256
  6
BYLAYER
 49
-0.5
 62
   256
  6
BYLAYER
  0
ACDBPLACEHOLDER
  5
F
102
{ACAD_REACTORS
330
E
102
}
330
E
  0
SCALE
  5
43
102
{ACAD_REACTORS
330
42
102
}
330
42
100
AcDbScale
 70
     0
300
1:1
140
1.0
141
1.0
290
     1
  0
SCALE
  5
44
102
{ACAD_REACTORS
330
42
102
}
330
42
100
AcDbScale
 70
     0
300
1/128" = 1'-0"
140
0.0078125
141
12.0
290
     0
  0
SCALE
  5
45
102
{ACAD_REACTORS
330
42
102
}
330
42
100
AcDbScale
 70
     0
300
1/64" = 1'-0"
140
0.015625
141
12.0
290
     0
  0
SCALE
  5
46
102
{ACAD_REACTORS
330
42
102
}
330
42
100
AcDbScale
 70
     0
300
1/32" = 1'-0"
140
0.03125
141
12.0
290
     0
  0
SCALE
  5
47
102
{ACAD_REACTORS
330
42
102
}
330
42
100
AcDbScale
 70
     0
300
1/16" = 1'-0"
140
0.0625
141
12.0
290
     0
  0
SCALE
  5
48
102
{ACAD_REACTORS
330
42
102
}
330
42
100
AcDbScale
 70
     0
300
3/32" = 1'-0"
140
0.09375
141
12.0
290
     0
  0
SCALE
  5
49
102
{ACAD_REACTORS
330
42
102
}
330
42
100
AcDbScale
 70
     0
300
1/8" = 1'-0"
140
0.125
141
12.0
290
     0
  0
SCALE
  5
4A
102
{ACAD_REACTORS
330
42
102
}
330
42
100
AcDbScale
 70
     0
300
3/16" = 1'-0"
140
0.1875
141
12.0
290
     0
  0
SCALE
  5
4B
102
{ACAD_REACTORS
330
42
102
}
330
42
100
AcDbScale
 70
     0
300
1/4" = 1'-0"
140
0.25
141
12.0
290
     0
  0
SCALE
  5
4C
102
{ACAD_REACTORS
330
42
102
}
330
42
100
AcDbScale
 70
     0
300
3/8" = 1'-0"
140
0.375
141
12.0
290
     0
  0
SCALE
  5
4D
102
{ACAD_REACTORS
330
42
102
}
330
42
100
AcDbScale
 70
     0
300
1/2" = 1'-0"
140
0.5
141
12.0
290
     0
  0
SCALE
  5
4E
102
{ACAD_REACTORS
330
42
102
}
330
42
100
AcDbScale
 70
     0
300
3/4" = 1'-0"
140
0.75
141
12.0
290
     0
  0
SCALE
  5
4F
102
{ACAD_REACTORS
330
42
102
}
330
42
100
AcDbScale
 70
     0
300
1" = 1'-0"
140
1.0
141
12.0
290
     0
  0
SCALE
  5
50
102
{ACAD_REACTORS
330
42
102
}
330
42
100
AcDbScale
 70
     0
300
1-1/2" = 1'-0"
140
1.5
141
12.0
290
     0
  0
SCALE
  5
51
102
{ACAD_REACTORS
330
42
102
}
330
42
100
AcDbScale
 70
     0
300
3" = 1'-0"
140
3.0
141
12.0
290
     0
  0
SCALE
  5
52
102
{ACAD_REACTORS
330
42
102
}
330
42
100
AcDbScale
 70
     0
300
6" = 1'-0"
140
6.0
141
12.0
290
     0
  0
SCALE
  5
53
102
{ACAD_REACTORS
330
42
102
}
330
42
100
AcDbScale
 70
     0
300
1'-0" = 1'-0"
140
12.0
141
12.0
290
     0
  0
ACDBSECTIONVIEWSTYLE
  5
69
102
{ACAD_REACTORS
330
68
102
}
330
68
100
AcDbModelDocViewStyle
 70
     0
  3
Imperial24
290
     1
300
Imperial24
 90
        0
100
AcDbSectionViewStyle
 70
     0
 71
     0
 90
       78
 71
     1
340
55
 62
   256
 40
0.24
340
0
340
0
 62
   256
 40
0.24
300
I, O, Q, S, X, Z
 40
0.48
 90
        3
 40
0.18
 90
        1
 71
     2
340
5D
 90
       25
 62
   256
340
5D
 90
       50
 62
   256
 40
0.24
 40
0.0
 40
0.24
 71
     3
340
55
 62
   256
 40
0.24
 90
        1
 40
0.75
 90
        1
300
%<\AcVar ViewType \f "%tc1">% %<\AcVar ViewSectionStartId>%-%<\AcVar ViewSectionEndId>%\PSCALE %<\AcVar ViewScale \f "%sn">%
 71
     4
 62
   256
 62
   257
300
ANSI31
 40
1.0
 90
        0
290
     0
290
     0
 90
        6
 40
0.0
 40
1.570796326794896
 40
0.2617993877991494
 40
1.308996938995747
 40
-0.2617993877991494
 40
1.832595714594046
  0
TABLESTYLE
  5
65
102
{ACAD_XDICTIONARY
360
A9
102
}
102
{ACAD_REACTORS
330
64
102
}
330
64
100
AcDbTableStyle
280
     0
  3
Standard
 70
     0
 71
     0
 40
0.06
 41
0.06
280
     0
281
     0
  7
Standard
140
0.18
170
     2
 62
     0
 63
     7
283
     0
 90
      512
 91
        0
  1

274
    -2
284
     1
 64
     0
275
    -2
285
     1
 65
     0
276
    -2
286
     1
 66
     0
277
    -2
287
     1
 67
     0
278
    -2
288
     1
 68
     0
279
    -2
289
     1
 69
     0
  7
Standard
140
0.25
170
     5
 62
     0
 63
     7
283
     0
 90
      512
 91
        0
  1

274
    -2
284
     1
 64
     0
275
    -2
285
     1
 65
     0
276
    -2
286
     1
 66
     0
277
    -2
287
     1
 67
     0
278
    -2
288
     1
 68
     0
279
    -2
289
     1
 69
     0
  7
Standard
140
0.18
170
     5
 62
     0
 63
     7
283
     0
 90
      512
 91
        0
  1

274
    -2
284
     1
 64
     0
275
    -2
285
     1
 65
     0
276
    -2
286
     1
 66
     0
277
    -2
287
     1
 67
     0
278
    -2
288
     1
 68
     0
279
    -2
289
     1
 69
     0
  0
VISUALSTYLE
  5
2F
102
{ACAD_REACTORS
330
29
102
}
330
29
100
AcDbVisualStyle
  2
2dWireframe
 70
     4
177
     3
291
     0
 70
    58
 90
        0
176
     1
 90
        2
176
     1
 90
        0
176
     1
 90
        0
176
     1
 40
0.6
176
     1
 40
30.0
176
     1
 62
     7
420
 16777215
176
     1
 90
        1
176
     1
 90
        4
176
     1
 62
     7
176
     1
 62
   257
176
     1
 90
        1
176
     1
 90
        1
176
     1
 40
1.0
176
     1
 90
        0
176
     1
 62
   257
176
     1
 40
1.0
176
     1
 90
        1
176
     1
 90
        6
176
     1
 90
        2
176
     1
 62
     7
176
     1
 90
        5
176
     1
 90
        0
176
     1
 90
        0
176
     1
290
     0
176
     1
 90
        1
176
     1
 40
0.0
176
     1
 90
        0
176
     1
290
     1
176
     1
290
     1
176
     1
290
     0
176
     1
290
     0
176
     1
290
     0
176
     1
290
     0
176
     1
290
     0
176
     1
290
     0
176
     1
290
     0
176
     1
 90
       50
176
     1
 40
0.0
176
     1
 40
1.0
176
     1
 90
        0
176
     1
 62
    18
420
        0
176
     1
 90
       50
176
     1
 90
        3
176
     1
 62
     5
420
      255
176
     1
290
     0
176
     1
 90
       50
176
     1
 90
       50
176
     1
 90
       50
176
     1
290
     0
176
     1
 90
       50
176
     1
 62
   256
176
     0
 40
1.0
176
     0
 90
        2
176
     1
  1
strokes_ogs.tif
176
     1
290
     0
176
     1
 40
1.0
176
     1
 40
1.0
176
     1
  0
VISUALSTYLE
  5
2E
102
{ACAD_REACTORS
330
29
102
}
330
29
100
AcDbVisualStyle
  2
Basic
 70
     7
177
     3
291
     1
 70
    58
 90
        1
176
     1
 90
        0
176
     1
 90
        1
176
     1
 90
        0
176
     1
 40
0.6
176
     1
 40
30.0
176
     1
 62
     7
420
 16777215
176
     1
 90
        0
176
     1
 90
        4
176
     1
 62
     7
176
     1
 62
   257
176
     1
 90
        1
176
     1
 90
        1
176
     1
 40
1.0
176
     1
 90
        8
176
     1
 62
     7
176
     1
 40
1.0
176
     1
 90
        1
176
     1
 90
        6
176
     1
 90
        2
176
     1
 62
     7
176
     1
 90
        5
176
     1
 90
        0
176
     1
 90
        0
176
     1
290
     0
176
     1
 90
        1
176
     1
 40
0.0
176
     1
 90
        0
176
     1
290
     0
176
     1
290
     1
176
     1
290
     1
176
     1
290
     0
176
     1
290
     0
176
     1
290
     0
176
     1
290
     0
176
     1
290
     0
176
     1
290
     0
176
     1
 90
       50
176
     1
 40
0.0
176
     1
 40
1.0
176
     1
 90
        0
176
     1
 62
    18
420
        0
176
     1
 90
       50
176
     1
 90
        3
176
     1
 62
     5
420
      255
176
     1
290
     0
176
     1
 90
       50
176
     1
 90
       50
176
     1
 90
       50
176
     1
290
     0
176
     1
 90
       50
176
     1
 62
   256
176
     0
 40
1.0
176
     0
 90
        2
176
     1
  1
strokes_ogs.tif
176
     1
290
     0
176
     1
 40
1.0
176
     1
 40
1.0
176
     1
  0
VISUALSTYLE
  5
35
102
{ACAD_REACTORS
330
29
102
}
330
29
100
AcDbVisualStyle
  2
Brighten
 70
    12
177
     3
291
     1
 70
    58
 90
        2
176
     1
 90
        2
176
     1
 90
        0
176
     1
 90
        0
176
     1
 40
0.6
176
     1
 40
30.0
176
     1
 62
     7
420
 16777215
176
     1
 90
        1
176
     1
 90
        4
176
     1
 62
     7
176
     1
 62
   257
176
     1
 90
        1
176
     1
 90
        1
176
     1
 40
1.0
176
     1
 90
        8
176
     1
 62
     7
176
     1
 40
1.0
176
     1
 90
        1
176
     1
 90
        6
176
     1
 90
        2
176
     1
 62
     7
176
     1
 90
        5
176
     1
 90
        0
176
     1
 90
        0
176
     1
290
     0
176
     1
 90
        1
176
     1
 40
50.0
176
     1
 90
        0
176
     1
290
     0
176
     1
290
     1
176
     1
290
     1
176
     1
290
     0
176
     1
290
     0
176
     1
290
     0
176
     1
290
     0
176
     1
290
     0
176
     1
290
     0
176
     1
 90
       50
176
     1
 40
0.0
176
     1
 40
1.0
176
     1
 90
        0
176
     1
 62
    18
420
        0
176
     1
 90
       50
176
     1
 90
        3
176
     1
 62
     5
420
      255
176
     1
290
     0
176
     1
 90
       50
176
     1
 90
       50
176
     1
 90
       50
176
     1
290
     0
176
     1
 90
       50
176
     1
 62
   256
176
     0
 40
1.0
176
     0
 90
        2
176
     1
  1
strokes_ogs.tif
176
     1
290
     0
176
     1
 40
1.0
176
     1
 40
1.0
176
     1
  0
VISUALSTYLE
  5
39
102
{ACAD_REACTORS
330
29
102
}
330
29
100
AcDbVisualStyle
  2
ColorChange
 70
    16
177
     3
291
     1
 70
    58
 90
        2
176
     1
 90
        2
176
     1
 90
        3
176
     1
 90
        0
176
     1
 40
0.6
176
     1
 40
30.0
176
     1
 62
     8
420
  8421504
176
     1
 90
        1
176
     1
 90
        4
176
     1
 62
     7
176
     1
 62
   257
176
     1
 90
        1
176
     1
 90
        1
176
     1
 40
1.0
176
     1
 90
        8
176
     1
 62
     8
420
  8421504
176
     1
 40
1.0
176
     1
 90
        1
176
     1
 90
        6
176
     1
 90
        2
176
     1
 62
     7
176
     1
 90
        5
176
     1
 90
        0
176
     1
 90
        0
176
     1
290
     0
176
     1
 90
        1
176
     1
 40
0.0
176
     1
 90
        0
176
     1
290
     0
176
     1
290
     1
176
     1
290
     1
176
     1
290
     0
176
     1
290
     0
176
     1
290
     0
176
     1
290
     0
176
     1
290
     0
176
     1
290
     0
176
     1
 90
       50
176
     1
 40
0.0
176
     1
 40
1.0
176
     1
 90
        0
176
     1
 62
    18
420
        0
176
     1
 90
       50
176
     1
 90
        3
176
     1
 62
     5
420
      255
176
     1
290
     0
176
     1
 90
       50
176
     1
 90
       50
176
     1
 90
       50
176
     1
290
     0
176
     1
 90
       50
176
     1
 62
   256
176
     0
 40
1.0
176
     0
 90
        2
176
     1
  1
strokes_ogs.tif
176
     1
290
     0
176
     1
 40
1.0
176
     1
 40
1.0
176
     1
  0
VISUALSTYLE
  5
32
102
{ACAD_REACTORS
330
29
102
}
330
29
100
AcDbVisualStyle
  2
Conceptual
 70
     9
177
     3
291
     0
 70
    58
 90
        3
176
     1
 90
        2
176
     1
 90
        0
176
     1
 90
        0
176
     1
 40
0.6
176
     1
 40
30.0
176
     1
 62
     7
420
 16777215
176
     1
 90
        2
176
     1
 90
        2
176
     1
 62
     7
176
     1
 62
   257
176
     1
 90
        1
176
     1
 90
        1
176
     1
 40
179.0
176
     1
 90
        8
176
     1
 62
     7
176
     1
 40
1.0
176
     1
 90
        1
176
     1
 90
        6
176
     1
 90
        2
176
     1
 62
     7
176
     1
 90
        3
176
     1
 90
        0
176
     1
 90
        0
176
     1
290
     0
176
     1
 90
        1
176
     1
 40
0.0
176
     1
 90
        0
176
     1
290
     0
176
     1
290
     1
176
     1
290
     1
176
     1
290
     0
176
     1
290
     0
176
     1
290
     0
176
     1
290
     0
176
     1
290
     0
176
     1
290
     0
176
     1
 90
       50
176
     1
 40
0.0
176
     1
 40
1.0
176
     1
 90
        0
176
     1
 62
    18
420
        0
176
     1
 90
       50
176
     1
 90
        3
176
     1
 62
     5
420
      255
176
     1
290
     0
176
     1
 90
       50
176
     1
 90
       50
176
     1
 90
       50
176
     1
290
     0
176
     1
 90
       50
176
     1
 62
   256
176
     0
 40
1.0
176
     0
 90
        2
176
     1
  1
strokes_ogs.tif
176
     1
290
     0
176
     1
 40
1.0
176
     1
 40
1.0
176
     1
  0
VISUALSTYLE
  5
34
102
{ACAD_REACTORS
330
29
102
}
330
29
100
AcDbVisualStyle
  2
Dim
 70
    11
177
     3
291
     1
 70
    58
 90
        2
176
     1
 90
        2
176
     1
 90
        0
176
     1
 90
        0
176
     1
 40
0.6
176
     1
 40
30.0
176
     1
 62
     7
420
 16777215
176
     1
 90
        1
176
     1
 90
        4
176
     1
 62
     7
176
     1
 62
   257
176
     1
 90
        1
176
     1
 90
        1
176
     1
 40
1.0
176
     1
 90
        8
176
     1
 62
     7
176
     1
 40
1.0
176
     1
 90
        1
176
     1
 90
        6
176
     1
 90
        2
176
     1
 62
     7
176
     1
 90
        5
176
     1
 90
        0
176
     1
 90
        0
176
     1
290
     0
176
     1
 90
        1
176
     1
 40
-50.0
176
     1
 90
        0
176
     1
290
     0
176
     1
290
     1
176
     1
290
     1
176
     1
290
     0
176
     1
290
     0
176
     1
290
     0
176
     1
290
     0
176
     1
290
     0
176
     1
290
     0
176
     1
 90
       50
176
     1
 40
0.0
176
     1
 40
1.0
176
     1
 90
        0
176
     1
 62
    18
420
        0
176
     1
 90
       50
176
     1
 90
        3
176
     1
 62
     5
420
      255
176
     1
290
     0
176
     1
 90
       50
176
     1
 90
       50
176
     1
 90
       50
176
     1
290
     0
176
     1
 90
       50
176
     1
 62
   256
176
     0
 40
1.0
176
     0
 90
        2
176
     1
  1
strokes_ogs.tif
176
     1
290
     0
176
     1
 40
1.0
176
     1
 40
1.0
176
     1
  0
VISUALSTYLE
  5
41
102
{ACAD_REACTORS
330
29
102
}
330
29
100
AcDbVisualStyle
  2
EdgeColorOff
 70
    22
177
     3
291
     1
 70
    58
 90
        2
176
     0
 90
        2
176
     0
 90
        0
176
     0
 90
        0
176
     0
 40
0.6
176
     0
 40
30.0
176
     0
 62
     7
420
 16777215
176
     0
 90
        1
176
     0
 90
        4
176
     0
 62
     7
176
     0
 62
   257
176
     0
 90
        1
176
     0
 90
        1
176
     0
 40
1.0
176
     0
 90
        8
176
     2
 62
     7
176
     0
 40
1.0
176
     0
 90
        1
176
     0
 90
        6
176
     0
 90
        2
176
     0
 62
     7
176
     0
 90
        5
176
     0
 90
        0
176
     0
 90
        0
176
     0
290
     0
176
     0
 90
        1
176
     0
 40
0.0
176
     0
 90
        0
176
     0
290
     0
176
     0
290
     1
176
     0
290
     1
176
     0
290
     0
176
     0
290
     0
176
     0
290
     0
176
     0
290
     0
176
     0
290
     0
176
     0
290
     0
176
     0
 90
       50
176
     0
 40
0.0
176
     0
 40
1.0
176
     0
 90
        0
176
     0
 62
    18
420
        0
176
     0
 90
       50
176
     0
 90
        3
176
     0
 62
     5
420
      255
176
     0
290
     0
176
     0
 90
       50
176
     0
 90
       50
176
     0
 90
       50
176
     0
290
     0
176
     0
 90
       50
176
     0
 62
   256
176
     0
 40
1.0
176
     0
 90
        2
176
     0
  1
strokes_ogs.tif
176
     0
290
     0
176
     0
 40
1.0
176
     0
 40
1.0
176
     0
  0
VISUALSTYLE
  5
38
102
{ACAD_REACTORS
330
29
102
}
330
29
100
AcDbVisualStyle
  2
Facepattern
 70
    15
177
     3
291
     1
 70
    58
 90
        2
176
     1
 90
        2
176
     1
 90
        0
176
     1
 90
        0
176
     1
 40
0.6
176
     1
 40
30.0
176
     1
 62
     7
420
 16777215
176
     1
 90
        1
176
     1
 90
        4
176
     1
 62
     7
176
     1
 62
   257
176
     1
 90
        1
176
     1
 90
        1
176
     1
 40
1.0
176
     1
 90
        8
176
     1
 62
     7
176
     1
 40
1.0
176
     1
 90
        1
176
     1
 90
        6
176
     1
 90
        2
176
     1
 62
     7
176
     1
 90
        5
176
     1
 90
        0
176
     1
 90
        0
176
     1
290
     0
176
     1
 90
        1
176
     1
 40
0.0
176
     1
 90
        0
176
     1
290
     0
176
     1
290
     1
176
     1
290
     1
176
     1
290
     0
176
     1
290
     0
176
     1
290
     0
176
     1
290
     0
176
     1
290
     0
176
     1
290
     0
176
     1
 90
       50
176
     1
 40
0.0
176
     1
 40
1.0
176
     1
 90
        0
176
     1
 62
    18
420
        0
176
     1
 90
       50
176
     1
 90
        3
176
     1
 62
     5
420
      255
176
     1
290
     0
176
     1
 90
       50
176
     1
 90
       50
176
     1
 90
       50
176
     1
290
     0
176
     1
 90
       50
176
     1
 62
   256
176
     0
 40
1.0
176
     0
 90
        2
176
     1
  1
strokes_ogs.tif
176
     1
290
     0
176
     1
 40
1.0
176
     1
 40
1.0
176
     1
  0
VISUALSTYLE
  5
2A
102
{ACAD_REACTORS
330
29
102
}
330
29
100
AcDbVisualStyle
  2
Flat
 70
     0
177
     3
291
     1
 70
    58
 90
        2
176
     1
 90
        1
176
     1
 90
        1
176
     1
 90
        2
176
     1
 40
0.6
176
     1
 40
30.0
176
     1
 62
     7
420
 16777215
176
     1
 90
        0
176
     1
 90
        0
176
     1
 62
     7
176
     1
 62
   257
176
     1
 90
        1
176
     1
 90
        1
176
     1
 40
1.0
176
     1
 90
        8
176
     1
 62
     7
176
     1
 40
1.0
176
     1
 90
        1
176
     1
 90
        6
176
     1
 90
        2
176
     1
 62
     7
176
     1
 90
        5
176
     1
 90
        0
176
     1
 90
        0
176
     1
290
     0
176
     1
 90
       13
176
     1
 40
0.0
176
     1
 90
        0
176
     1
290
     0
176
     1
290
     1
176
     1
290
     1
176
     1
290
     0
176
     1
290
     0
176
     1
290
     0
176
     1
290
     0
176
     1
290
     0
176
     1
290
     0
176
     1
 90
       50
176
     1
 40
0.0
176
     1
 40
1.0
176
     1
 90
        0
176
     1
 62
    18
420
        0
176
     1
 90
       50
176
     1
 90
        3
176
     1
 62
     5
420
      255
176
     1
290
     0
176
     1
 90
       50
176
     1
 90
       50
176
     1
 90
       50
176
     1
290
     0
176
     1
 90
       50
176
     1
 62
   256
176
     0
 40
1.0
176
     0
 90
        2
176
     1
  1
strokes_ogs.tif
176
     1
290
     0
176
     1
 40
1.0
176
     1
 40
1.0
176
     1
  0
VISUALSTYLE
  5
2B
102
{ACAD_REACTORS
330
29
102
}
330
29
100
AcDbVisualStyle
  2
FlatWithEdges
 70
     1
177
     3
291
     1
 70
    58
 90
        2
176
     1
 90
        1
176
     1
 90
        1
176
     1
 90
        2
176
     1
 40
0.6
176
     1
 40
30.0
176
     1
 62
     7
420
 16777215
176
     1
 90
        1
176
     1
 90
        0
176
     1
 62
     7
176
     1
 62
   257
176
     1
 90
        1
176
     1
 90
        1
176
     1
 40
1.0
176
     1
 90
        0
176
     1
 62
   257
176
     1
 40
1.0
176
     1
 90
        1
176
     1
 90
        6
176
     1
 90
        2
176
     1
 62
     7
176
     1
 90
        5
176
     1
 90
        0
176
     1
 90
        0
176
     1
290
     0
176
     1
 90
       13
176
     1
 40
0.0
176
     1
 90
        0
176
     1
290
     0
176
     1
290
     1
176
     1
290
     1
176
     1
290
     0
176
     1
290
     0
176
     1
290
     0
176
     1
290
     0
176
     1
290
     0
176
     1
290
     0
176
     1
 90
       50
176
     1
 40
0.0
176
     1
 40
1.0
176
     1
 90
        0
176
     1
 62
    18
420
        0
176
     1
 90
       50
176
     1
 90
        3
176
     1
 62
     5
420
      255
176
     1
290
     0
176
     1
 90
       50
176
     1
 90
       50
176
     1
 90
       50
176
     1
290
     0
176
     1
 90
       50
176
     1
 62
   256
176
     0
 40
1.0
176
     0
 90
        2
176
     1
  1
strokes_ogs.tif
176
     1
290
     0
176
     1
 40
1.0
176
     1
 40
1.0
176
     1
  0
VISUALSTYLE
  5
2C
102
{ACAD_REACTORS
330
29
102
}
330
29
100
AcDbVisualStyle
  2
Gouraud
 70
     2
177
     3
291
     1
 70
    58
 90
        2
176
     1
 90
        2
176
     1
 90
        1
176
     1
 90
        2
176
     1
 40
0.6
176
     1
 40
30.0
176
     1
 62
     7
420
 16777215
176
     1
 90
        0
176
     1
 90
        0
176
     1
 62
     7
176
     1
 62
   257
176
     1
 90
        1
176
     1
 90
        1
176
     1
 40
1.0
176
     1
 90
        0
176
     1
 62
     7
176
     1
 40
1.0
176
     1
 90
        1
176
     1
 90
        6
176
     1
 90
        2
176
     1
 62
     7
176
     1
 90
        5
176
     1
 90
        0
176
     1
 90
        0
176
     1
290
     0
176
     1
 90
       13
176
     1
 40
0.0
176
     1
 90
        0
176
     1
290
     0
176
     1
290
     1
176
     1
290
     1
176
     1
290
     0
176
     1
290
     0
176
     1
290
     0
176
     1
290
     0
176
     1
290
     0
176
     1
290
     0
176
     1
 90
       50
176
     1
 40
0.0
176
     1
 40
1.0
176
     1
 90
        0
176
     1
 62
    18
420
        0
176
     1
 90
       50
176
     1
 90
        3
176
     1
 62
     5
420
      255
176
     1
290
     0
176
     1
 90
       50
176
     1
 90
       50
176
     1
 90
       50
176
     1
290
     0
176
     1
 90
       50
176
     1
 62
   256
176
     0
 40
1.0
176
     0
 90
        2
176
     1
  1
strokes_ogs.tif
176
     1
290
     0
176
     1
 40
1.0
176
     1
 40
1.0
176
     1
  0
VISUALSTYLE
  5
2D
102
{ACAD_REACTORS
330
29
102
}
330
29
100
AcDbVisualStyle
  2
GouraudWithEdges
 70
     3
177
     3
291
     1
 70
    58
 90
        2
176
     1
 90
        2
176
     1
 90
        1
176
     1
 90
        2
176
     1
 40
0.6
176
     1
 40
30.0
176
     1
 62
     7
420
 16777215
176
     1
 90
        1
176
     1
 90
        0
176
     1
 62
     7
176
     1
 62
   257
176
     1
 90
        1
176
     1
 90
        1
176
     1
 40
1.0
176
     1
 90
        0
176
     1
 62
   257
176
     1
 40
1.0
176
     1
 90
        1
176
     1
 90
        6
176
     1
 90
        2
176
     1
 62
     7
176
     1
 90
        5
176
     1
 90
        0
176
     1
 90
        0
176
     1
290
     0
176
     1
 90
       13
176
     1
 40
0.0
176
     1
 90
        0
176
     1
290
     0
176
     1
290
     1
176
     1
290
     1
176
     1
290
     0
176
     1
290
     0
176
     1
290
     0
176
     1
290
     0
176
     1
290
     0
176
     1
290
     0
176
     1
 90
       50
176
     1
 40
0.0
176
     1
 40
1.0
176
     1
 90
        0
176
     1
 62
    18
420
        0
176
     1
 90
       50
176
     1
 90
        3
176
     1
 62
     5
420
      255
176
     1
290
     0
176
     1
 90
       50
176
     1
 90
       50
176
     1
 90
       50
176
     1
290
     0
176
     1
 90
       50
176
     1
 62
   256
176
     0
 40
1.0
176
     0
 90
        2
176
     1
  1
strokes_ogs.tif
176
     1
290
     0
176
     1
 40
1.0
176
     1
 40
1.0
176
     1
  0
VISUALSTYLE
  5
31
102
{ACAD_REACTORS
330
29
102
}
330
29
100
AcDbVisualStyle
  2
Hidden
 70
     6
177
     3
291
     0
 70
    58
 90
        1
176
     1
 90
        2
176
     1
 90
        2
176
     1
 90
        0
176
     1
 40
0.6
176
     1
 40
30.0
176
     1
 62
     7
420
 16777215
176
     1
 90
        2
176
     1
 90
        2
176
     1
 62
     7
176
     1
 62
   257
176
     1
 90
        2
176
     1
 90
        1
176
     1
 40
40.0
176
     1
 90
        0
176
     1
 62
   257
176
     1
 40
1.0
176
     1
 90
        1
176
     1
 90
        6
176
     1
 90
        2
176
     1
 62
     7
176
     1
 90
        3
176
     1
 90
        0
176
     1
 90
        0
176
     1
290
     0
176
     1
 90
        1
176
     1
 40
0.0
176
     1
 90
        0
176
     1
290
     0
176
     1
290
     1
176
     1
290
     1
176
     1
290
     0
176
     1
290
     0
176
     1
290
     0
176
     1
290
     0
176
     1
290
     0
176
     1
290
     0
176
     1
 90
       50
176
     1
 40
0.0
176
     1
 40
1.0
176
     1
 90
        0
176
     1
 62
    18
420
        0
176
     1
 90
       50
176
     1
 90
        3
176
     1
 62
     5
420
      255
176
     1
290
     0
176
     1
 90
       50
176
     1
 90
       50
176
     1
 90
       50
176
     1
290
     0
176
     1
 90
       50
176
     1
 62
   256
176
     0
 40
1.0
176
     0
 90
        2
176
     1
  1
strokes_ogs.tif
176
     1
290
     0
176
     1
 40
1.0
176
     1
 40
1.0
176
     1
  0
VISUALSTYLE
  5
3F
102
{ACAD_REACTORS
330
29
102
}
330
29
100
AcDbVisualStyle
  2
JitterOff
 70
    20
177
     3
291
     1
 70
    58
 90
        2
176
     0
 90
        2
176
     0
 90
        0
176
     0
 90
        0
176
     0
 40
0.6
176
     0
 40
30.0
176
     0
 62
     7
420
 16777215
176
     0
 90
        1
176
     0
 90
        4
176
     0
 62
     7
176
     0
 62
   257
176
     0
 90
        1
176
     0
 90
        1
176
     0
 40
1.0
176
     0
 90
       10
176
     2
 62
     7
176
     0
 40
1.0
176
     0
 90
        1
176
     0
 90
        6
176
     0
 90
        2
176
     0
 62
     7
176
     0
 90
        5
176
     0
 90
        0
176
     0
 90
        0
176
     0
290
     0
176
     0
 90
        1
176
     0
 40
0.0
176
     0
 90
        0
176
     0
290
     0
176
     0
290
     1
176
     0
290
     1
176
     0
290
     0
176
     0
290
     0
176
     0
290
     0
176
     0
290
     0
176
     0
290
     0
176
     0
290
     0
176
     0
 90
       50
176
     0
 40
0.0
176
     0
 40
1.0
176
     0
 90
        0
176
     0
 62
    18
420
        0
176
     0
 90
       50
176
     0
 90
        3
176
     0
 62
     5
420
      255
176
     0
290
     0
176
     0
 90
       50
176
     0
 90
       50
176
     0
 90
       50
176
     0
290
     0
176
     0
 90
       50
176
     0
 62
   256
176
     0
 40
1.0
176
     0
 90
        2
176
     0
  1
strokes_ogs.tif
176
     0
290
     0
176
     0
 40
1.0
176
     0
 40
1.0
176
     0
  0
VISUALSTYLE
  5
37
102
{ACAD_REACTORS
330
29
102
}
330
29
100
AcDbVisualStyle
  2
Linepattern
 70
    14
177
     3
291
     1
 70
    58
 90
        2
176
     1
 90
        2
176
     1
 90
        0
176
     1
 90
        0
176
     1
 40
0.6
176
     1
 40
30.0
176
     1
 62
     7
420
 16777215
176
     1
 90
        1
176
     1
 90
        4
176
     1
 62
     7
176
     1
 62
   257
176
     1
 90
        7
176
     1
 90
        7
176
     1
 40
1.0
176
     1
 90
        8
176
     1
 62
     7
176
     1
 40
1.0
176
     1
 90
        1
176
     1
 90
        6
176
     1
 90
        2
176
     1
 62
     7
176
     1
 90
        5
176
     1
 90
        0
176
     1
 90
        0
176
     1
290
     0
176
     1
 90
        1
176
     1
 40
0.0
176
     1
 90
        0
176
     1
290
     0
176
     1
290
     1
176
     1
290
     1
176
     1
290
     0
176
     1
290
     0
176
     1
290
     0
176
     1
290
     0
176
     1
290
     0
176
     1
290
     0
176
     1
 90
       50
176
     1
 40
0.0
176
     1
 40
1.0
176
     1
 90
        0
176
     1
 62
    18
420
        0
176
     1
 90
       50
176
     1
 90
        3
176
     1
 62
     5
420
      255
176
     1
290
     0
176
     1
 90
       50
176
     1
 90
       50
176
     1
 90
       50
176
     1
290
     0
176
     1
 90
       50
176
     1
 62
   256
176
     0
 40
1.0
176
     0
 90
        2
176
     1
  1
strokes_ogs.tif
176
     1
290
     0
176
     1
 40
1.0
176
     1
 40
1.0
176
     1
  0
VISUALSTYLE
  5
40
102
{ACAD_REACTORS
330
29
102
}
330
29
100
AcDbVisualStyle
  2
OverhangOff
 70
    21
177
     3
291
     1
 70
    58
 90
        2
176
     0
 90
        2
176
     0
 90
        0
176
     0
 90
        0
176
     0
 40
0.6
176
     0
 40
30.0
176
     0
 62
     7
420
 16777215
176
     0
 90
        1
176
     0
 90
        4
176
     0
 62
     7
176
     0
 62
   257
176
     0
 90
        1
176
     0
 90
        1
176
     0
 40
1.0
176
     0
 90
        9
176
     2
 62
     7
176
     0
 40
1.0
176
     0
 90
        1
176
     0
 90
        6
176
     0
 90
        2
176
     0
 62
     7
176
     0
 90
        5
176
     0
 90
        0
176
     0
 90
        0
176
     0
290
     0
176
     0
 90
        1
176
     0
 40
0.0
176
     0
 90
        0
176
     0
290
     0
176
     0
290
     1
176
     0
290
     1
176
     0
290
     0
176
     0
290
     0
176
     0
290
     0
176
     0
290
     0
176
     0
290
     0
176
     0
290
     0
176
     0
 90
       50
176
     0
 40
0.0
176
     0
 40
1.0
176
     0
 90
        0
176
     0
 62
    18
420
        0
176
     0
 90
       50
176
     0
 90
        3
176
     0
 62
     5
420
      255
176
     0
290
     0
176
     0
 90
       50
176
     0
 90
       50
176
     0
 90
       50
176
     0
290
     0
176
     0
 90
       50
176
     0
 62
   256
176
     0
 40
1.0
176
     0
 90
        2
176
     0
  1
strokes_ogs.tif
176
     0
290
     0
176
     0
 40
1.0
176
     0
 40
1.0
176
     0
  0
VISUALSTYLE
  5
33
102
{ACAD_REACTORS
330
29
102
}
330
29
100
AcDbVisualStyle
  2
Realistic
 70
     8
177
     3
291
     0
 70
    58
 90
        2
176
     1
 90
        3
176
     1
 90
        0
176
     1
 90
        2
176
     1
 40
0.6
176
     1
 40
30.0
176
     1
 62
     7
420
 16777215
176
     1
 90
        0
176
     1
 90
        0
176
     1
 62
     7
176
     1
 62
   257
176
     1
 90
        1
176
     1
 90
        1
176
     1
 40
1.0
176
     1
 90
        8
176
     1
 62
   257
176
     1
 40
1.0
176
     1
 90
        1
176
     1
 90
        6
176
     1
 90
        2
176
     1
 62
     7
176
     1
 90
        3
176
     1
 90
        0
176
     1
 90
        0
176
     1
290
     0
176
     1
 90
       13
176
     1
 40
0.0
176
     1
 90
        0
176
     1
290
     0
176
     1
290
     1
176
     1
290
     1
176
     1
290
     0
176
     1
290
     0
176
     1
290
     0
176
     1
290
     0
176
     1
290
     0
176
     1
290
     0
176
     1
 90
       50
176
     1
 40
0.0
176
     1
 40
1.0
176
     1
 90
        0
176
     1
 62
    18
420
        0
176
     1
 90
       50
176
     1
 90
        3
176
     1
 62
     5
420
      255
176
     1
290
     0
176
     1
 90
       50
176
     1
 90
       50
176
     1
 90
       50
176
     1
290
     0
176
     1
 90
       50
176
     1
 62
   256
176
     0
 40
1.0
176
     0
 90
        2
176
     1
  1
strokes_ogs.tif
176
     1
290
     0
176
     1
 40
1.0
176
     1
 40
1.0
176
     1
  0
VISUALSTYLE
  5
3E
102
{ACAD_REACTORS
330
29
102
}
330
29
100
AcDbVisualStyle
  2
Shaded
 70
    27
177
     3
291
     0
 70
    58
 90
        2
176
     1
 90
        2
176
     1
 90
        1
176
     1
 90
        2
176
     1
 40
0.6
176
     1
 40
30.0
176
     1
 62
     7
420
 16777215
176
     1
 90
        0
176
     1
 90
        4
176
     1
 62
     7
176
     1
 62
   257
176
     1
 90
        1
176
     1
 90
        1
176
     1
 40
1.0
176
     1
 90
        8
176
     1
 62
   257
176
     1
 40
1.0
176
     1
 90
        1
176
     1
 90
        6
176
     1
 90
        2
176
     1
 62
     8
420
  7895160
176
     1
 90
        3
176
     1
 90
        0
176
     1
 90
        0
176
     1
290
     0
176
     1
 90
        5
176
     1
 40
0.0
176
     1
 90
        0
176
     1
290
     0
176
     1
290
     1
176
     1
290
     1
176
     1
290
     0
176
     1
290
     0
176
     1
290
     0
176
     1
290
     0
176
     1
290
     0
176
     1
290
     0
176
     1
 90
       50
176
     1
 40
0.0
176
     1
 40
1.0
176
     1
 90
        0
176
     1
 62
    18
420
        0
176
     1
 90
       50
176
     1
 90
        3
176
     1
 62
     5
420
      255
176
     1
290
     0
176
     1
 90
       50
176
     1
 90
       50
176
     1
 90
       50
176
     1
290
     0
176
     1
 90
       50
176
     1
 62
   256
176
     0
 40
1.0
176
     0
 90
        2
176
     1
  1
strokes_ogs.tif
176
     1
290
     0
176
     1
 40
1.0
176
     1
 40
1.0
176
     1
  0
VISUALSTYLE
  5
3D
102
{ACAD_REACTORS
330
29
102
}
330
29
100
AcDbVisualStyle
  2
Shaded with edges
 70
    26
177
     3
291
     0
 70
    58
 90
        2
176
     1
 90
        2
176
     1
 90
        1
176
     1
 90
        2
176
     1
 40
0.6
176
     1
 40
30.0
176
     1
 62
     7
420
 16777215
176
     1
 90
        1
176
     1
 90
        2
176
     1
 62
     7
176
     1
 62
   257
176
     1
 90
        2
176
     1
 90
        1
176
     1
 40
1.0
176
     1
 90
        8
176
     1
 62
   257
176
     1
 40
1.0
176
     1
 90
        1
176
     1
 90
        6
176
     1
 90
        2
176
     1
 62
     7
176
     1
 90
        3
176
     1
 90
        0
176
     1
 90
        0
176
     1
290
     0
176
     1
 90
        5
176
     1
 40
0.0
176
     1
 90
        0
176
     1
290
     0
176
     1
290
     1
176
     1
290
     1
176
     1
290
     0
176
     1
290
     0
176
     1
290
     0
176
     1
290
     0
176
     1
290
     0
176
     1
290
     0
176
     1
 90
       50
176
     1
 40
0.0
176
     1
 40
1.0
176
     1
 90
        0
176
     1
 62
    18
420
        0
176
     1
 90
       50
176
     1
 90
        3
176
     1
 62
     5
420
      255
176
     1
290
     0
176
     1
 90
       50
176
     1
 90
       50
176
     1
 90
       50
176
     1
290
     0
176
     1
 90
       50
176
     1
 62
   256
176
     0
 40
1.0
176
     0
 90
        2
176
     1
  1
strokes_ogs.tif
176
     1
290
     0
176
     1
 40
1.0
176
     1
 40
1.0
176
     1
  0
VISUALSTYLE
  5
3A
102
{ACAD_REACTORS
330
29
102
}
330
29
100
AcDbVisualStyle
  2
Shades of Gray
 70
    23
177
     3
291
     0
 70
    58
 90
        2
176
     1
 90
        2
176
     1
 90
        3
176
     1
 90
        0
176
     1
 40
0.6
176
     1
 40
30.0
176
     1
 62
     7
420
 16777215
176
     1
 90
        2
176
     1
 90
        2
176
     1
 62
     7
176
     1
 62
     7
176
     1
 90
        1
176
     1
 90
        1
176
     1
 40
40.0
176
     1
 90
        8
176
     1
 62
     7
176
     1
 40
1.0
176
     1
 90
        1
176
     1
 90
        6
176
     1
 90
        2
176
     1
 62
     7
176
     1
 90
        3
176
     1
 90
        0
176
     1
 90
        0
176
     1
290
     0
176
     1
 90
        1
176
     1
 40
0.0
176
     1
 90
        0
176
     1
290
     0
176
     1
290
     1
176
     1
290
     1
176
     1
290
     0
176
     1
290
     0
176
     1
290
     0
176
     1
290
     0
176
     1
290
     0
176
     1
290
     0
176
     1
 90
       50
176
     1
 40
0.0
176
     1
 40
1.0
176
     1
 90
        0
176
     1
 62
    18
420
        0
176
     1
 90
       50
176
     1
 90
        3
176
     1
 62
     5
420
      255
176
     1
290
     0
176
     1
 90
       50
176
     1
 90
       50
176
     1
 90
       50
176
     1
290
     0
176
     1
 90
       50
176
     1
 62
   256
176
     0
 40
1.0
176
     0
 90
        2
176
     1
  1
strokes_ogs.tif
176
     1
290
     0
176
     1
 40
1.0
176
     1
 40
1.0
176
     1
  0
VISUALSTYLE
  5
3B
102
{ACAD_REACTORS
330
29
102
}
330
29
100
AcDbVisualStyle
  2
Sketchy
 70
    24
177
     3
291
     0
 70
    58
 90
        1
176
     1
 90
        2
176
     1
 90
        2
176
     1
 90
        0
176
     1
 40
0.6
176
     1
 40
30.0
176
     1
 62
     7
420
 16777215
176
     1
 90
        2
176
     1
 90
        2
176
     1
 62
     7
176
     1
 62
     7
176
     1
 90
        1
176
     1
 90
        1
176
     1
 40
40.0
176
     1
 90
       11
176
     1
 62
     7
176
     1
 40
1.0
176
     1
 90
        1
176
     1
 90
        6
176
     1
 90
        2
176
     1
 62
     7
176
     1
 90
        6
176
     1
 90
        0
176
     1
 90
        0
176
     1
290
     0
176
     1
 90
        1
176
     1
 40
0.0
176
     1
 90
        0
176
     1
290
     0
176
     1
290
     1
176
     1
290
     1
176
     1
290
     0
176
     1
290
     0
176
     1
290
     0
176
     1
290
     0
176
     1
290
     0
176
     1
290
     0
176
     1
 90
       50
176
     1
 40
0.0
176
     1
 40
1.0
176
     1
 90
        0
176
     1
 62
    18
420
        0
176
     1
 90
       50
176
     1
 90
        3
176
     1
 62
     5
420
      255
176
     1
290
     0
176
     1
 90
       50
176
     1
 90
       50
176
     1
 90
       50
176
     1
290
     0
176
     1
 90
       50
176
     1
 62
   256
176
     0
 40
1.0
176
     0
 90
        2
176
     1
  1
strokes_ogs.tif
176
     1
290
     0
176
     1
 40
1.0
176
     1
 40
1.0
176
     1
  0
VISUALSTYLE
  5
36
102
{ACAD_REACTORS
330
29
102
}
330
29
100
AcDbVisualStyle
  2
Thicken
 70
    13
177
     3
291
     1
 70
    58
 90
        2
176
     1
 90
        2
176
     1
 90
        0
176
     1
 90
        0
176
     1
 40
0.6
176
     1
 40
30.0
176
     1
 62
     7
420
 16777215
176
     1
 90
        1
176
     1
 90
        4
176
     1
 62
     7
176
     1
 62
   257
176
     1
 90
        1
176
     1
 90
        1
176
     1
 40
1.0
176
     1
 90
       12
176
     1
 62
     7
176
     1
 40
1.0
176
     1
 90
        1
176
     1
 90
        6
176
     1
 90
        2
176
     1
 62
     7
176
     1
 90
        5
176
     1
 90
        0
176
     1
 90
        0
176
     1
290
     0
176
     1
 90
        1
176
     1
 40
0.0
176
     1
 90
        0
176
     1
290
     0
176
     1
290
     1
176
     1
290
     1
176
     1
290
     0
176
     1
290
     0
176
     1
290
     0
176
     1
290
     0
176
     1
290
     0
176
     1
290
     0
176
     1
 90
       50
176
     1
 40
0.0
176
     1
 40
1.0
176
     1
 90
        0
176
     1
 62
    18
420
        0
176
     1
 90
       50
176
     1
 90
        3
176
     1
 62
     5
420
      255
176
     1
290
     0
176
     1
 90
       50
176
     1
 90
       50
176
     1
 90
       50
176
     1
290
     0
176
     1
 90
       50
176
     1
 62
   256
176
     0
 40
1.0
176
     0
 90
        2
176
     1
  1
strokes_ogs.tif
176
     1
290
     0
176
     1
 40
1.0
176
     1
 40
1.0
176
     1
  0
VISUALSTYLE
  5
30
102
{ACAD_REACTORS
330
29
102
}
330
29
100
AcDbVisualStyle
  2
Wireframe
 70
     5
177
     3
291
     0
 70
    58
 90
        0
176
     1
 90
        2
176
     1
 90
        0
176
     1
 90
        0
176
     1
 40
0.6
176
     1
 40
30.0
176
     1
 62
     7
420
 16777215
176
     1
 90
        1
176
     1
 90
        4
176
     1
 62
     7
176
     1
 62
   257
176
     1
 90
        1
176
     1
 90
        1
176
     1
 40
1.0
176
     1
 90
        0
176
     1
 62
   257
176
     1
 40
1.0
176
     1
 90
        1
176
     1
 90
        6
176
     1
 90
        2
176
     1
 62
     7
176
     1
 90
        3
176
     1
 90
        0
176
     1
 90
        0
176
     1
290
     0
176
     1
 90
        1
176
     1
 40
0.0
176
     1
 90
        0
176
     1
290
     0
176
     1
290
     1
176
     1
290
     1
176
     1
290
     0
176
     1
290
     0
176
     1
290
     0
176
     1
290
     0
176
     1
290
     0
176
     1
290
     0
176
     1
 90
       50
176
     1
 40
0.0
176
     1
 40
1.0
176
     1
 90
        0
176
     1
 62
    18
420
        0
176
     1
 90
       50
176
     1
 90
        3
176
     1
 62
     5
420
      255
176
     1
290
     0
176
     1
 90
       50
176
     1
 90
       50
176
     1
 90
       50
176
     1
290
     0
176
     1
 90
       50
176
     1
 62
   256
176
     0
 40
1.0
176
     0
 90
        2
176
     1
  1
strokes_ogs.tif
176
     1
290
     0
176
     1
 40
1.0
176
     1
 40
1.0
176
     1
  0
VISUALSTYLE
  5
3C
102
{ACAD_REACTORS
330
29
102
}
330
29
100
AcDbVisualStyle
  2
X-Ray
 70
    25
177
     3
291
     0
 70
    58
 90
        2
176
     1
 90
        2
176
     1
 90
        1
176
     1
 90
        1
176
     1
 40
0.5
176
     1
 40
30.0
176
     1
 62
     7
420
 16777215
176
     1
 90
        1
176
     1
 90
        0
176
     1
 62
     7
176
     1
 62
   257
176
     1
 90
        1
176
     1
 90
        1
176
     1
 40
1.0
176
     1
 90
        8
176
     1
 62
     7
176
     1
 40
1.0
176
     1
 90
        1
176
     1
 90
        6
176
     1
 90
        2
176
     1
 62
     7
176
     1
 90
        3
176
     1
 90
        0
176
     1
 90
        0
176
     1
290
     0
176
     1
 90
       13
176
     1
 40
0.0
176
     1
 90
        0
176
     1
290
     0
176
     1
290
     1
176
     1
290
     1
176
     1
290
     0
176
     1
290
     0
176
     1
290
     0
176
     1
290
     0
176
     1
290
     0
176
     1
290
     0
176
     1
 90
       50
176
     1
 40
0.0
176
     1
 40
1.0
176
     1
 90
        0
176
     1
 62
    18
420
        0
176
     1
 90
       50
176
     1
 90
        3
176
     1
 62
     5
420
      255
176
     1
290
     0
176
     1
 90
       50
176
     1
 90
       50
176
     1
 90
       50
176
     1
290
     0
176
     1
 90
       50
176
     1
 62
   256
176
     0
 40
1.0
176
     0
 90
        2
176
     1
  1
strokes_ogs.tif
176
     1
290
     0
176
     1
 40
1.0
176
     1
 40
1.0
176
     1
  0
DICTIONARYVAR
  5
A8
102
{ACAD_REACTORS
330
A3
102
}
330
A3
100
DictionaryVariables
280
     0
  1
1:1
  0
DICTIONARYVAR
  5
A5
102
{ACAD_REACTORS
330
A3
102
}
330
A3
100
DictionaryVariables
280
     0
  1
STANDARD
  0
DICTIONARYVAR
  5
A4
102
{ACAD_REACTORS
330
A3
102
}
330
A3
100
DictionaryVariables
280
     0
  1
STANDARD
  0
DICTIONARYVAR
  5
A6
102
{ACAD_REACTORS
330
A3
102
}
330
A3
100
DictionaryVariables
280
     0
  1
Imperial24
  0
DICTIONARYVAR
  5
A7
102
{ACAD_REACTORS
330
A3
102
}
330
A3
100
DictionaryVariables
280
     0
  1
Imperial24
  0
DICTIONARY
  5
1A
330
19
100
AcDbDictionary
280
     1
281
     1
  3
BUMPTILE
360
1C
  3
DIFFUSETILE
360
1B
  3
OPACITYTILE
360
1F
  3
REFLECTIONTILE
360
1E
  3
REFRACTIONTILE
360
20
  3
SPECULARTILE
360
1D
  0
DICTIONARY
  5
12
330
11
100
AcDbDictionary
280
     1
281
     1
  3
BUMPTILE
360
14
  3
DIFFUSETILE
360
13
  3
OPACITYTILE
360
17
  3
REFLECTIONTILE
360
16
  3
REFRACTIONTILE
360
18
  3
SPECULARTILE
360
15
  0
DICTIONARY
  5
22
330
21
100
AcDbDictionary
280
     1
281
     1
  3
BUMPTILE
360
24
  3
DIFFUSETILE
360
23
  3
OPACITYTILE
360
27
  3
REFLECTIONTILE
360
26
  3
REFRACTIONTILE
360
28
  3
SPECULARTILE
360
25
  0
DICTIONARY
  5
A9
330
65
100
AcDbDictionary
280
     1
281
     1
  3
ACAD_ROUNDTRIP_2008_TABLESTYLE_CELLSTYLEMAP
360
AA
  0
XRECORD
  5
1C
102
{ACAD_REACTORS
330
1A
102
}
330
1A
100
AcDbXrecord
280
     1
270
     1
271
     1
  0
XRECORD
  5
1B
102
{ACAD_REACTORS
330
1A
102
}
330
1A
100
AcDbXrecord
280
     1
270
     1
271
     1
  0
XRECORD
  5
1F
102
{ACAD_REACTORS
330
1A
102
}
330
1A
100
AcDbXrecord
280
     1
270
     1
271
     1
  0
XRECORD
  5
1E
102
{ACAD_REACTORS
330
1A
102
}
330
1A
100
AcDbXrecord
280
     1
270
     1
271
     1
  0
XRECORD
  5
20
102
{ACAD_REACTORS
330
1A
102
}
330
1A
100
AcDbXrecord
280
     1
270
     1
271
     1
  0
XRECORD
  5
1D
102
{ACAD_REACTORS
330
1A
102
}
330
1A
100
AcDbXrecord
280
     1
270
     1
271
     1
  0
XRECORD
  5
14
102
{ACAD_REACTORS
330
12
102
}
330
12
100
AcDbXrecord
280
     1
270
     1
271
     1
  0
XRECORD
  5
13
102
{ACAD_REACTORS
330
12
102
}
330
12
100
AcDbXrecord
280
     1
270
     1
271
     1
  0
XRECORD
  5
17
102
{ACAD_REACTORS
330
12
102
}
330
12
100
AcDbXrecord
280
     1
270
     1
271
     1
  0
XRECORD
  5
16
102
{ACAD_REACTORS
330
12
102
}
330
12
100
AcDbXrecord
280
     1
270
     1
271
     1
  0
XRECORD
  5
18
102
{ACAD_REACTORS
330
12
102
}
330
12
100
AcDbXrecord
280
     1
270
     1
271
     1
  0
XRECORD
  5
15
102
{ACAD_REACTORS
330
12
102
}
330
12
100
AcDbXrecord
280
     1
270
     1
271
     1
  0
XRECORD
  5
24
102
{ACAD_REACTORS
330
22
102
}
330
22
100
AcDbXrecord
280
     1
270
     1
271
     1
  0
XRECORD
  5
23
102
{ACAD_REACTORS
330
22
102
}
330
22
100
AcDbXrecord
280
     1
270
     1
271
     1
  0
XRECORD
  5
27
102
{ACAD_REACTORS
330
22
102
}
330
22
100
AcDbXrecord
280
     1
270
     1
271
     1
  0
XRECORD
  5
26
102
{ACAD_REACTORS
330
22
102
}
330
22
100
AcDbXrecord
280
     1
270
     1
271
     1
  0
XRECORD
  5
28
102
{ACAD_REACTORS
330
22
102
}
330
22
100
AcDbXrecord
280
     1
270
     1
271
     1
  0
XRECORD
  5
25
102
{ACAD_REACTORS
330
22
102
}
330
22
100
AcDbXrecord
280
     1
270
     1
271
     1
  0
CELLSTYLEMAP
  5
AA
102
{ACAD_REACTORS
330
A9
102
}
330
A9
100
AcDbCellStyleMap
 90
        3
300
CELLSTYLE
  1
TABLEFORMAT_BEGIN
 90
        5
170
     1
 91
        0
 92
    32768
 62
   257
 93
        1
300
CONTENTFORMAT
  1
CONTENTFORMAT_BEGIN
 90
        0
 91
        0
 92
      512
 93
        0
300

 40
0.0
140
1.0
 94
        5
 62
     0
340
55
144
0.25
309
CONTENTFORMAT_END
171
     0
 94
        0
309
TABLEFORMAT_END
  1
CELLSTYLE_BEGIN
 90
        1
 91
        1
300
_TITLE
309
CELLSTYLE_END
300
CELLSTYLE
  1
TABLEFORMAT_BEGIN
 90
        5
170
     1
 91
        0
 92
        0
 62
   257
 93
        1
300
CONTENTFORMAT
  1
CONTENTFORMAT_BEGIN
 90
        0
 91
        0
 92
      512
 93
        0
300

 40
0.0
140
1.0
 94
        5
 62
     0
340
55
144
0.18
309
CONTENTFORMAT_END
171
     0
 94
        0
309
TABLEFORMAT_END
  1
CELLSTYLE_BEGIN
 90
        2
 91
        1
300
_HEADER
309
CELLSTYLE_END
300
CELLSTYLE
  1
TABLEFORMAT_BEGIN
 90
        5
170
     1
 91
        0
 92
        0
 62
   257
 93
        1
300
CONTENTFORMAT
  1
CONTENTFORMAT_BEGIN
 90
        0
 91
        0
 92
      512
 93
        0
300

 40
0.0
140
1.0
 94
        2
 62
     0
340
55
144
0.18
309
CONTENTFORMAT_END
171
     0
 94
        0
309
TABLEFORMAT_END
  1
CELLSTYLE_BEGIN
 90
        3
 91
        2
300
_DATA
309
CELLSTYLE_END
  0
ENDSEC
  0
EOF
