0
SECTION
2
HEADER
9
$INSUNITS
70
4
9
$ACADVER
1
AC1014
9
$HANDSEED
5
FFFF
0
ENDSEC
0
SECTION
2
TABLES
0
TABLE
2
VPORT
5
8
100
AcDbSymbolTable
0
ENDTAB
0
TABLE
2
LTYPE
5
5
100
AcDbSymbolTable
0
LTYPE
5
14
100
AcDbSymbolTableRecord
100
AcDbLinetypeTableRecord
2
BYBLOCK
70
0
0
LTYPE
5
15
100
AcDbSymbolTableRecord
100
AcDbLinetypeTableRecord
2
BYLAYER
70
0
0
ENDTAB
0
TABLE
2
LAYER
5
2
100
AcDbSymbolTable
70
2
0
LAYER
5
50
100
AcDbSymbolTableRecord
100
AcDbLayerTableRecord
2
0
70
0
6
CONTINUOUS
0
ENDTAB
0
TABLE
2
STYLE
5
3
100
AcDbSymbolTable
70
1
0
STYLE
5
11
100
AcDbSymbolTableRecord
100
AcDbTextStyleTableRecord
2
STANDARD
70
0
0
ENDTAB
0
TABLE
2
VIEW
5
6
100
AcDbSymbolTable
70
0
0
ENDTAB
0
TABLE
2
UCS
5
7
100
AcDbSymbolTable
70
0
0
ENDTAB
0
TABLE
2
APPID
5
9
100
AcDbSymbolTable
70
2
0
APPID
5
12
100
AcDbSymbolTableRecord
100
AcDbRegAppTableRecord
2
ACAD
70
0
0
ENDTAB
0
TABLE
2
DIMSTYLE
5
A
100
AcDbSymbolTable
70
1
0
ENDTAB
0
TABLE
2
BLOCK_RECORD
5
1
100
AcDbSymbolTable
70
1
0
BLOCK_RECORD
5
1F
100
AcDbSymbolTableRecord
100
AcDbBlockTableRecord
2
*MODEL_SPACE
0
BLOCK_RECORD
5
1B
100
AcDbSymbolTableRecord
100
AcDbBlockTableRecord
2
*PAPER_SPACE
0
ENDTAB
0
ENDSEC
0
SECTION
2
BLOCKS
0
BLOCK
5
20
100
AcDbEntity
100
AcDbBlockBegin
2
*MODEL_SPACE
0
ENDBLK
5
21
100
AcDbEntity
100
AcDbBlockEnd
0
BLOCK
5
1C
100
AcDbEntity
100
AcDbBlockBegin
2
*PAPER_SPACE
0
ENDBLK
5
1D
100
AcDbEntity
100
AcDbBlockEnd
0
ENDSEC
0
SECTION
2
ENTITIES
0
LWPOLYLINE
5
100
100
AcDbEntity
8
0
100
AcDbPolyline
90
20
70
1
43
0.0
10
-32.488403788951558
20
13.351999999999997
42
0.28027168586733769
10
-20.944014955146354
20
20.374786062561089
42
-0.077063089433054829
10
-20.85355339059327
20
20.49844660940672
10
-17.146446609406723
20
24.205553390593266
42
-0.19891236737965592
10
-16.79289321881345
20
24.35199999999999
10
16.792893218813447
20
24.35199999999999
42
-0.1989123673796572
10
17.146446609406723
20
24.205553390593266
10
20.853553390593277
20
20.498446609406713
42
-0.1989123673796587
10
21
20
20.14489321881344
10
21
20
-13.440893218813452
42
-0.19891236737966042
10
20.853553390593266
20
-13.794446609406732
10
17.146446609406723
20
-17.501553390593276
42
-0.1989123673796557
10
16.79289321881345
20
-17.648000000000003
10
-16.792893218813447
20
-17.648000000000007
42
-0.19891236737965801
10
-17.146446609406723
20
-17.501553390593276
10
-20.85355339059328
20
-13.794446609406744
42
-0.07706308943304345
10
-20.944014955146351
20
-13.670786062561131
42
0.28027168586733842
10
-32.488403788951565
20
-6.6480000000000059
10
-80
20
-6.6480000000000032
10
-80
20
13.351999999999997
0
CIRCLE
5
101
100
AcDbEntity
8
0
100
AcDbCircle
10
-63.473270608584571
20
2.6517647842577787
30
0
40
2.4999999999999951
210
0
220
0
230
1
0
CIRCLE
5
102
100
AcDbEntity
8
0
100
AcDbCircle
10
-43.288645744323745
20
2.6517636370644784
30
0
40
2.4999999999999951
210
0
220
0
230
1
0
CIRCLE
5
103
100
AcDbEntity
8
0
100
AcDbCircle
10
4.3368086899420059e-16
20
3.3519999999999941
30
0
40
5.5
210
0
220
0
230
1
0
CIRCLE
5
104
100
AcDbEntity
8
0
100
AcDbCircle
10
-15.5
20
-12.148000000000005
30
0
40
1.2294999999999989
210
0
220
0
230
1
0
CIRCLE
5
105
100
AcDbEntity
8
0
100
AcDbCircle
10
15.5
20
-12.148000000000005
30
0
40
1.2294999999999989
210
0
220
0
230
1
0
CIRCLE
5
106
100
AcDbEntity
8
0
100
AcDbCircle
10
15.5
20
18.851999999999997
30
0
40
1.2294999999999989
210
0
220
0
230
1
0
CIRCLE
5
107
100
AcDbEntity
8
0
100
AcDbCircle
10
-15.5
20
18.851999999999997
30
0
40
1.2294999999999989
210
0
220
0
230
1
0
CIRCLE
5
108
100
AcDbEntity
8
0
100
AcDbCircle
10
-63.473270608584571
20
2.6517647842577787
30
0
40
2.4999999999999951
210
0
220
-0
230
1
0
CIRCLE
5
109
100
AcDbEntity
8
0
100
AcDbCircle
10
-43.288645744323745
20
2.6517636370644784
30
0
40
2.4999999999999951
210
0
220
-0
230
1
0
LWPOLYLINE
5
110
100
AcDbEntity
8
0
100
AcDbPolyline
90
20
70
1
43
0.0
10
-32.488403788951558
20
13.351999999999997
42
0.28027168586733764
10
-20.944014955146358
20
20.374786062561085
42
-0.077063089433058743
10
-20.85355339059327
20
20.49844660940672
10
-17.146446609406723
20
24.205553390593266
42
-0.19891236737965592
10
-16.79289321881345
20
24.35199999999999
10
16.792893218813447
20
24.35199999999999
42
-0.1989123673796572
10
17.146446609406723
20
24.205553390593266
10
20.853553390593277
20
20.498446609406713
42
-0.1989123673796587
10
21
20
20.14489321881344
10
21
20
-13.440893218813452
42
-0.19891236737966042
10
20.853553390593266
20
-13.794446609406732
10
17.146446609406723
20
-17.501553390593276
42
-0.1989123673796557
10
16.79289321881345
20
-17.648000000000003
10
-16.792893218813447
20
-17.648000000000007
42
-0.19891236737965801
10
-17.146446609406723
20
-17.501553390593276
10
-20.85355339059328
20
-13.794446609406744
42
-0.07706308943304345
10
-20.944014955146351
20
-13.670786062561131
42
0.28027168586733842
10
-32.488403788951565
20
-6.6480000000000059
10
-80
20
-6.6480000000000032
10
-80
20
13.351999999999997
0
CIRCLE
5
111
100
AcDbEntity
8
0
100
AcDbCircle
10
4.3368086899420059e-16
20
3.3519999999999941
30
0
40
5.5
210
0
220
-2.4651903288156619e-32
230
1
0
CIRCLE
5
112
100
AcDbEntity
8
0
100
AcDbCircle
10
-15.5
20
-12.148000000000005
30
0
40
1.2294999999999989
210
0
220
-0
230
1
0
CIRCLE
5
113
100
AcDbEntity
8
0
100
AcDbCircle
10
15.5
20
-12.148000000000005
30
0
40
1.2294999999999989
210
0
220
-0
230
1
0
CIRCLE
5
114
100
AcDbEntity
8
0
100
AcDbCircle
10
15.5
20
18.851999999999997
30
0
40
1.2294999999999989
210
0
220
-0
230
1
0
CIRCLE
5
115
100
AcDbEntity
8
0
100
AcDbCircle
10
-15.5
20
18.851999999999997
30
0
40
1.2294999999999989
210
0
220
-0
230
1
0
ENDSEC
0
SECTION
2
OBJECTS
0
DICTIONARY
5
C
100
AcDbDictionary
3
ACAD_GROUP
350
D
3
ACAD_MLINESTYLE
350
17
0
DICTIONARY
5
D
100
AcDbDictionary
0
DICTIONARY
5
1A
330
C
100
AcDbDictionary
0
DICTIONARY
5
17
100
AcDbDictionary
0
ENDSEC
0
EOF
