999
"DXF R12 Output" (www.mydxf.blogspot.com)
 0 
SECTION
 2 
HEADER
 9 
$ACADVER
 1 
AC1009
 9 
$EXTMIN
 10 
 0 
 20 
 0 
 9 
$EXTMAX
 10 
 8.5 
 20 
 11 
 0 
ENDSEC
 0 
SECTION
 2 
ENTITIES
0
LINE
8
Layer 1
10
98.584563
20
-213.847280
11
282.310343
21
-213.847280
0
LINE
8
Layer 1
10
282.310343
20
-213.847280
11
282.310343
21
-314.672400
0
LINE
8
Layer 1
10
282.310343
20
-314.672400
11
98.584563
21
-314.672400
0
LINE
8
Layer 1
10
98.584563
20
-314.672400
11
98.584563
21
-213.847280
0
LINE
8
Layer 1
10
138.914610
20
-195.922820
11
309.197040
21
-195.922820
0
LINE
8
Layer 1
10
309.197040
20
-195.922820
11
309.197040
21
-263.139568
0
LINE
8
Layer 1
10
309.197040
20
-263.139568
11
138.914610
21
-263.139568
0
LINE
8
Layer 1
10
138.914610
20
-263.139568
11
138.914610
21
-195.922820
0
LINE
8
Layer 1
10
98.584563
20
-213.847280
11
282.310343
21
-213.847280
0
LINE
8
Layer 1
10
282.310343
20
-213.847280
11
282.310343
21
-314.672400
0
LINE
8
Layer 1
10
282.310343
20
-314.672400
11
98.584563
21
-314.672400
0
LINE
8
Layer 1
10
98.584563
20
-314.672400
11
98.584563
21
-213.847280
0
LINE
8
Layer 1
10
98.584563
20
-213.847280
11
282.310343
21
-213.847280
0
LINE
8
Layer 1
10
282.310343
20
-213.847280
11
282.310343
21
-314.672400
0
LINE
8
Layer 1
10
282.310343
20
-314.672400
11
98.584563
21
-314.672400
0
LINE
8
Layer 1
10
98.584563
20
-314.672400
11
98.584563
21
-213.847280
0
LINE
8
Layer 1
10
98.584563
20
-213.847280
11
282.310343
21
-213.847280
0
LINE
8
Layer 1
10
282.310343
20
-213.847280
11
282.310343
21
-314.672400
0
LINE
8
Layer 1
10
282.310343
20
-314.672400
11
98.584563
21
-314.672400
0
LINE
8
Layer 1
10
98.584563
20
-314.672400
11
98.584563
21
-213.847280
0
LINE
8
Layer 1
10
98.584563
20
-213.847280
11
282.310343
21
-213.847280
0
LINE
8
Layer 1
10
282.310343
20
-213.847280
11
282.310343
21
-314.672400
0
LINE
8
Layer 1
10
282.310343
20
-314.672400
11
98.584563
21
-314.672400
0
LINE
8
Layer 1
10
98.584563
20
-314.672400
11
98.584563
21
-213.847280
0
LINE
8
Layer 1
10
98.584563
20
-213.847280
11
282.310343
21
-213.847280
0
LINE
8
Layer 1
10
282.310343
20
-213.847280
11
282.310343
21
-314.672400
0
LINE
8
Layer 1
10
282.310343
20
-314.672400
11
98.584563
21
-314.672400
0
LINE
8
Layer 1
10
98.584563
20
-314.672400
11
98.584563
21
-213.847280
0
LINE
8
Layer 1
10
98.584563
20
-213.847280
11
282.310343
21
-213.847280
0
LINE
8
Layer 1
10
282.310343
20
-213.847280
11
282.310343
21
-314.672400
0
LINE
8
Layer 1
10
282.310343
20
-314.672400
11
98.584563
21
-314.672400
0
LINE
8
Layer 1
10
98.584563
20
-314.672400
11
98.584563
21
-213.847280
0
LINE
8
Layer 1
10
98.584563
20
-213.847280
11
282.310343
21
-213.847280
0
LINE
8
Layer 1
10
282.310343
20
-213.847280
11
282.310343
21
-314.672400
0
LINE
8
Layer 1
10
282.310343
20
-314.672400
11
98.584563
21
-314.672400
0
LINE
8
Layer 1
10
98.584563
20
-314.672400
11
98.584563
21
-213.847280
0
LINE
8
Layer 1
10
98.584563
20
-213.847280
11
282.310343
21
-213.847280
0
LINE
8
Layer 1
10
282.310343
20
-213.847280
11
282.310343
21
-314.672400
0
LINE
8
Layer 1
10
282.310343
20
-314.672400
11
98.584563
21
-314.672400
0
LINE
8
Layer 1
10
98.584563
20
-314.672400
11
98.584563
21
-213.847280
0
LINE
8
Layer 1
10
98.584563
20
-213.847280
11
282.310343
21
-213.847280
0
LINE
8
Layer 1
10
282.310343
20
-213.847280
11
282.310343
21
-314.672400
0
LINE
8
Layer 1
10
282.310343
20
-314.672400
11
98.584563
21
-314.672400
0
LINE
8
Layer 1
10
98.584563
20
-314.672400
11
98.584563
21
-213.847280
0
LINE
8
Layer 1
10
98.584563
20
-213.847280
11
282.310343
21
-213.847280
0
LINE
8
Layer 1
10
282.310343
20
-213.847280
11
282.310343
21
-314.672400
0
LINE
8
Layer 1
10
282.310343
20
-314.672400
11
98.584563
21
-314.672400
0
LINE
8
Layer 1
10
98.584563
20
-314.672400
11
98.584563
21
-213.847280
0
LINE
8
Layer 1
10
98.584563
20
-213.847280
11
282.310343
21
-213.847280
0
LINE
8
Layer 1
10
282.310343
20
-213.847280
11
282.310343
21
-314.672400
0
LINE
8
Layer 1
10
282.310343
20
-314.672400
11
98.584563
21
-314.672400
0
LINE
8
Layer 1
10
98.584563
20
-314.672400
11
98.584563
21
-213.847280
0
LINE
8
Layer 1
10
98.584563
20
-213.847280
11
282.310343
21
-213.847280
0
LINE
8
Layer 1
10
282.310343
20
-213.847280
11
282.310343
21
-314.672400
0
LINE
8
Layer 1
10
282.310343
20
-314.672400
11
98.584563
21
-314.672400
0
LINE
8
Layer 1
10
98.584563
20
-314.672400
11
98.584563
21
-213.847280
0
LINE
8
Layer 1
10
3.000000
20
300.000000
11
-3.000000
21
294.000000
0
LINE
8
Layer 1
10
0.000000
20
302.000000
11
0.000000
21
292.000000
0
LINE
8
Layer 1
10
8.000000
20
293.000000
11
4.000000
21
289.000000
0
LINE
8
Layer 1
10
6.000000
20
295.000000
11
2.000000
21
291.000000
0
LINE
8
Layer 1
10
4.000000
20
297.000000
11
0.000000
21
293.000000
0
LINE
8
Capa 1
10
26.026941
20
221.330318
11
27.350073
21
217.412728
0
LINE
8
Capa 1
10
27.350073
20
217.412728
11
28.677193
21
221.358216
0
LINE
8
Capa 1
10
28.677193
20
221.358216
11
28.832621
21
221.788633
0
LINE
8
Capa 1
10
28.832621
20
221.788633
11
29.003992
21
222.007827
0
LINE
8
Capa 1
10
29.003992
20
222.007827
11
29.330789
21
222.107461
0
LINE
8
Capa 1
10
29.330789
20
222.107461
11
29.609764
21
222.031739
0
LINE
8
Capa 1
10
29.609764
20
222.031739
11
29.813015
21
221.828486
0
LINE
8
Capa 1
10
29.813015
20
221.828486
11
29.888737
21
221.577411
0
LINE
8
Capa 1
10
29.888737
20
221.577411
11
29.864825
21
221.386114
0
LINE
8
Capa 1
10
29.864825
20
221.386114
11
29.805045
21
221.186847
0
LINE
8
Capa 1
10
29.805045
20
221.186847
11
29.733309
21
220.987580
0
LINE
8
Capa 1
10
29.733309
20
220.987580
11
28.318512
21
217.169622
0
LINE
8
Capa 1
10
28.318512
20
217.169622
11
28.167069
21
216.751161
0
LINE
8
Capa 1
10
28.167069
20
216.751161
11
27.991714
21
216.404436
0
LINE
8
Capa 1
10
27.991714
20
216.404436
11
27.724696
21
216.161330
0
LINE
8
Capa 1
10
27.724696
20
216.161330
11
27.322177
21
216.065683
0
LINE
8
Capa 1
10
27.322177
20
216.065683
11
26.915673
21
216.161330
0
LINE
8
Capa 1
10
26.915673
20
216.161330
11
26.648654
21
216.404436
0
LINE
8
Capa 1
10
26.648654
20
216.404436
11
26.473299
21
216.755147
0
LINE
8
Capa 1
10
26.473299
20
216.755147
11
26.321856
21
217.169622
0
LINE
8
Capa 1
10
26.321856
20
217.169622
11
24.930973
21
220.955696
0
LINE
8
Capa 1
10
24.930973
20
220.955696
11
24.855251
21
221.158949
0
LINE
8
Capa 1
10
24.855251
20
221.158949
11
24.791484
21
221.374158
0
LINE
8
Capa 1
10
24.791484
20
221.374158
11
24.767573
21
221.569440
0
LINE
8
Capa 1
10
24.767573
20
221.569440
11
24.930973
21
221.940076
0
LINE
8
Capa 1
10
24.930973
20
221.940076
11
25.341462
21
222.107461
0
LINE
8
Capa 1
10
25.341462
20
222.107461
11
25.767894
21
221.920149
0
LINE
8
Capa 1
10
25.767894
20
221.920149
11
26.026941
21
221.330318
0
LINE
8
Capa 1
10
26.026941
20
221.330318
11
26.026941
21
221.330318
0
LINE
8
Capa 1
10
34.866670
20
211.302015
11
30.756951
21
211.758495
0
LINE
8
Capa 1
10
30.756951
20
211.758495
11
33.771910
21
208.888283
0
LINE
8
Capa 1
10
33.771910
20
208.888283
11
34.096313
21
208.565516
0
LINE
8
Capa 1
10
34.096313
20
208.565516
11
34.222546
21
208.317566
0
LINE
8
Capa 1
10
34.222546
20
208.317566
11
34.174734
21
207.979280
0
LINE
8
Capa 1
10
34.174734
20
207.979280
11
33.988207
21
207.758445
0
LINE
8
Capa 1
10
33.988207
20
207.758445
11
33.718100
21
207.660135
0
LINE
8
Capa 1
10
33.718100
20
207.660135
11
33.458547
21
207.697617
0
LINE
8
Capa 1
10
33.458547
20
207.697617
11
33.295279
21
207.800134
0
LINE
8
Capa 1
10
33.295279
20
207.800134
11
33.139947
21
207.938527
0
LINE
8
Capa 1
10
33.139947
20
207.938527
11
32.989666
21
208.087755
0
LINE
8
Capa 1
10
32.989666
20
208.087755
11
30.127342
21
210.983533
0
LINE
8
Capa 1
10
30.127342
20
210.983533
11
29.812090
21
211.297637
0
LINE
8
Capa 1
10
29.812090
20
211.297637
11
29.571960
21
211.603095
0
LINE
8
Capa 1
10
29.571960
20
211.603095
11
29.464478
21
211.947836
0
LINE
8
Capa 1
10
29.464478
20
211.947836
11
29.547904
21
212.353064
0
LINE
8
Capa 1
10
29.547904
20
212.353064
11
29.806386
21
212.681060
0
LINE
8
Capa 1
10
29.806386
20
212.681060
11
30.139561
21
212.820319
0
LINE
8
Capa 1
10
30.139561
20
212.820319
11
30.531521
21
212.831028
0
LINE
8
Capa 1
10
30.531521
20
212.831028
11
30.971166
21
212.793117
0
LINE
8
Capa 1
10
30.971166
20
212.793117
11
34.990323
21
212.453622
0
LINE
8
Capa 1
10
34.990323
20
212.453622
11
35.206535
21
212.436350
0
LINE
8
Capa 1
10
35.206535
20
212.436350
11
35.428528
21
212.403191
0
LINE
8
Capa 1
10
35.428528
20
212.403191
11
35.615620
21
212.342333
0
LINE
8
Capa 1
10
35.615620
20
212.342333
11
35.882474
21
212.037605
0
LINE
8
Capa 1
10
35.882474
20
212.037605
11
35.860696
21
211.594836
0
LINE
8
Capa 1
10
35.860696
20
211.594836
11
35.510716
21
211.287519
0
LINE
8
Capa 1
10
35.510716
20
211.287519
11
34.866670
21
211.302015
0
LINE
8
Capa 1
10
34.866670
20
211.302015
11
34.866670
21
211.302015
0
LINE
8
Capa 1
10
25.808090
20
206.431250
11
27.373029
21
209.743502
0
LINE
8
Capa 1
10
27.373029
20
209.743502
11
28.942686
21
206.407664
0
LINE
8
Capa 1
10
28.942686
20
206.407664
11
29.126519
21
206.043754
0
LINE
8
Capa 1
10
29.126519
20
206.043754
11
29.329205
21
205.858429
0
LINE
8
Capa 1
10
29.329205
20
205.858429
11
29.715728
21
205.774192
0
LINE
8
Capa 1
10
29.715728
20
205.774192
11
30.045685
21
205.838213
0
LINE
8
Capa 1
10
30.045685
20
205.838213
11
30.286083
21
206.010059
0
LINE
8
Capa 1
10
30.286083
20
206.010059
11
30.375643
21
206.222339
0
LINE
8
Capa 1
10
30.375643
20
206.222339
11
30.347362
21
206.384078
0
LINE
8
Capa 1
10
30.347362
20
206.384078
11
30.276655
21
206.552554
0
LINE
8
Capa 1
10
30.276655
20
206.552554
11
30.191810
21
206.721029
0
LINE
8
Capa 1
10
30.191810
20
206.721029
11
28.518454
21
209.949044
0
LINE
8
Capa 1
10
28.518454
20
209.949044
11
28.339333
21
210.302846
0
LINE
8
Capa 1
10
28.339333
20
210.302846
11
28.131932
21
210.595995
0
LINE
8
Capa 1
10
28.131932
20
210.595995
11
27.816116
21
210.801536
0
LINE
8
Capa 1
10
27.816116
20
210.801536
11
27.340035
21
210.882404
0
LINE
8
Capa 1
10
27.340035
20
210.882404
11
26.859239
21
210.801536
0
LINE
8
Capa 1
10
26.859239
20
210.801536
11
26.543423
21
210.595995
0
LINE
8
Capa 1
10
26.543423
20
210.595995
11
26.336020
21
210.299476
0
LINE
8
Capa 1
10
26.336020
20
210.299476
11
26.156901
21
209.949044
0
LINE
8
Capa 1
10
26.156901
20
209.949044
11
24.511827
21
206.747987
0
LINE
8
Capa 1
10
24.511827
20
206.747987
11
24.422267
21
206.576141
0
LINE
8
Capa 1
10
24.422267
20
206.576141
11
24.346848
21
206.394185
0
LINE
8
Capa 1
10
24.346848
20
206.394185
11
24.318566
21
206.229078
0
LINE
8
Capa 1
10
24.318566
20
206.229078
11
24.511827
21
205.915713
0
LINE
8
Capa 1
10
24.511827
20
205.915713
11
24.997336
21
205.774192
0
LINE
8
Capa 1
10
24.997336
20
205.774192
11
25.501699
21
205.932559
0
LINE
8
Capa 1
10
25.501699
20
205.932559
11
25.808090
21
206.431250
0
LINE
8
Capa 1
10
25.808090
20
206.431250
11
25.808090
21
206.431250
0
LINE
8
Capa 1
10
33.154405
20
219.007040
11
30.704222
21
215.676155
0
LINE
8
Capa 1
10
30.704222
20
215.676155
11
34.697381
21
216.852083
0
LINE
8
Capa 1
10
34.697381
20
216.852083
11
35.139107
21
216.971641
0
LINE
8
Capa 1
10
35.139107
20
216.971641
11
35.416955
21
216.956987
0
LINE
8
Capa 1
10
35.416955
20
216.956987
11
35.686013
21
216.746438
0
LINE
8
Capa 1
10
35.686013
20
216.746438
11
35.783999
21
216.474483
0
LINE
8
Capa 1
10
35.783999
20
216.474483
11
35.734084
21
216.191408
0
LINE
8
Capa 1
10
35.734084
20
216.191408
11
35.571848
21
215.985370
0
LINE
8
Capa 1
10
35.571848
20
215.985370
11
35.401432
21
215.895234
0
LINE
8
Capa 1
10
35.401432
20
215.895234
11
35.203913
21
215.829908
0
LINE
8
Capa 1
10
35.203913
20
215.829908
11
34.999537
21
215.774376
0
LINE
8
Capa 1
10
34.999537
20
215.774376
11
31.060555
21
214.743417
0
LINE
8
Capa 1
10
31.060555
20
214.743417
11
30.630907
21
214.627452
0
LINE
8
Capa 1
10
30.630907
20
214.627452
11
30.246308
21
214.572221
0
LINE
8
Capa 1
10
30.246308
20
214.572221
11
29.894012
21
214.651510
0
LINE
8
Capa 1
10
29.894012
20
214.651510
11
29.584787
21
214.926372
0
LINE
8
Capa 1
10
29.584787
20
214.926372
11
29.429975
21
215.314222
0
LINE
8
Capa 1
10
29.429975
20
215.314222
11
29.475960
21
215.672391
0
LINE
8
Capa 1
10
29.475960
20
215.672391
11
29.662666
21
216.017193
0
LINE
8
Capa 1
10
29.662666
20
216.017193
11
29.915319
21
216.378982
0
LINE
8
Capa 1
10
29.915319
20
216.378982
11
32.218910
21
219.689930
0
LINE
8
Capa 1
10
32.218910
20
219.689930
11
32.341973
21
219.868539
0
LINE
8
Capa 1
10
32.341973
20
219.868539
11
32.481687
21
220.044212
0
LINE
8
Capa 1
10
32.481687
20
220.044212
11
32.627938
21
220.175809
0
LINE
8
Capa 1
10
32.627938
20
220.175809
11
33.025267
21
220.254548
0
LINE
8
Capa 1
10
33.025267
20
220.254548
11
33.397828
21
220.014303
0
LINE
8
Capa 1
10
33.397828
20
220.014303
11
33.488982
21
219.557552
0
LINE
8
Capa 1
10
33.488982
20
219.557552
11
33.154405
21
219.007040
0
LINE
8
Capa 1
10
33.154405
20
219.007040
11
33.154405
21
219.007040
0
LINE
8
Capa 1
10
19.831660
20
217.746405
11
23.162545
21
215.296222
0
LINE
8
Capa 1
10
23.162545
20
215.296222
11
21.986617
21
219.289381
0
LINE
8
Capa 1
10
21.986617
20
219.289381
11
21.867059
21
219.731107
0
LINE
8
Capa 1
10
21.867059
20
219.731107
11
21.881713
21
220.008955
0
LINE
8
Capa 1
10
21.881713
20
220.008955
11
22.092262
21
220.278013
0
LINE
8
Capa 1
10
22.092262
20
220.278013
11
22.364217
21
220.375999
0
LINE
8
Capa 1
10
22.364217
20
220.375999
11
22.647292
21
220.326084
0
LINE
8
Capa 1
10
22.647292
20
220.326084
11
22.853330
21
220.163848
0
LINE
8
Capa 1
10
22.853330
20
220.163848
11
22.943466
21
219.993432
0
LINE
8
Capa 1
10
22.943466
20
219.993432
11
23.008792
21
219.795913
0
LINE
8
Capa 1
10
23.008792
20
219.795913
11
23.064324
21
219.591537
0
LINE
8
Capa 1
10
23.064324
20
219.591537
11
24.095283
21
215.652555
0
LINE
8
Capa 1
10
24.095283
20
215.652555
11
24.211248
21
215.222907
0
LINE
8
Capa 1
10
24.211248
20
215.222907
11
24.266479
21
214.838308
0
LINE
8
Capa 1
10
24.266479
20
214.838308
11
24.187190
21
214.486012
0
LINE
8
Capa 1
10
24.187190
20
214.486012
11
23.912328
21
214.176787
0
LINE
8
Capa 1
10
23.912328
20
214.176787
11
23.524478
21
214.021975
0
LINE
8
Capa 1
10
23.524478
20
214.021975
11
23.166309
21
214.067960
0
LINE
8
Capa 1
10
23.166309
20
214.067960
11
22.821507
21
214.254666
0
LINE
8
Capa 1
10
22.821507
20
214.254666
11
22.459718
21
214.507319
0
LINE
8
Capa 1
10
22.459718
20
214.507319
11
19.148770
21
216.810910
0
LINE
8
Capa 1
10
19.148770
20
216.810910
11
18.970161
21
216.933973
0
LINE
8
Capa 1
10
18.970161
20
216.933973
11
18.794488
21
217.073687
0
LINE
8
Capa 1
10
18.794488
20
217.073687
11
18.662891
21
217.219938
0
LINE
8
Capa 1
10
18.662891
20
217.219938
11
18.584152
21
217.617267
0
LINE
8
Capa 1
10
18.584152
20
217.617267
11
18.824397
21
217.989828
0
LINE
8
Capa 1
10
18.824397
20
217.989828
11
19.281148
21
218.080982
0
LINE
8
Capa 1
10
19.281148
20
218.080982
11
19.831660
21
217.746405
0
LINE
8
Capa 1
10
19.831660
20
217.746405
11
19.831660
21
217.746405
0
LINE
8
Capa 1
10
21.372212
20
208.564393
11
23.206775
21
212.270152
0
LINE
8
Capa 1
10
23.206775
20
212.270152
11
19.478469
21
210.418682
0
LINE
8
Capa 1
10
19.478469
20
210.418682
11
19.064214
21
210.224235
0
LINE
8
Capa 1
10
19.064214
20
210.224235
11
18.788042
21
210.190419
0
LINE
8
Capa 1
10
18.788042
20
210.190419
11
18.486509
21
210.351048
0
LINE
8
Capa 1
10
18.486509
20
210.351048
11
18.342787
21
210.601857
0
LINE
8
Capa 1
10
18.342787
20
210.601857
11
18.342789
21
210.889300
0
LINE
8
Capa 1
10
18.342789
20
210.889300
11
18.466782
21
211.120380
0
LINE
8
Capa 1
10
18.466782
20
211.120380
11
18.618958
21
211.238739
0
LINE
8
Capa 1
10
18.618958
20
211.238739
11
18.802133
21
211.337372
0
LINE
8
Capa 1
10
18.802133
20
211.337372
11
18.993761
21
211.427550
0
LINE
8
Capa 1
10
18.993761
20
211.427550
11
22.693886
21
213.126846
0
LINE
8
Capa 1
10
22.693886
20
213.126846
11
23.096870
21
213.315657
0
LINE
8
Capa 1
10
23.096870
20
213.315657
11
23.466037
21
213.436833
0
LINE
8
Capa 1
10
23.466037
20
213.436833
11
23.826751
21
213.419925
0
LINE
8
Capa 1
10
23.826751
20
213.419925
11
24.179008
21
213.202934
0
LINE
8
Capa 1
10
24.179008
20
213.202934
11
24.398818
21
212.847858
0
LINE
8
Capa 1
10
24.398818
20
212.847858
11
24.415726
21
212.487144
0
LINE
8
Capa 1
10
24.415726
20
212.487144
11
24.291731
21
212.115159
0
LINE
8
Capa 1
10
24.291731
20
212.115159
11
24.105739
21
211.714993
0
LINE
8
Capa 1
10
24.105739
20
211.714993
11
22.412079
21
208.054323
0
LINE
8
Capa 1
10
22.412079
20
208.054323
11
22.321900
21
207.857058
0
LINE
8
Capa 1
10
22.321900
20
207.857058
11
22.214815
21
207.659792
0
LINE
8
Capa 1
10
22.214815
20
207.659792
11
22.093637
21
207.504798
0
LINE
8
Capa 1
10
22.093637
20
207.504798
11
21.716016
21
207.358260
0
LINE
8
Capa 1
10
21.716016
20
207.358260
11
21.307396
21
207.530161
0
LINE
8
Capa 1
10
21.307396
20
207.530161
11
21.138312
21
207.964145
0
LINE
8
Capa 1
10
21.138312
20
207.964145
11
21.372212
21
208.564393
0
LINE
8
Capa 1
10
21.372212
20
208.564393
11
21.372212
21
208.564393
0
LINE
8
Capa 1
10
-26.458334
20
316.266470
11
-29.471093
21
316.050708
0
LINE
8
Capa 1
10
-29.471093
20
316.050708
11
-32.368437
21
315.420523
0
LINE
8
Capa 1
10
-32.368437
20
315.420523
11
-35.110204
21
314.401565
0
LINE
8
Capa 1
10
-35.110204
20
314.401565
11
-37.656234
21
313.019485
0
LINE
8
Capa 1
10
-37.656234
20
313.019485
11
-39.966365
21
311.299934
0
LINE
8
Capa 1
10
-39.966365
20
311.299934
11
-42.000437
21
309.268562
0
LINE
8
Capa 1
10
-42.000437
20
309.268562
11
-43.718289
21
306.951021
0
LINE
8
Capa 1
10
-43.718289
20
306.951021
11
-45.079761
21
304.372960
0
LINE
8
Capa 1
10
-45.079761
20
304.372960
11
-46.024156
21
301.629763
0
LINE
8
Capa 1
10
-46.024156
20
301.629763
11
-46.523834
21
298.829899
0
LINE
8
Capa 1
10
-46.523834
20
298.829899
11
-46.588220
21
296.018650
0
LINE
8
Capa 1
10
-46.588220
20
296.018650
11
-46.226735
21
293.241301
0
LINE
8
Capa 1
10
-46.226735
20
293.241301
11
-45.448803
21
290.543133
0
LINE
8
Capa 1
10
-45.448803
20
290.543133
11
-44.263848
21
287.969431
0
LINE
8
Capa 1
10
-44.263848
20
287.969431
11
-42.681291
21
285.565476
0
LINE
8
Capa 1
10
-42.681291
20
285.565476
11
-40.710557
21
283.376552
0
LINE
8
Capa 1
10
-40.710557
20
283.376552
11
-38.420606
21
281.492762
0
LINE
8
Capa 1
10
-38.420606
20
281.492762
11
-35.905700
21
279.980024
0
LINE
8
Capa 1
10
-35.905700
20
279.980024
11
-33.213211
21
278.847345
0
LINE
8
Capa 1
10
-33.213211
20
278.847345
11
-30.390513
21
278.103734
0
LINE
8
Capa 1
10
-30.390513
20
278.103734
11
-27.484979
21
277.758197
0
LINE
8
Capa 1
10
-27.484979
20
277.758197
11
-24.543981
21
277.819742
0
LINE
8
Capa 1
10
-24.543981
20
277.819742
11
-21.614893
21
278.297376
0
LINE
8
Capa 1
10
-21.614893
20
278.297376
11
-18.745087
21
279.200107
0
LINE
8
Capa 1
10
-18.745087
20
279.200107
11
-16.048039
21
280.501513
0
LINE
8
Capa 1
10
-16.048039
20
280.501513
11
-13.623535
21
282.143578
0
LINE
8
Capa 1
10
-13.623535
20
282.143578
11
-11.498408
21
284.087912
0
LINE
8
Capa 1
10
-11.498408
20
284.087912
11
-9.699493
21
286.296126
0
LINE
8
Capa 1
10
-9.699493
20
286.296126
11
-8.253625
21
288.729831
0
LINE
8
Capa 1
10
-8.253625
20
288.729831
11
-7.187638
21
291.350638
0
LINE
8
Capa 1
10
-7.187638
20
291.350638
11
-6.528367
21
294.120158
0
LINE
8
Capa 1
10
-6.528367
20
294.120158
11
-6.302647
21
297.000002
0
LINE
8
Capa 1
10
-6.302647
20
297.000002
11
-6.401276
21
298.904256
0
LINE
8
Capa 1
10
-6.401276
20
298.904256
11
-6.693511
21
300.776256
0
LINE
8
Capa 1
10
-6.693511
20
300.776256
11
-7.173880
21
302.603368
0
LINE
8
Capa 1
10
-7.173880
20
302.603368
11
-7.836907
21
304.372960
0
LINE
8
Capa 1
10
-7.836907
20
304.372960
11
-8.677118
21
306.072398
0
LINE
8
Capa 1
10
-8.677118
20
306.072398
11
-9.689039
21
307.689049
0
LINE
8
Capa 1
10
-9.689039
20
307.689049
11
-10.867195
21
309.210278
0
LINE
8
Capa 1
10
-10.867195
20
309.210278
11
-12.206111
21
310.623452
0
LINE
8
Capa 1
10
-12.206111
20
310.623452
11
-13.684509
21
311.903299
0
LINE
8
Capa 1
10
-13.684509
20
311.903299
11
-15.275949
21
313.029477
0
LINE
8
Capa 1
10
-15.275949
20
313.029477
11
-16.967213
21
313.996755
0
LINE
8
Capa 1
10
-16.967213
20
313.996755
11
-18.745087
21
314.799898
0
LINE
8
Capa 1
10
-18.745087
20
314.799898
11
-20.596352
21
315.433674
0
LINE
8
Capa 1
10
-20.596352
20
315.433674
11
-22.507792
21
315.892850
0
LINE
8
Capa 1
10
-22.507792
20
315.892850
11
-24.466192
21
316.172193
0
LINE
8
Capa 1
10
-24.466192
20
316.172193
11
-26.458334
21
316.266470
0
LINE
8
Capa 1
10
-26.458334
20
316.266470
11
-26.458334
21
316.266470
0
LINE
8
Capa 1
10
50.129097
20
222.531291
11
50.129097
21
214.674232
0
LINE
8
Capa 1
10
50.129097
20
214.674232
11
48.440848
21
214.674232
0
LINE
8
Capa 1
10
48.440848
20
214.674232
11
48.440848
21
220.623301
0
LINE
8
Capa 1
10
48.440848
20
220.623301
11
48.108558
21
220.387483
0
LINE
8
Capa 1
10
48.108558
20
220.387483
11
47.706593
21
220.189180
0
LINE
8
Capa 1
10
47.706593
20
220.189180
11
47.261753
21
220.039114
0
LINE
8
Capa 1
10
47.261753
20
220.039114
11
46.806194
21
219.953364
0
LINE
8
Capa 1
10
46.806194
20
219.953364
11
46.806194
21
221.378997
0
LINE
8
Capa 1
10
46.806194
20
221.378997
11
48.049603
21
221.872073
0
LINE
8
Capa 1
10
48.049603
20
221.872073
11
49.105429
21
222.531294
0
LINE
8
Capa 1
10
49.105429
20
222.531294
11
50.129097
21
222.531291
0
LINE
8
Capa 1
10
52.337220
20
214.818940
11
52.337220
21
216.190977
0
LINE
8
Capa 1
10
52.337220
20
216.190977
11
53.167946
21
215.815811
0
LINE
8
Capa 1
10
53.167946
20
215.815811
11
53.955796
21
215.692542
0
LINE
8
Capa 1
10
53.955796
20
215.692542
11
54.663253
21
215.815811
0
LINE
8
Capa 1
10
54.663253
20
215.815811
11
54.925869
21
216.190977
0
LINE
8
Capa 1
10
54.925869
20
216.190977
11
54.807960
21
216.458953
0
LINE
8
Capa 1
10
54.807960
20
216.458953
11
54.502467
21
216.646536
0
LINE
8
Capa 1
10
54.502467
20
216.646536
11
54.100503
21
216.791244
0
LINE
8
Capa 1
10
54.100503
20
216.791244
11
53.677101
21
216.935951
0
LINE
8
Capa 1
10
53.677101
20
216.935951
11
53.098272
21
217.198567
0
LINE
8
Capa 1
10
53.098272
20
217.198567
11
52.680230
21
217.530857
0
LINE
8
Capa 1
10
52.680230
20
217.530857
11
52.422973
21
217.964979
0
LINE
8
Capa 1
10
52.422973
20
217.964979
11
52.337223
21
218.549167
0
LINE
8
Capa 1
10
52.337223
20
218.549167
11
52.535526
21
219.342376
0
LINE
8
Capa 1
10
52.535526
20
219.342376
11
53.071478
21
219.883687
0
LINE
8
Capa 1
10
53.071478
20
219.883687
11
53.837889
21
220.194540
0
LINE
8
Capa 1
10
53.837889
20
220.194540
11
54.738289
21
220.296371
0
LINE
8
Capa 1
10
54.738289
20
220.296371
11
55.477903
21
220.237421
0
LINE
8
Capa 1
10
55.477903
20
220.237421
11
56.217517
21
220.076635
0
LINE
8
Capa 1
10
56.217517
20
220.076635
11
56.217517
21
218.768912
0
LINE
8
Capa 1
10
56.217517
20
218.768912
11
55.526139
21
219.047607
0
LINE
8
Capa 1
10
55.526139
20
219.047607
11
54.807963
21
219.144077
0
LINE
8
Capa 1
10
54.807963
20
219.144077
11
54.491751
21
219.111917
0
LINE
8
Capa 1
10
54.491751
20
219.111917
11
54.234494
21
219.026167
0
LINE
8
Capa 1
10
54.234494
20
219.026167
11
54.057630
21
218.881460
0
LINE
8
Capa 1
10
54.057630
20
218.881460
11
53.993320
21
218.683158
0
LINE
8
Capa 1
10
53.993320
20
218.683158
11
54.089790
21
218.425901
0
LINE
8
Capa 1
10
54.089790
20
218.425901
11
54.341687
21
218.238317
0
LINE
8
Capa 1
10
54.341687
20
218.238317
11
54.684697
21
218.098970
0
LINE
8
Capa 1
10
54.684697
20
218.098970
11
55.065223
21
217.975701
0
LINE
8
Capa 1
10
55.065223
20
217.975701
11
55.676208
21
217.718444
0
LINE
8
Capa 1
10
55.676208
20
217.718444
11
56.142487
21
217.391513
0
LINE
8
Capa 1
10
56.142487
20
217.391513
11
56.442620
21
216.952032
0
LINE
8
Capa 1
10
56.442620
20
216.952032
11
56.549810
21
216.351766
0
LINE
8
Capa 1
10
56.549810
20
216.351766
11
56.335429
21
215.515680
0
LINE
8
Capa 1
10
56.335429
20
215.515680
11
55.772680
21
214.952931
0
LINE
8
Capa 1
10
55.772680
20
214.952931
11
54.963392
21
214.642078
0
LINE
8
Capa 1
10
54.963392
20
214.642078
11
54.014757
21
214.540247
0
LINE
8
Capa 1
10
54.014757
20
214.540247
11
52.337226
21
214.818943
0
LINE
8
Capa 1
10
52.337226
20
214.818943
11
52.337220
21
214.818940
0
LINE
8
Capa 1
10
60.842781
20
214.738550
11
59.711922
21
214.540247
0
LINE
8
Capa 1
10
59.711922
20
214.540247
11
58.928762
21
214.656482
0
LINE
8
Capa 1
10
58.928762
20
214.656482
11
58.369362
21
215.005186
0
LINE
8
Capa 1
10
58.369362
20
215.005186
11
58.033722
21
215.586359
0
LINE
8
Capa 1
10
58.033722
20
215.586359
11
57.921842
21
216.400001
0
LINE
8
Capa 1
10
57.921842
20
216.400001
11
57.921842
21
218.913617
0
LINE
8
Capa 1
10
57.921842
20
218.913617
11
57.032161
21
218.913617
0
LINE
8
Capa 1
10
57.032161
20
218.913617
11
57.032161
21
220.162386
0
LINE
8
Capa 1
10
57.032161
20
220.162386
11
57.921842
21
220.162386
0
LINE
8
Capa 1
10
57.921842
20
220.162386
11
57.921842
21
221.346840
0
LINE
8
Capa 1
10
57.921842
20
221.346840
11
59.610091
21
221.829197
0
LINE
8
Capa 1
10
59.610091
20
221.829197
11
59.610091
21
220.162386
0
LINE
8
Capa 1
10
59.610091
20
220.162386
11
60.842781
21
220.162386
0
LINE
8
Capa 1
10
60.842781
20
220.162386
11
60.842781
21
218.913617
0
LINE
8
Capa 1
10
60.842781
20
218.913617
11
59.610091
21
218.913617
0
LINE
8
Capa 1
10
59.610091
20
218.913617
11
59.610091
21
216.694775
0
LINE
8
Capa 1
10
59.610091
20
216.694775
11
59.780256
21
216.051633
0
LINE
8
Capa 1
10
59.780256
20
216.051633
11
60.290750
21
215.837252
0
LINE
8
Capa 1
10
60.290750
20
215.837252
11
60.842781
21
215.992678
0
LINE
8
Capa 1
10
60.842781
20
215.992678
11
60.842781
21
214.738550
0
LINE
8
Capa 1
10
68.142449
20
214.738550
11
67.011590
21
214.540247
0
LINE
8
Capa 1
10
67.011590
20
214.540247
11
66.228430
21
214.656482
0
LINE
8
Capa 1
10
66.228430
20
214.656482
11
65.669030
21
215.005186
0
LINE
8
Capa 1
10
65.669030
20
215.005186
11
65.333390
21
215.586359
0
LINE
8
Capa 1
10
65.333390
20
215.586359
11
65.221510
21
216.400001
0
LINE
8
Capa 1
10
65.221510
20
216.400001
11
65.221510
21
218.913617
0
LINE
8
Capa 1
10
65.221510
20
218.913617
11
64.331830
21
218.913617
0
LINE
8
Capa 1
10
64.331830
20
218.913617
11
64.331830
21
220.162386
0
LINE
8
Capa 1
10
64.331830
20
220.162386
11
65.221510
21
220.162386
0
LINE
8
Capa 1
10
65.221510
20
220.162386
11
65.221510
21
221.346840
0
LINE
8
Capa 1
10
65.221510
20
221.346840
11
66.909759
21
221.829197
0
LINE
8
Capa 1
10
66.909759
20
221.829197
11
66.909759
21
220.162386
0
LINE
8
Capa 1
10
66.909759
20
220.162386
11
68.142449
21
220.162386
0
LINE
8
Capa 1
10
68.142449
20
220.162386
11
68.142449
21
218.913617
0
LINE
8
Capa 1
10
68.142449
20
218.913617
11
66.909759
21
218.913617
0
LINE
8
Capa 1
10
66.909759
20
218.913617
11
66.909759
21
216.694775
0
LINE
8
Capa 1
10
66.909759
20
216.694775
11
67.079924
21
216.051633
0
LINE
8
Capa 1
10
67.079924
20
216.051633
11
67.590419
21
215.837252
0
LINE
8
Capa 1
10
67.590419
20
215.837252
11
68.142449
21
215.992678
0
LINE
8
Capa 1
10
68.142449
20
215.992678
11
68.142449
21
214.738550
0
LINE
8
Capa 1
10
72.676606
20
218.634922
11
71.963789
21
218.801067
0
LINE
8
Capa 1
10
71.963789
20
218.801067
11
71.472053
21
218.699236
0
LINE
8
Capa 1
10
71.472053
20
218.699236
11
71.100906
21
218.393743
0
LINE
8
Capa 1
10
71.100906
20
218.393743
11
70.867767
21
217.918086
0
LINE
8
Capa 1
10
70.867767
20
217.918086
11
70.790054
21
217.295042
0
LINE
8
Capa 1
10
70.790054
20
217.295042
11
70.790054
21
214.674235
0
LINE
8
Capa 1
10
70.790054
20
214.674235
11
69.096445
21
214.674235
0
LINE
8
Capa 1
10
69.096445
20
214.674235
11
69.096445
21
220.162386
0
LINE
8
Capa 1
10
69.096445
20
220.162386
11
70.790054
21
220.162386
0
LINE
8
Capa 1
10
70.790054
20
220.162386
11
70.790054
21
219.144076
0
LINE
8
Capa 1
10
70.790054
20
219.144076
11
70.811494
21
219.144076
0
LINE
8
Capa 1
10
70.811494
20
219.144076
11
71.374244
21
219.980162
0
LINE
8
Capa 1
10
71.374244
20
219.980162
11
71.776208
21
220.189183
0
LINE
8
Capa 1
10
71.776208
20
220.189183
11
72.258565
21
220.258857
0
LINE
8
Capa 1
10
72.258565
20
220.258857
11
72.676608
21
220.194547
0
LINE
8
Capa 1
10
72.676608
20
220.194547
11
72.676606
21
218.634922
0
LINE
8
Capa 1
10
78.689988
20
220.162386
11
76.460427
21
214.234755
0
LINE
8
Capa 1
10
76.460427
20
214.234755
11
76.007548
21
213.299184
0
LINE
8
Capa 1
10
76.007548
20
213.299184
11
75.452837
21
212.630918
0
LINE
8
Capa 1
10
75.452837
20
212.630918
11
74.796296
21
212.229959
0
LINE
8
Capa 1
10
74.796296
20
212.229959
11
74.037924
21
212.096306
0
LINE
8
Capa 1
10
74.037924
20
212.096306
11
73.024974
21
212.235653
0
LINE
8
Capa 1
10
73.024974
20
212.235653
11
73.024974
21
213.586253
0
LINE
8
Capa 1
10
73.024974
20
213.586253
11
73.759228
21
213.387950
0
LINE
8
Capa 1
10
73.759228
20
213.387950
11
74.313939
21
213.542036
0
LINE
8
Capa 1
10
74.313939
20
213.542036
11
74.670347
21
214.004295
0
LINE
8
Capa 1
10
74.670347
20
214.004295
11
74.959761
21
214.684955
0
LINE
8
Capa 1
10
74.959761
20
214.684955
11
72.730200
21
220.162386
0
LINE
8
Capa 1
10
72.730200
20
220.162386
11
74.606033
21
220.162386
0
LINE
8
Capa 1
10
74.606033
20
220.162386
11
75.629702
21
216.823404
0
LINE
8
Capa 1
10
75.629702
20
216.823404
11
75.779768
21
216.089149
0
LINE
8
Capa 1
10
75.779768
20
216.089149
11
75.801208
21
216.089149
0
LINE
8
Capa 1
10
75.801208
20
216.089149
11
75.978072
21
216.812685
0
LINE
8
Capa 1
10
75.978072
20
216.812685
11
77.012460
21
220.162386
0
LINE
8
Capa 1
10
77.012460
20
220.162386
11
78.689988
21
220.162386
0
LINE
8
Layer 1
10
131.289002
20
201.996878
11
126.060833
21
208.914061
0
LINE
8
Layer 1
10
126.060833
20
208.914061
11
127.228099
21
210.650560
0
LINE
8
Layer 1
10
127.228099
20
210.650560
11
135.588110
21
208.392506
0
LINE
8
Layer 1
10
135.588110
20
208.392506
11
134.478252
21
206.741410
0
LINE
8
Layer 1
10
134.478252
20
206.741410
11
128.789624
21
208.505666
0
LINE
8
Layer 1
10
128.789624
20
208.505666
11
128.018667
21
208.824138
0
LINE
8
Layer 1
10
128.018667
20
208.824138
11
127.999532
21
208.795670
0
LINE
8
Layer 1
10
127.999532
20
208.795670
11
128.598111
21
208.179770
0
LINE
8
Layer 1
10
128.598111
20
208.179770
11
132.366968
21
203.600530
0
LINE
8
Layer 1
10
132.366968
20
203.600530
11
131.289002
21
201.996878
0
LINE
8
Layer 1
10
117.093270
20
200.708663
11
120.469633
21
208.694969
0
LINE
8
Layer 1
10
120.469633
20
208.694969
11
122.557114
21
208.552337
0
LINE
8
Layer 1
10
122.557114
20
208.552337
11
124.781587
21
200.183343
0
LINE
8
Layer 1
10
124.781587
20
200.183343
11
122.796770
21
200.318960
0
LINE
8
Layer 1
10
122.796770
20
200.318960
11
121.480347
21
206.127574
0
LINE
8
Layer 1
10
121.480347
20
206.127574
11
121.370673
21
206.954476
0
LINE
8
Layer 1
10
121.370673
20
206.954476
11
121.336452
21
206.956814
0
LINE
8
Layer 1
10
121.336452
20
206.956814
11
121.102357
21
206.130481
0
LINE
8
Layer 1
10
121.102357
20
206.130481
11
119.021053
21
200.576943
0
LINE
8
Layer 1
10
119.021053
20
200.576943
11
117.093270
21
200.708663
0
LINE
8
Layer 1
10
108.879602
20
212.358960
11
117.484159
21
213.428084
0
LINE
8
Layer 1
10
117.484159
20
213.428084
11
118.404377
21
211.548948
0
LINE
8
Layer 1
10
118.404377
20
211.548948
11
112.268819
21
205.437992
0
LINE
8
Layer 1
10
112.268819
20
205.437992
11
111.393858
21
207.224710
0
LINE
8
Layer 1
10
111.393858
20
207.224710
11
115.766077
21
211.269078
0
LINE
8
Layer 1
10
115.766077
20
211.269078
11
116.427361
21
211.777510
0
LINE
8
Layer 1
10
116.427361
20
211.777510
11
116.412276
21
211.808316
0
LINE
8
Layer 1
10
116.412276
20
211.808316
11
115.579599
21
211.597882
0
LINE
8
Layer 1
10
115.579599
20
211.597882
11
109.729420
21
210.623583
0
LINE
8
Layer 1
10
109.729420
20
210.623583
11
108.879602
21
212.358960
0
LINE
8
Layer 1
10
114.861598
20
225.297122
11
120.089767
21
218.379939
0
LINE
8
Layer 1
10
120.089767
20
218.379939
11
118.922501
21
216.643440
0
LINE
8
Layer 1
10
118.922501
20
216.643440
11
110.562490
21
218.901494
0
LINE
8
Layer 1
10
110.562490
20
218.901494
11
111.672348
21
220.552590
0
LINE
8
Layer 1
10
111.672348
20
220.552590
11
117.360976
21
218.788334
0
LINE
8
Layer 1
10
117.360976
20
218.788334
11
118.131933
21
218.469862
0
LINE
8
Layer 1
10
118.131933
20
218.469862
11
118.151068
21
218.498330
0
LINE
8
Layer 1
10
118.151068
20
218.498330
11
117.552489
21
219.114230
0
LINE
8
Layer 1
10
117.552489
20
219.114230
11
113.783632
21
223.693470
0
LINE
8
Layer 1
10
113.783632
20
223.693470
11
114.861598
21
225.297122
0
LINE
8
Layer 1
10
129.057521
20
226.585280
11
125.681140
21
218.598981
0
LINE
8
Layer 1
10
125.681140
20
218.598981
11
123.593659
21
218.741617
0
LINE
8
Layer 1
10
123.593659
20
218.741617
11
121.369204
21
227.110617
0
LINE
8
Layer 1
10
121.369204
20
227.110617
11
123.354021
21
226.974996
0
LINE
8
Layer 1
10
123.354021
20
226.974996
11
124.670431
21
221.166378
0
LINE
8
Layer 1
10
124.670431
20
221.166378
11
124.780103
21
220.339476
0
LINE
8
Layer 1
10
124.780103
20
220.339476
11
124.814324
21
220.337138
0
LINE
8
Layer 1
10
124.814324
20
220.337138
11
125.048421
21
221.163471
0
LINE
8
Layer 1
10
125.048421
20
221.163471
11
127.129738
21
226.717004
0
LINE
8
Layer 1
10
127.129738
20
226.717004
11
129.057521
21
226.585280
0
LINE
8
Layer 1
10
137.270541
20
214.935883
11
128.665979
21
213.866746
0
LINE
8
Layer 1
10
128.665979
20
213.866746
11
127.745758
21
215.745881
0
LINE
8
Layer 1
10
127.745758
20
215.745881
11
133.881311
21
221.856852
0
LINE
8
Layer 1
10
133.881311
20
221.856852
11
134.756275
21
220.070133
0
LINE
8
Layer 1
10
134.756275
20
220.070133
11
130.384059
21
216.025755
0
LINE
8
Layer 1
10
130.384059
20
216.025755
11
129.722775
21
215.517322
0
LINE
8
Layer 1
10
129.722775
20
215.517322
11
129.737860
21
215.486517
0
LINE
8
Layer 1
10
129.737860
20
215.486517
11
130.570537
21
215.696952
0
LINE
8
Layer 1
10
130.570537
20
215.696952
11
136.420719
21
216.671260
0
LINE
8
Layer 1
10
136.420719
20
216.671260
11
137.270541
21
214.935883
0
LINE
8
Layer 1
10
151.562491
20
213.316410
11
154.821080
21
213.316410
0
LINE
8
Layer 1
10
154.821080
20
213.316410
11
154.821080
21
211.912210
0
LINE
8
Layer 1
10
154.821080
20
211.912210
11
149.708097
21
211.912210
0
LINE
8
Layer 1
10
149.708097
20
211.912210
11
149.708097
21
212.491040
0
LINE
8
Layer 1
10
149.708097
20
212.491040
11
149.906399
21
213.546870
0
LINE
8
Layer 1
10
149.906399
20
213.546870
11
150.404834
21
214.388310
0
LINE
8
Layer 1
10
150.404834
20
214.388310
11
151.058696
21
215.047530
0
LINE
8
Layer 1
10
151.058696
20
215.047530
11
151.739355
21
215.567410
0
LINE
8
Layer 1
10
151.739355
20
215.567410
11
152.328903
21
216.028330
0
LINE
8
Layer 1
10
152.328903
20
216.028330
11
152.757664
21
216.462450
0
LINE
8
Layer 1
10
152.757664
20
216.462450
11
153.020281
21
216.901930
0
LINE
8
Layer 1
10
153.020281
20
216.901930
11
153.106031
21
217.378930
0
LINE
8
Layer 1
10
153.106031
20
217.378930
11
153.036357
21
217.811708
0
LINE
8
Layer 1
10
153.036357
20
217.811708
11
152.827336
21
218.123900
0
LINE
8
Layer 1
10
152.827336
20
218.123900
11
152.474947
21
218.312825
0
LINE
8
Layer 1
10
152.474947
20
218.312825
11
151.975172
21
218.375800
0
LINE
8
Layer 1
10
151.975172
20
218.375800
11
151.005099
21
218.178837
0
LINE
8
Layer 1
10
151.005099
20
218.178837
11
150.077901
21
217.587950
0
LINE
8
Layer 1
10
150.077901
20
217.587950
11
150.077901
21
219.077890
0
LINE
8
Layer 1
10
150.077901
20
219.077890
11
151.144446
21
219.564273
0
LINE
8
Layer 1
10
151.144446
20
219.564273
11
152.339620
21
219.726400
0
LINE
8
Layer 1
10
152.339620
20
219.726400
11
153.384726
21
219.570970
0
LINE
8
Layer 1
10
153.384726
20
219.570970
11
154.172576
21
219.136850
0
LINE
8
Layer 1
10
154.172576
20
219.136850
11
154.660292
21
218.445470
0
LINE
8
Layer 1
10
154.660292
20
218.445470
11
154.831797
21
217.545070
0
LINE
8
Layer 1
10
154.831797
20
217.545070
11
154.665652
21
216.601790
0
LINE
8
Layer 1
10
154.665652
20
216.601790
11
154.231531
21
215.851460
0
LINE
8
Layer 1
10
154.231531
20
215.851460
11
153.609826
21
215.229760
0
LINE
8
Layer 1
10
153.609826
20
215.229760
11
152.875572
21
214.688450
0
LINE
8
Layer 1
10
152.875572
20
214.688450
11
152.377136
21
214.324000
0
LINE
8
Layer 1
10
152.377136
20
214.324000
11
151.959094
21
213.970270
0
LINE
8
Layer 1
10
151.959094
20
213.970270
11
151.669679
21
213.632620
0
LINE
8
Layer 1
10
151.669679
20
213.632620
11
151.562489
21
213.316410
0
LINE
8
Layer 1
10
151.562489
20
213.316410
11
151.562491
21
213.316410
0
LINE
8
Layer 1
10
161.590156
20
211.912210
11
159.901907
21
211.912210
0
LINE
8
Layer 1
10
159.901907
20
211.912210
11
159.901907
21
214.961780
0
LINE
8
Layer 1
10
159.901907
20
214.961780
11
159.674127
21
215.918458
0
LINE
8
Layer 1
10
159.674127
20
215.918458
11
159.389403
21
216.157627
0
LINE
8
Layer 1
10
159.389403
20
216.157627
11
158.990788
21
216.237350
0
LINE
8
Layer 1
10
158.990788
20
216.237350
11
158.590164
21
216.152937
0
LINE
8
Layer 1
10
158.590164
20
216.152937
11
158.267253
21
215.899700
0
LINE
8
Layer 1
10
158.267253
20
215.899700
11
158.054212
21
215.516492
0
LINE
8
Layer 1
10
158.054212
20
215.516492
11
157.983198
21
215.042170
0
LINE
8
Layer 1
10
157.983198
20
215.042170
11
157.983198
21
211.912210
0
LINE
8
Layer 1
10
157.983198
20
211.912210
11
156.289589
21
211.912210
0
LINE
8
Layer 1
10
156.289589
20
211.912210
11
156.289589
21
217.400360
0
LINE
8
Layer 1
10
156.289589
20
217.400360
11
157.983198
21
217.400360
0
LINE
8
Layer 1
10
157.983198
20
217.400360
11
157.983198
21
216.532120
0
LINE
8
Layer 1
10
157.983198
20
216.532120
11
158.004638
21
216.532120
0
LINE
8
Layer 1
10
158.004638
20
216.532120
11
158.748272
21
217.283793
0
LINE
8
Layer 1
10
158.748272
20
217.283793
11
159.767921
21
217.534350
0
LINE
8
Layer 1
10
159.767921
20
217.534350
11
160.565150
21
217.392992
0
LINE
8
Layer 1
10
160.565150
20
217.392992
11
161.134599
21
216.968920
0
LINE
8
Layer 1
10
161.134599
20
216.968920
11
161.476268
21
216.262133
0
LINE
8
Layer 1
10
161.476268
20
216.262133
11
161.590158
21
215.272630
0
LINE
8
Layer 1
10
161.590158
20
215.272630
11
161.590156
21
211.912210
0
LINE
8
Layer 1
10
168.300277
20
211.912210
11
166.606669
21
211.912210
0
LINE
8
Layer 1
10
166.606669
20
211.912210
11
166.606669
21
212.667910
0
LINE
8
Layer 1
10
166.606669
20
212.667910
11
166.585229
21
212.667910
0
LINE
8
Layer 1
10
166.585229
20
212.667910
11
165.871072
21
212.000650
0
LINE
8
Layer 1
10
165.871072
20
212.000650
11
164.886260
21
211.778230
0
LINE
8
Layer 1
10
164.886260
20
211.778230
11
163.957723
21
211.959113
0
LINE
8
Layer 1
10
163.957723
20
211.959113
11
163.230168
21
212.501760
0
LINE
8
Layer 1
10
163.230168
20
212.501760
11
162.759870
21
213.374025
0
LINE
8
Layer 1
10
162.759870
20
213.374025
11
162.603104
21
214.533020
0
LINE
8
Layer 1
10
162.603104
20
214.533020
11
162.775948
21
215.759010
0
LINE
8
Layer 1
10
162.775948
20
215.759010
11
163.294482
21
216.714340
0
LINE
8
Layer 1
10
163.294482
20
216.714340
11
164.093051
21
217.329347
0
LINE
8
Layer 1
10
164.093051
20
217.329347
11
165.106001
21
217.534350
0
LINE
8
Layer 1
10
165.106001
20
217.534350
11
166.006400
21
217.344088
0
LINE
8
Layer 1
10
166.006400
20
217.344088
11
166.585229
21
216.773300
0
LINE
8
Layer 1
10
166.585229
20
216.773300
11
166.606669
21
216.773300
0
LINE
8
Layer 1
10
166.606669
20
216.773300
11
166.606669
21
220.037250
0
LINE
8
Layer 1
10
166.606669
20
220.037250
11
168.300277
21
220.037250
0
LINE
8
Layer 1
10
168.300277
20
220.037250
11
168.300277
21
211.912210
0
LINE
8
Layer 1
10
166.638826
20
214.581260
11
166.638826
21
214.993940
0
LINE
8
Layer 1
10
166.638826
20
214.993940
11
166.561113
21
215.484335
0
LINE
8
Layer 1
10
166.561113
20
215.484335
11
166.327974
21
215.883620
0
LINE
8
Layer 1
10
166.327974
20
215.883620
11
165.970226
21
216.148918
0
LINE
8
Layer 1
10
165.970226
20
216.148918
11
165.518686
21
216.237350
0
LINE
8
Layer 1
10
165.518686
20
216.237350
11
165.017571
21
216.126140
0
LINE
8
Layer 1
10
165.017571
20
216.126140
11
164.639724
21
215.792510
0
LINE
8
Layer 1
10
164.639724
20
215.792510
11
164.402565
21
215.269957
0
LINE
8
Layer 1
10
164.402565
20
215.269957
11
164.323512
21
214.581260
0
LINE
8
Layer 1
10
164.323512
20
214.581260
11
164.399885
21
213.940792
0
LINE
8
Layer 1
10
164.399885
20
213.940792
11
164.629005
21
213.466470
0
LINE
8
Layer 1
10
164.629005
20
213.466470
11
164.993453
21
213.173040
0
LINE
8
Layer 1
10
164.993453
20
213.173040
11
165.475810
21
213.075230
0
LINE
8
Layer 1
10
165.475810
20
213.075230
11
165.942088
21
213.178400
0
LINE
8
Layer 1
10
165.942088
20
213.178400
11
166.311895
21
213.487910
0
LINE
8
Layer 1
10
166.311895
20
213.487910
11
166.557093
21
213.967592
0
LINE
8
Layer 1
10
166.557093
20
213.967592
11
166.638826
21
214.581260
0
LINE
8
Layer 1
10
166.638826
20
214.581260
11
166.638826
21
214.581260
0
LINE
8
Layer 1
10
176.071584
20
211.976530
11
174.940725
21
211.778230
0
LINE
8
Layer 1
10
174.940725
20
211.778230
11
174.157565
21
211.894464
0
LINE
8
Layer 1
10
174.157565
20
211.894464
11
173.598165
21
212.243168
0
LINE
8
Layer 1
10
173.598165
20
212.243168
11
173.262525
21
212.824339
0
LINE
8
Layer 1
10
173.262525
20
212.824339
11
173.150645
21
213.637980
0
LINE
8
Layer 1
10
173.150645
20
213.637980
11
173.150645
21
216.151600
0
LINE
8
Layer 1
10
173.150645
20
216.151600
11
172.260964
21
216.151600
0
LINE
8
Layer 1
10
172.260964
20
216.151600
11
172.260964
21
217.400360
0
LINE
8
Layer 1
10
172.260964
20
217.400360
11
173.150645
21
217.400360
0
LINE
8
Layer 1
10
173.150645
20
217.400360
11
173.150645
21
218.584820
0
LINE
8
Layer 1
10
173.150645
20
218.584820
11
174.838894
21
219.067170
0
LINE
8
Layer 1
10
174.838894
20
219.067170
11
174.838894
21
217.400360
0
LINE
8
Layer 1
10
174.838894
20
217.400360
11
176.071584
21
217.400360
0
LINE
8
Layer 1
10
176.071584
20
217.400360
11
176.071584
21
216.151600
0
LINE
8
Layer 1
10
176.071584
20
216.151600
11
174.838894
21
216.151600
0
LINE
8
Layer 1
10
174.838894
20
216.151600
11
174.838894
21
213.932750
0
LINE
8
Layer 1
10
174.838894
20
213.932750
11
175.009059
21
213.289610
0
LINE
8
Layer 1
10
175.009059
20
213.289610
11
175.519553
21
213.075230
0
LINE
8
Layer 1
10
175.519553
20
213.075230
11
176.071584
21
213.230660
0
LINE
8
Layer 1
10
176.071584
20
213.230660
11
176.071584
21
211.976530
0
LINE
8
Layer 1
10
180.605738
20
215.872900
11
179.892922
21
216.039050
0
LINE
8
Layer 1
10
179.892922
20
216.039050
11
179.401186
21
215.937218
0
LINE
8
Layer 1
10
179.401186
20
215.937218
11
179.030039
21
215.631720
0
LINE
8
Layer 1
10
179.030039
20
215.631720
11
178.796900
21
215.156065
0
LINE
8
Layer 1
10
178.796900
20
215.156065
11
178.719187
21
214.533020
0
LINE
8
Layer 1
10
178.719187
20
214.533020
11
178.719187
21
211.912210
0
LINE
8
Layer 1
10
178.719187
20
211.912210
11
177.025578
21
211.912210
0
LINE
8
Layer 1
10
177.025578
20
211.912210
11
177.025578
21
217.400360
0
LINE
8
Layer 1
10
177.025578
20
217.400360
11
178.719187
21
217.400360
0
LINE
8
Layer 1
10
178.719187
20
217.400360
11
178.719187
21
216.382050
0
LINE
8
Layer 1
10
178.719187
20
216.382050
11
178.740627
21
216.382050
0
LINE
8
Layer 1
10
178.740627
20
216.382050
11
179.303377
21
217.218143
0
LINE
8
Layer 1
10
179.303377
20
217.218143
11
179.705341
21
217.427166
0
LINE
8
Layer 1
10
179.705341
20
217.427166
11
180.187698
21
217.496840
0
LINE
8
Layer 1
10
180.187698
20
217.496840
11
180.605740
21
217.432540
0
LINE
8
Layer 1
10
180.605740
20
217.432540
11
180.605738
21
215.872900
0
LINE
8
Layer 1
10
186.619121
20
217.400360
11
184.389560
21
211.472730
0
LINE
8
Layer 1
10
184.389560
20
211.472730
11
183.936680
21
210.537158
0
LINE
8
Layer 1
10
183.936680
20
210.537158
11
183.381970
21
209.868893
0
LINE
8
Layer 1
10
183.381970
20
209.868893
11
182.725428
21
209.467933
0
LINE
8
Layer 1
10
182.725428
20
209.467933
11
181.967056
21
209.334280
0
LINE
8
Layer 1
10
181.967056
20
209.334280
11
180.954107
21
209.473630
0
LINE
8
Layer 1
10
180.954107
20
209.473630
11
180.954107
21
210.824230
0
LINE
8
Layer 1
10
180.954107
20
210.824230
11
181.688361
21
210.625930
0
LINE
8
Layer 1
10
181.688361
20
210.625930
11
182.243072
21
210.780015
0
LINE
8
Layer 1
10
182.243072
20
210.780015
11
182.599480
21
211.242270
0
LINE
8
Layer 1
10
182.599480
20
211.242270
11
182.888894
21
211.922930
0
LINE
8
Layer 1
10
182.888894
20
211.922930
11
180.659333
21
217.400360
0
LINE
8
Layer 1
10
180.659333
20
217.400360
11
182.535165
21
217.400360
0
LINE
8
Layer 1
10
182.535165
20
217.400360
11
183.558834
21
214.061380
0
LINE
8
Layer 1
10
183.558834
20
214.061380
11
183.708901
21
213.327130
0
LINE
8
Layer 1
10
183.708901
20
213.327130
11
183.730341
21
213.327130
0
LINE
8
Layer 1
10
183.730341
20
213.327130
11
183.907205
21
214.050660
0
LINE
8
Layer 1
10
183.907205
20
214.050660
11
184.941593
21
217.400360
0
LINE
8
Layer 1
10
184.941593
20
217.400360
11
186.619121
21
217.400360
0
LINE
8
Layer 1
10
28.028886
20
196.942315
11
26.065425
21
196.795210
0
LINE
8
Layer 1
10
26.065425
20
196.795210
11
24.177182
21
196.365553
0
LINE
8
Layer 1
10
24.177182
20
196.365553
11
22.390330
21
195.670833
0
LINE
8
Layer 1
10
22.390330
20
195.670833
11
20.731044
21
194.728539
0
LINE
8
Layer 1
10
20.731044
20
194.728539
11
19.225496
21
193.556159
0
LINE
8
Layer 1
10
19.225496
20
193.556159
11
17.899861
21
192.171181
0
LINE
8
Layer 1
10
17.899861
20
192.171181
11
16.780310
21
190.591094
0
LINE
8
Layer 1
10
16.780310
20
190.591094
11
15.893019
21
188.833388
0
LINE
8
Layer 1
10
15.893019
20
188.833388
11
15.277542
21
186.963091
0
LINE
8
Layer 1
10
15.277542
20
186.963091
11
14.951894
21
185.054160
0
LINE
8
Layer 1
10
14.951894
20
185.054160
11
14.909933
21
183.137466
0
LINE
8
Layer 1
10
14.909933
20
183.137466
11
15.145518
21
181.243885
0
LINE
8
Layer 1
10
15.145518
20
181.243885
11
15.652508
21
179.404290
0
LINE
8
Layer 1
10
15.652508
20
179.404290
11
16.424761
21
177.649554
0
LINE
8
Layer 1
10
16.424761
20
177.649554
11
17.456138
21
176.010552
0
LINE
8
Layer 1
10
17.456138
20
176.010552
11
18.740495
21
174.518156
0
LINE
8
Layer 1
10
18.740495
20
174.518156
11
20.232891
21
173.233798
0
LINE
8
Layer 1
10
20.232891
20
173.233798
11
21.871894
21
172.202422
0
LINE
8
Layer 1
10
21.871894
20
172.202422
11
23.626629
21
171.430168
0
LINE
8
Layer 1
10
23.626629
20
171.430168
11
25.466225
21
170.923178
0
LINE
8
Layer 1
10
25.466225
20
170.923178
11
27.359806
21
170.687593
0
LINE
8
Layer 1
10
27.359806
20
170.687593
11
29.276499
21
170.729554
0
LINE
8
Layer 1
10
29.276499
20
170.729554
11
31.185430
21
171.055203
0
LINE
8
Layer 1
10
31.185430
20
171.055203
11
33.055727
21
171.670679
0
LINE
8
Layer 1
10
33.055727
20
171.670679
11
34.813434
21
172.557971
0
LINE
8
Layer 1
10
34.813434
20
172.557971
11
36.393520
21
173.677521
0
LINE
8
Layer 1
10
36.393520
20
173.677521
11
37.778498
21
175.003157
0
LINE
8
Layer 1
10
37.778498
20
175.003157
11
38.950878
21
176.508705
0
LINE
8
Layer 1
10
38.950878
20
176.508705
11
39.893172
21
178.167991
0
LINE
8
Layer 1
10
39.893172
20
178.167991
11
40.587892
21
179.954842
0
LINE
8
Layer 1
10
40.587892
20
179.954842
11
41.017549
21
181.843085
0
LINE
8
Layer 1
10
41.017549
20
181.843085
11
41.164654
21
183.806547
0
LINE
8
Layer 1
10
41.164654
20
183.806547
11
40.897782
21
186.453862
0
LINE
8
Layer 1
10
40.897782
20
186.453862
11
40.132381
21
188.919580
0
LINE
8
Layer 1
10
40.132381
20
188.919580
11
38.921271
21
191.150880
0
LINE
8
Layer 1
10
38.921271
20
191.150880
11
37.317277
21
193.094937
0
LINE
8
Layer 1
10
37.317277
20
193.094937
11
35.373219
21
194.698932
0
LINE
8
Layer 1
10
35.373219
20
194.698932
11
33.141920
21
195.910041
0
LINE
8
Layer 1
10
33.141920
20
195.910041
11
30.676201
21
196.675443
0
LINE
8
Layer 1
10
30.676201
20
196.675443
11
28.028886
21
196.942315
0
LINE
8
Layer 1
10
28.028886
20
196.942315
11
28.028886
21
196.942315
0
LINE
8
Layer 1
10
31.708723
20
196.418324
11
29.026055
21
188.630984
0
LINE
8
Layer 1
10
29.026055
20
188.630984
11
27.038491
21
188.630984
0
LINE
8
Layer 1
10
27.038491
20
188.630984
11
24.388407
21
196.418324
0
LINE
8
Layer 1
10
24.388407
20
196.418324
11
26.278221
21
196.418324
0
LINE
8
Layer 1
10
26.278221
20
196.418324
11
27.901941
21
190.998686
0
LINE
8
Layer 1
10
27.901941
20
190.998686
11
28.059425
21
190.222127
0
LINE
8
Layer 1
10
28.059425
20
190.222127
11
28.092011
21
190.222127
0
LINE
8
Layer 1
10
28.092011
20
190.222127
11
28.260356
21
191.020404
0
LINE
8
Layer 1
10
28.260356
20
191.020404
11
29.873215
21
196.418324
0
LINE
8
Layer 1
10
29.873215
20
196.418324
11
31.708723
21
196.418324
0
LINE
8
Layer 1
10
24.014749
20
171.503439
11
26.697416
21
179.290778
0
LINE
8
Layer 1
10
26.697416
20
179.290778
11
28.684980
21
179.290778
0
LINE
8
Layer 1
10
28.684980
20
179.290778
11
31.335065
21
171.503439
0
LINE
8
Layer 1
10
31.335065
20
171.503439
11
29.445250
21
171.503439
0
LINE
8
Layer 1
10
29.445250
20
171.503439
11
27.821530
21
176.923084
0
LINE
8
Layer 1
10
27.821530
20
176.923084
11
27.664045
21
177.699642
0
LINE
8
Layer 1
10
27.664045
20
177.699642
11
27.631460
21
177.699642
0
LINE
8
Layer 1
10
27.631460
20
177.699642
11
27.463114
21
176.901358
0
LINE
8
Layer 1
10
27.463114
20
176.901358
11
25.850255
21
171.503439
0
LINE
8
Layer 1
10
25.850255
20
171.503439
11
24.014749
21
171.503439
0
LINE
8
Layer 1
10
41.035863
20
186.574986
11
32.950492
21
185.004567
0
LINE
8
Layer 1
10
32.950492
20
185.004567
11
31.956706
21
186.725854
0
LINE
8
Layer 1
10
31.956706
20
186.725854
11
37.375700
21
192.914570
0
LINE
8
Layer 1
10
37.375700
20
192.914570
11
38.320611
21
191.277938
0
LINE
8
Layer 1
10
38.320611
20
191.277938
11
34.438919
21
187.161936
0
LINE
8
Layer 1
10
34.438919
20
187.161936
11
33.845141
21
186.637265
0
LINE
8
Layer 1
10
33.845141
20
186.637265
11
33.861441
21
186.609032
0
LINE
8
Layer 1
10
33.861441
20
186.609032
11
34.636946
21
186.862388
0
LINE
8
Layer 1
10
34.636946
20
186.862388
11
40.118116
21
188.164570
0
LINE
8
Layer 1
10
40.118116
20
188.164570
11
41.035863
21
186.574986
0
LINE
8
Layer 1
10
36.819625
20
174.340239
11
31.416920
21
180.557165
0
LINE
8
Layer 1
10
31.416920
20
180.557165
11
32.410699
21
182.278445
0
LINE
8
Layer 1
10
32.410699
20
182.278445
11
40.479778
21
180.679823
0
LINE
8
Layer 1
10
40.479778
20
180.679823
11
39.534873
21
179.043197
0
LINE
8
Layer 1
10
39.534873
20
179.043197
11
34.029466
21
180.346827
0
LINE
8
Layer 1
10
34.029466
20
180.346827
11
33.278200
21
180.598728
0
LINE
8
Layer 1
10
33.278200
20
180.598728
11
33.261899
21
180.570494
0
LINE
8
Layer 1
10
33.261899
20
180.570494
11
33.869061
21
180.025559
0
LINE
8
Layer 1
10
33.869061
20
180.025559
11
37.737373
21
175.929829
0
LINE
8
Layer 1
10
37.737373
20
175.929829
11
36.819625
21
174.340239
0
LINE
8
Layer 1
10
18.721460
20
193.470645
11
24.124165
21
187.253714
0
LINE
8
Layer 1
10
24.124165
20
187.253714
11
23.130379
21
185.532428
0
LINE
8
Layer 1
10
23.130379
20
185.532428
11
15.061297
21
187.131060
0
LINE
8
Layer 1
10
15.061297
20
187.131060
11
16.006208
21
188.767693
0
LINE
8
Layer 1
10
16.006208
20
188.767693
11
21.511616
21
187.464048
0
LINE
8
Layer 1
10
21.511616
20
187.464048
11
22.262883
21
187.212155
0
LINE
8
Layer 1
10
22.262883
20
187.212155
11
22.279183
21
187.240388
0
LINE
8
Layer 1
10
22.279183
20
187.240388
11
21.672019
21
187.785318
0
LINE
8
Layer 1
10
21.672019
20
187.785318
11
17.803713
21
191.881061
0
LINE
8
Layer 1
10
17.803713
20
191.881061
11
18.721460
21
193.470645
0
LINE
8
Layer 1
10
15.617411
20
180.401719
11
23.702781
21
181.972120
0
LINE
8
Layer 1
10
23.702781
20
181.972120
11
24.696561
21
180.250840
0
LINE
8
Layer 1
10
24.696561
20
180.250840
11
19.277564
21
174.062134
0
LINE
8
Layer 1
10
19.277564
20
174.062134
11
18.332659
21
175.698760
0
LINE
8
Layer 1
10
18.332659
20
175.698760
11
22.214349
21
179.814762
0
LINE
8
Layer 1
10
22.214349
20
179.814762
11
22.808127
21
180.339431
0
LINE
8
Layer 1
10
22.808127
20
180.339431
11
22.791827
21
180.367664
0
LINE
8
Layer 1
10
22.791827
20
180.367664
11
22.016319
21
180.114317
0
LINE
8
Layer 1
10
22.016319
20
180.114317
11
16.535151
21
178.812142
0
LINE
8
Layer 1
10
16.535151
20
178.812142
11
15.617411
21
180.401719
0
LINE
8
Layer 1
10
49.919228
20
186.888736
11
49.919228
21
188.008775
0
LINE
8
Layer 1
10
49.919228
20
188.008775
11
50.554595
21
187.688037
0
LINE
8
Layer 1
10
50.554595
20
187.688037
11
51.287711
21
187.581124
0
LINE
8
Layer 1
10
51.287711
20
187.581124
11
52.053410
21
187.792917
0
LINE
8
Layer 1
10
52.053410
20
187.792917
11
52.261126
21
188.046451
0
LINE
8
Layer 1
10
52.261126
20
188.046451
11
52.330365
21
188.383482
0
LINE
8
Layer 1
10
52.330365
20
188.383482
11
52.244835
21
188.729674
0
LINE
8
Layer 1
10
52.244835
20
188.729674
11
51.988244
21
188.986267
0
LINE
8
Layer 1
10
51.988244
20
188.986267
11
51.055558
21
189.198052
0
LINE
8
Layer 1
10
51.055558
20
189.198052
11
50.513867
21
189.198052
0
LINE
8
Layer 1
10
50.513867
20
189.198052
11
50.513867
21
190.183682
0
LINE
8
Layer 1
10
50.513867
20
190.183682
11
51.014829
21
190.183682
0
LINE
8
Layer 1
10
51.014829
20
190.183682
11
51.870131
21
190.373072
0
LINE
8
Layer 1
10
51.870131
20
190.373072
11
52.083956
21
190.609810
0
LINE
8
Layer 1
10
52.083956
20
190.609810
11
52.155232
21
190.941242
0
LINE
8
Layer 1
10
52.155232
20
190.941242
11
51.936315
21
191.475803
0
LINE
8
Layer 1
10
51.936315
20
191.475803
11
51.279565
21
191.653989
0
LINE
8
Layer 1
10
51.279565
20
191.653989
11
50.701218
21
191.559296
0
LINE
8
Layer 1
10
50.701218
20
191.559296
11
50.139163
21
191.275217
0
LINE
8
Layer 1
10
50.139163
20
191.275217
11
50.139163
21
192.326012
0
LINE
8
Layer 1
10
50.139163
20
192.326012
11
50.805076
21
192.558169
0
LINE
8
Layer 1
10
50.805076
20
192.558169
11
51.572811
21
192.635554
0
LINE
8
Layer 1
10
51.572811
20
192.635554
11
52.369057
21
192.534749
0
LINE
8
Layer 1
10
52.369057
20
192.534749
11
52.965732
21
192.232335
0
LINE
8
Layer 1
10
52.965732
20
192.232335
11
53.341454
21
191.769049
0
LINE
8
Layer 1
10
53.341454
20
191.769049
11
53.466695
21
191.185613
0
LINE
8
Layer 1
10
53.466695
20
191.185613
11
53.394147
21
190.666831
0
LINE
8
Layer 1
10
53.394147
20
190.666831
11
53.176503
21
190.254962
0
LINE
8
Layer 1
10
53.176503
20
190.254962
11
52.813763
21
189.950007
0
LINE
8
Layer 1
10
52.813763
20
189.950007
11
52.305927
21
189.751966
0
LINE
8
Layer 1
10
52.305927
20
189.751966
11
52.305927
21
189.731599
0
LINE
8
Layer 1
10
52.305927
20
189.731599
11
52.859838
21
189.579885
0
LINE
8
Layer 1
10
52.859838
20
189.579885
11
53.283415
21
189.279509
0
LINE
8
Layer 1
10
53.283415
20
189.279509
11
53.552225
21
188.866112
0
LINE
8
Layer 1
10
53.552225
20
188.866112
11
53.641828
21
188.367189
0
LINE
8
Layer 1
10
53.641828
20
188.367189
11
53.492150
21
187.634070
0
LINE
8
Layer 1
10
53.492150
20
187.634070
11
53.043117
21
187.072016
0
LINE
8
Layer 1
10
53.043117
20
187.072016
11
52.330365
21
186.714624
0
LINE
8
Layer 1
10
52.330365
20
186.714624
11
51.389533
21
186.595493
0
LINE
8
Layer 1
10
51.389533
20
186.595493
11
50.569868
21
186.668804
0
LINE
8
Layer 1
10
50.569868
20
186.668804
11
49.919228
21
186.888736
0
LINE
8
Layer 1
10
49.919228
20
186.888736
11
49.919228
21
186.888736
0
LINE
8
Layer 1
10
57.502906
20
189.707160
11
56.961215
21
189.833423
0
LINE
8
Layer 1
10
56.961215
20
189.833423
11
56.587529
21
189.756037
0
LINE
8
Layer 1
10
56.587529
20
189.756037
11
56.305483
21
189.523880
0
LINE
8
Layer 1
10
56.305483
20
189.523880
11
56.069256
21
188.688944
0
LINE
8
Layer 1
10
56.069256
20
188.688944
11
56.069256
21
186.697309
0
LINE
8
Layer 1
10
56.069256
20
186.697309
11
54.782231
21
186.697309
0
LINE
8
Layer 1
10
54.782231
20
186.697309
11
54.782231
21
190.867924
0
LINE
8
Layer 1
10
54.782231
20
190.867924
11
56.069256
21
190.867924
0
LINE
8
Layer 1
10
56.069256
20
190.867924
11
56.069256
21
190.094087
0
LINE
8
Layer 1
10
56.069256
20
190.094087
11
56.085549
21
190.094087
0
LINE
8
Layer 1
10
56.085549
20
190.094087
11
56.513201
21
190.729453
0
LINE
8
Layer 1
10
56.513201
20
190.729453
11
57.185223
21
190.941242
0
LINE
8
Layer 1
10
57.185223
20
190.941242
11
57.502907
21
190.892379
0
LINE
8
Layer 1
10
57.502907
20
190.892379
11
57.502906
21
189.707160
0
LINE
8
Layer 1
10
62.182629
20
186.697309
11
60.895603
21
186.697309
0
LINE
8
Layer 1
10
60.895603
20
186.697309
11
60.895603
21
187.271589
0
LINE
8
Layer 1
10
60.895603
20
187.271589
11
60.879310
21
187.271589
0
LINE
8
Layer 1
10
60.879310
20
187.271589
11
60.336601
21
186.764517
0
LINE
8
Layer 1
10
60.336601
20
186.764517
11
59.588212
21
186.595493
0
LINE
8
Layer 1
10
59.588212
20
186.595493
11
58.882587
21
186.732952
0
LINE
8
Layer 1
10
58.882587
20
186.732952
11
58.329695
21
187.145326
0
LINE
8
Layer 1
10
58.329695
20
187.145326
11
57.972301
21
187.808188
0
LINE
8
Layer 1
10
57.972301
20
187.808188
11
57.853170
21
188.688944
0
LINE
8
Layer 1
10
57.853170
20
188.688944
11
57.984520
21
189.620613
0
LINE
8
Layer 1
10
57.984520
20
189.620613
11
58.378570
21
190.346604
0
LINE
8
Layer 1
10
58.378570
20
190.346604
11
58.985427
21
190.813962
0
LINE
8
Layer 1
10
58.985427
20
190.813962
11
59.755199
21
190.969747
0
LINE
8
Layer 1
10
59.755199
20
190.969747
11
60.439440
21
190.825161
0
LINE
8
Layer 1
10
60.439440
20
190.825161
11
60.879310
21
190.391402
0
LINE
8
Layer 1
10
60.879310
20
190.391402
11
60.895603
21
190.391402
0
LINE
8
Layer 1
10
60.895603
20
190.391402
11
60.895603
21
192.871779
0
LINE
8
Layer 1
10
60.895603
20
192.871779
11
62.182629
21
192.871779
0
LINE
8
Layer 1
10
62.182629
20
192.871779
11
62.182629
21
186.697309
0
LINE
8
Layer 1
10
60.920040
20
188.725603
11
60.920040
21
189.039211
0
LINE
8
Layer 1
10
60.920040
20
189.039211
11
60.683814
21
189.715307
0
LINE
8
Layer 1
10
60.683814
20
189.715307
11
60.411950
21
189.916914
0
LINE
8
Layer 1
10
60.411950
20
189.916914
11
60.068811
21
189.984117
0
LINE
8
Layer 1
10
60.068811
20
189.984117
11
59.687998
21
189.899605
0
LINE
8
Layer 1
10
59.687998
20
189.899605
11
59.400861
21
189.646069
0
LINE
8
Layer 1
10
59.400861
20
189.646069
11
59.160562
21
188.725603
0
LINE
8
Layer 1
10
59.160562
20
188.725603
11
59.392715
21
187.878447
0
LINE
8
Layer 1
10
59.392715
20
187.878447
11
59.669670
21
187.655455
0
LINE
8
Layer 1
10
59.669670
20
187.655455
11
60.036228
21
187.581124
0
LINE
8
Layer 1
10
60.036228
20
187.581124
11
60.390568
21
187.659526
0
LINE
8
Layer 1
10
60.390568
20
187.659526
11
60.671595
21
187.894732
0
LINE
8
Layer 1
10
60.671595
20
187.894732
11
60.920040
21
188.725603
0
LINE
8
Layer 1
10
60.920040
20
188.725603
11
60.920040
21
188.725603
0
LINE
8
Layer 1
10
68.088285
20
186.746188
11
67.228911
21
186.595493
0
LINE
8
Layer 1
10
67.228911
20
186.595493
11
66.633763
21
186.683824
0
LINE
8
Layer 1
10
66.633763
20
186.683824
11
66.208658
21
186.948814
0
LINE
8
Layer 1
10
66.208658
20
186.948814
11
65.953594
21
187.390464
0
LINE
8
Layer 1
10
65.953594
20
187.390464
11
65.868573
21
188.008775
0
LINE
8
Layer 1
10
65.868573
20
188.008775
11
65.868573
21
189.918953
0
LINE
8
Layer 1
10
65.868573
20
189.918953
11
65.192477
21
189.918953
0
LINE
8
Layer 1
10
65.192477
20
189.918953
11
65.192477
21
190.867924
0
LINE
8
Layer 1
10
65.192477
20
190.867924
11
65.868573
21
190.867924
0
LINE
8
Layer 1
10
65.868573
20
190.867924
11
65.868573
21
191.768032
0
LINE
8
Layer 1
10
65.868573
20
191.768032
11
67.151526
21
192.134592
0
LINE
8
Layer 1
10
67.151526
20
192.134592
11
67.151526
21
190.867924
0
LINE
8
Layer 1
10
67.151526
20
190.867924
11
68.088285
21
190.867924
0
LINE
8
Layer 1
10
68.088285
20
190.867924
11
68.088285
21
189.918953
0
LINE
8
Layer 1
10
68.088285
20
189.918953
11
67.151526
21
189.918953
0
LINE
8
Layer 1
10
67.151526
20
189.918953
11
67.151526
21
188.232780
0
LINE
8
Layer 1
10
67.151526
20
188.232780
11
67.280840
21
187.744038
0
LINE
8
Layer 1
10
67.280840
20
187.744038
11
67.668781
21
187.581124
0
LINE
8
Layer 1
10
67.668781
20
187.581124
11
68.088285
21
187.699240
0
LINE
8
Layer 1
10
68.088285
20
187.699240
11
68.088285
21
186.746188
0
LINE
8
Layer 1
10
71.533931
20
189.707160
11
70.992240
21
189.833423
0
LINE
8
Layer 1
10
70.992240
20
189.833423
11
70.618555
21
189.756037
0
LINE
8
Layer 1
10
70.618555
20
189.756037
11
70.336509
21
189.523880
0
LINE
8
Layer 1
10
70.336509
20
189.523880
11
70.100283
21
188.688944
0
LINE
8
Layer 1
10
70.100283
20
188.688944
11
70.100283
21
186.697309
0
LINE
8
Layer 1
10
70.100283
20
186.697309
11
68.813257
21
186.697309
0
LINE
8
Layer 1
10
68.813257
20
186.697309
11
68.813257
21
190.867924
0
LINE
8
Layer 1
10
68.813257
20
190.867924
11
70.100283
21
190.867924
0
LINE
8
Layer 1
10
70.100283
20
190.867924
11
70.100283
21
190.094087
0
LINE
8
Layer 1
10
70.100283
20
190.094087
11
70.116575
21
190.094087
0
LINE
8
Layer 1
10
70.116575
20
190.094087
11
70.544226
21
190.729453
0
LINE
8
Layer 1
10
70.544226
20
190.729453
11
71.216250
21
190.941242
0
LINE
8
Layer 1
10
71.216250
20
190.941242
11
71.533933
21
190.892379
0
LINE
8
Layer 1
10
71.533933
20
190.892379
11
71.533931
21
189.707160
0
LINE
8
Layer 1
10
76.103687
20
190.867924
11
74.409375
21
186.363335
0
LINE
8
Layer 1
10
74.409375
20
186.363335
11
74.065218
21
185.652364
0
LINE
8
Layer 1
10
74.065218
20
185.652364
11
73.643676
21
185.144529
0
LINE
8
Layer 1
10
73.643676
20
185.144529
11
73.144750
21
184.839827
0
LINE
8
Layer 1
10
73.144750
20
184.839827
11
72.568439
21
184.738260
0
LINE
8
Layer 1
10
72.568439
20
184.738260
11
71.798668
21
184.844156
0
LINE
8
Layer 1
10
71.798668
20
184.844156
11
71.798668
21
185.870519
0
LINE
8
Layer 1
10
71.798668
20
185.870519
11
72.356650
21
185.719825
0
LINE
8
Layer 1
10
72.356650
20
185.719825
11
72.778192
21
185.836919
0
LINE
8
Layer 1
10
72.778192
20
185.836919
11
73.049037
21
186.188201
0
LINE
8
Layer 1
10
73.049037
20
186.188201
11
73.268972
21
186.705455
0
LINE
8
Layer 1
10
73.268972
20
186.705455
11
71.574660
21
190.867924
0
LINE
8
Layer 1
10
71.574660
20
190.867924
11
73.000163
21
190.867924
0
LINE
8
Layer 1
10
73.000163
20
190.867924
11
73.778080
21
188.330530
0
LINE
8
Layer 1
10
73.778080
20
188.330530
11
73.892121
21
187.772551
0
LINE
8
Layer 1
10
73.892121
20
187.772551
11
73.908414
21
187.772551
0
LINE
8
Layer 1
10
73.908414
20
187.772551
11
74.042818
21
188.322383
0
LINE
8
Layer 1
10
74.042818
20
188.322383
11
74.828882
21
190.867924
0
LINE
8
Layer 1
10
74.828882
20
190.867924
11
76.103687
21
190.867924
0
LINE
8
Layer 1
10
122.060432
20
195.629678
11
119.846958
21
195.463841
0
LINE
8
Layer 1
10
119.846958
20
195.463841
11
117.718279
21
194.979475
0
LINE
8
Layer 1
10
117.718279
20
194.979475
11
115.703903
21
194.196294
0
LINE
8
Layer 1
10
115.703903
20
194.196294
11
113.833335
21
193.134015
0
LINE
8
Layer 1
10
113.833335
20
193.134015
11
112.136082
21
191.812352
0
LINE
8
Layer 1
10
112.136082
20
191.812352
11
110.641649
21
190.251022
0
LINE
8
Layer 1
10
110.641649
20
190.251022
11
109.379543
21
188.469738
0
LINE
8
Layer 1
10
109.379543
20
188.469738
11
108.379270
21
186.488217
0
LINE
8
Layer 1
10
108.379270
20
186.488217
11
107.685423
21
184.379771
0
LINE
8
Layer 1
10
107.685423
20
184.379771
11
107.318309
21
182.227769
0
LINE
8
Layer 1
10
107.318309
20
182.227769
11
107.271005
21
180.067018
0
LINE
8
Layer 1
10
107.271005
20
180.067018
11
107.536588
21
177.932322
0
LINE
8
Layer 1
10
107.536588
20
177.932322
11
108.108134
21
175.858486
0
LINE
8
Layer 1
10
108.108134
20
175.858486
11
108.978721
21
173.880315
0
LINE
8
Layer 1
10
108.978721
20
173.880315
11
110.141425
21
172.032613
0
LINE
8
Layer 1
10
110.141425
20
172.032613
11
111.589324
21
170.350186
0
LINE
8
Layer 1
10
111.589324
20
170.350186
11
113.271751
21
168.902287
0
LINE
8
Layer 1
10
113.271751
20
168.902287
11
115.119452
21
167.739583
0
LINE
8
Layer 1
10
115.119452
20
167.739583
11
117.097624
21
166.868996
0
LINE
8
Layer 1
10
117.097624
20
166.868996
11
119.171460
21
166.297450
0
LINE
8
Layer 1
10
119.171460
20
166.297450
11
121.306156
21
166.031867
0
LINE
8
Layer 1
10
121.306156
20
166.031867
11
123.466907
21
166.079171
0
LINE
8
Layer 1
10
123.466907
20
166.079171
11
125.618909
21
166.446285
0
LINE
8
Layer 1
10
125.618909
20
166.446285
11
127.727355
21
167.140132
0
LINE
8
Layer 1
10
127.727355
20
167.140132
11
129.708876
21
168.140405
0
LINE
8
Layer 1
10
129.708876
20
168.140405
11
131.490159
21
169.402511
0
LINE
8
Layer 1
10
131.490159
20
169.402511
11
133.051490
21
170.896944
0
LINE
8
Layer 1
10
133.051490
20
170.896944
11
134.373153
21
172.594197
0
LINE
8
Layer 1
10
134.373153
20
172.594197
11
135.435432
21
174.464765
0
LINE
8
Layer 1
10
135.435432
20
174.464765
11
136.218613
21
176.479141
0
LINE
8
Layer 1
10
136.218613
20
176.479141
11
136.702979
21
178.607820
0
LINE
8
Layer 1
10
136.702979
20
178.607820
11
136.868816
21
180.821294
0
LINE
8
Layer 1
10
136.868816
20
180.821294
11
136.581648
21
183.723757
0
LINE
8
Layer 1
10
136.581648
20
183.723757
11
135.741594
21
186.488217
0
LINE
8
Layer 1
10
135.741594
20
186.488217
11
134.380833
21
189.036993
0
LINE
8
Layer 1
10
134.380833
20
189.036993
11
132.531540
21
191.292403
0
LINE
8
Layer 1
10
132.531540
20
191.292403
11
130.276131
21
193.141695
0
LINE
8
Layer 1
10
130.276131
20
193.141695
11
127.727355
21
194.502457
0
LINE
8
Layer 1
10
127.727355
20
194.502457
11
124.962895
21
195.342510
0
LINE
8
Layer 1
10
124.962895
20
195.342510
11
122.060432
21
195.629678
0
LINE
8
Layer 1
10
122.060432
20
195.629678
11
122.060432
21
195.629678
0
LINE
8
Layer 1
10
121.794952
20
185.440170
11
120.438030
21
185.236981
0
LINE
8
Layer 1
10
120.438030
20
185.236981
11
119.223985
21
184.660275
0
LINE
8
Layer 1
10
119.223985
20
184.660275
11
118.226583
21
183.759340
0
LINE
8
Layer 1
10
118.226583
20
183.759340
11
117.519589
21
182.583463
0
LINE
8
Layer 1
10
117.519589
20
182.583463
11
117.188039
21
181.252073
0
LINE
8
Layer 1
10
117.188039
20
181.252073
11
117.256251
21
179.909746
0
LINE
8
Layer 1
10
117.256251
20
179.909746
11
117.706918
21
178.643494
0
LINE
8
Layer 1
10
117.706918
20
178.643494
11
118.522731
21
177.540329
0
LINE
8
Layer 1
10
118.522731
20
177.540329
11
119.625896
21
176.724515
0
LINE
8
Layer 1
10
119.625896
20
176.724515
11
120.892149
21
176.273849
0
LINE
8
Layer 1
10
120.892149
20
176.273849
11
122.234476
21
176.205637
0
LINE
8
Layer 1
10
122.234476
20
176.205637
11
123.565866
21
176.537187
0
LINE
8
Layer 1
10
123.565866
20
176.537187
11
124.741742
21
177.244180
0
LINE
8
Layer 1
10
124.741742
20
177.244180
11
125.642678
21
178.241582
0
LINE
8
Layer 1
10
125.642678
20
178.241582
11
126.219384
21
179.455627
0
LINE
8
Layer 1
10
126.219384
20
179.455627
11
126.422572
21
180.812550
0
LINE
8
Layer 1
10
126.422572
20
180.812550
11
126.332832
21
181.719570
0
LINE
8
Layer 1
10
126.332832
20
181.719570
11
126.070315
21
182.583463
0
LINE
8
Layer 1
10
126.070315
20
182.583463
11
125.645078
21
183.379956
0
LINE
8
Layer 1
10
125.645078
20
183.379956
11
125.067174
21
184.084771
0
LINE
8
Layer 1
10
125.067174
20
184.084771
11
124.362358
21
184.662675
0
LINE
8
Layer 1
10
124.362358
20
184.662675
11
123.565866
21
185.087913
0
LINE
8
Layer 1
10
123.565866
20
185.087913
11
122.701972
21
185.350430
0
LINE
8
Layer 1
10
122.701972
20
185.350430
11
121.794952
21
185.440170
0
LINE
8
Layer 1
10
121.794952
20
185.440170
11
121.794952
21
185.440170
0
LINE
8
Layer 1
10
126.796515
20
194.848963
11
123.343807
21
185.326023
0
LINE
8
Layer 1
10
123.343807
20
185.326023
11
120.609619
21
185.326023
0
LINE
8
Layer 1
10
120.609619
20
185.326023
11
117.156912
21
194.848963
0
LINE
8
Layer 1
10
117.156912
20
194.848963
11
119.719418
21
194.848963
0
LINE
8
Layer 1
10
119.719418
20
194.848963
11
122.008506
21
188.159239
0
LINE
8
Layer 1
10
122.008506
20
188.159239
11
124.297594
21
194.848963
0
LINE
8
Layer 1
10
124.297594
20
194.848963
11
126.796515
21
194.848963
0
LINE
8
Layer 1
10
116.919430
20
166.764246
11
120.372138
21
176.287193
0
LINE
8
Layer 1
10
120.372138
20
176.287193
11
123.106326
21
176.287193
0
LINE
8
Layer 1
10
123.106326
20
176.287193
11
126.559034
21
166.764246
0
LINE
8
Layer 1
10
126.559034
20
166.764246
11
123.996527
21
166.764246
0
LINE
8
Layer 1
10
123.996527
20
166.764246
11
121.707439
21
173.453970
0
LINE
8
Layer 1
10
121.707439
20
173.453970
11
119.418352
21
166.764246
0
LINE
8
Layer 1
10
119.418352
20
166.764246
11
116.919430
21
166.764246
0
LINE
8
Layer 1
10
112.278404
20
192.500970
11
118.799153
21
184.749371
0
LINE
8
Layer 1
10
118.799153
20
184.749371
11
117.432061
21
182.381495
0
LINE
8
Layer 1
10
117.432061
20
182.381495
11
107.458607
21
184.152824
0
LINE
8
Layer 1
10
107.458607
20
184.152824
11
108.739862
21
186.372025
0
LINE
8
Layer 1
10
108.739862
20
186.372025
11
115.677870
21
185.009575
0
LINE
8
Layer 1
10
115.677870
20
185.009575
11
111.028945
21
190.336840
0
LINE
8
Layer 1
10
111.028945
20
190.336840
11
112.278404
21
192.500970
0
LINE
8
Layer 1
10
136.773501
20
183.149319
11
126.800048
21
181.377982
0
LINE
8
Layer 1
10
126.800048
20
181.377982
11
125.432956
21
183.745859
0
LINE
8
Layer 1
10
125.432956
20
183.745859
11
131.953707
21
191.497458
0
LINE
8
Layer 1
10
131.953707
20
191.497458
11
133.234959
21
189.278263
0
LINE
8
Layer 1
10
133.234959
20
189.278263
11
128.586035
21
183.950998
0
LINE
8
Layer 1
10
128.586035
20
183.950998
11
135.524042
21
185.313448
0
LINE
8
Layer 1
10
135.524042
20
185.313448
11
136.773501
21
183.149319
0
LINE
8
Layer 1
10
131.712483
20
169.474514
11
125.191729
21
177.226115
0
LINE
8
Layer 1
10
125.191729
20
177.226115
11
126.558821
21
179.593991
0
LINE
8
Layer 1
10
126.558821
20
179.593991
11
136.532276
21
177.822653
0
LINE
8
Layer 1
10
136.532276
20
177.822653
11
135.251025
21
175.603458
0
LINE
8
Layer 1
10
135.251025
20
175.603458
11
128.313018
21
176.965908
0
LINE
8
Layer 1
10
128.313018
20
176.965908
11
132.961942
21
171.638643
0
LINE
8
Layer 1
10
132.961942
20
171.638643
11
131.712483
21
169.474514
0
LINE
8
Layer 1
10
106.727568
20
178.581220
11
116.701024
21
180.352551
0
LINE
8
Layer 1
10
116.701024
20
180.352551
11
118.068116
21
177.984674
0
LINE
8
Layer 1
10
118.068116
20
177.984674
11
111.547361
21
170.233080
0
LINE
8
Layer 1
10
111.547361
20
170.233080
11
110.266110
21
172.452276
0
LINE
8
Layer 1
10
110.266110
20
172.452276
11
114.915034
21
177.779540
0
LINE
8
Layer 1
10
114.915034
20
177.779540
11
107.977027
21
176.417091
0
LINE
8
Layer 1
10
107.977027
20
176.417091
11
106.727568
21
178.581220
0
LINE
8
Layer 1
10
144.115445
20
184.648989
11
144.115445
21
184.590205
0
LINE
8
Layer 1
10
144.115445
20
184.590205
11
142.401291
21
180.358699
0
LINE
8
Layer 1
10
142.401291
20
180.358699
11
141.627474
21
180.358699
0
LINE
8
Layer 1
10
141.627474
20
180.358699
11
139.874141
21
184.590205
0
LINE
8
Layer 1
10
139.874141
20
184.590205
11
139.874141
21
184.648989
0
LINE
8
Layer 1
10
139.874141
20
184.648989
11
140.794885
21
184.648989
0
LINE
8
Layer 1
10
140.794885
20
184.648989
11
141.833173
21
181.886754
0
LINE
8
Layer 1
10
141.833173
20
181.886754
11
141.989895
21
181.436182
0
LINE
8
Layer 1
10
141.989895
20
181.436182
11
142.048666
21
181.250072
0
LINE
8
Layer 1
10
142.048666
20
181.250072
11
142.254364
21
181.886754
0
LINE
8
Layer 1
10
142.254364
20
181.886754
11
143.233880
21
184.648989
0
LINE
8
Layer 1
10
143.233880
20
184.648989
11
144.115445
21
184.648989
0
LINE
8
Layer 1
10
145.300661
20
185.520761
11
145.006806
21
185.599120
0
LINE
8
Layer 1
10
145.006806
20
185.599120
11
144.781517
21
185.824412
0
LINE
8
Layer 1
10
144.781517
20
185.824412
11
144.703156
21
186.118266
0
LINE
8
Layer 1
10
144.703156
20
186.118266
11
144.781517
21
186.421918
0
LINE
8
Layer 1
10
144.781517
20
186.421918
11
145.006806
21
186.637406
0
LINE
8
Layer 1
10
145.006806
20
186.637406
11
145.300661
21
186.725563
0
LINE
8
Layer 1
10
145.300661
20
186.725563
11
145.604311
21
186.637406
0
LINE
8
Layer 1
10
145.604311
20
186.637406
11
145.819805
21
186.421918
0
LINE
8
Layer 1
10
145.819805
20
186.421918
11
145.907961
21
186.118266
0
LINE
8
Layer 1
10
145.907961
20
186.118266
11
145.819805
21
185.824412
0
LINE
8
Layer 1
10
145.819805
20
185.824412
11
145.604311
21
185.599120
0
LINE
8
Layer 1
10
145.604311
20
185.599120
11
145.300661
21
185.520761
0
LINE
8
Layer 1
10
145.300661
20
185.520761
11
145.300661
21
185.520761
0
LINE
8
Layer 1
10
144.889264
20
180.358712
11
144.889264
21
184.648989
0
LINE
8
Layer 1
10
144.889264
20
184.648989
11
145.731648
21
184.746943
0
LINE
8
Layer 1
10
145.731648
20
184.746943
11
145.731648
21
180.358712
0
LINE
8
Layer 1
10
145.731648
20
180.358712
11
144.889264
21
180.358712
0
LINE
8
Layer 1
10
148.503676
20
180.241171
11
147.465390
21
180.378300
0
LINE
8
Layer 1
10
147.465390
20
180.378300
11
146.613211
21
180.819082
0
LINE
8
Layer 1
10
146.613211
20
180.819082
11
146.985427
21
181.416587
0
LINE
8
Layer 1
10
146.985427
20
181.416587
11
147.715166
21
181.034575
0
LINE
8
Layer 1
10
147.715166
20
181.034575
11
148.474291
21
180.907238
0
LINE
8
Layer 1
10
148.474291
20
180.907238
11
149.150158
21
181.054165
0
LINE
8
Layer 1
10
149.150158
20
181.054165
11
149.385241
21
181.504743
0
LINE
8
Layer 1
10
149.385241
20
181.504743
11
149.169748
21
181.906348
0
LINE
8
Layer 1
10
149.169748
20
181.906348
11
148.435111
21
182.219791
0
LINE
8
Layer 1
10
148.435111
20
182.219791
11
148.131461
21
182.298156
0
LINE
8
Layer 1
10
148.131461
20
182.298156
11
147.122559
21
182.758525
0
LINE
8
Layer 1
10
147.122559
20
182.758525
11
146.887475
21
183.098907
0
LINE
8
Layer 1
10
146.887475
20
183.098907
11
146.809114
21
183.532343
0
LINE
8
Layer 1
10
146.809114
20
183.532343
11
147.014812
21
184.169032
0
LINE
8
Layer 1
10
147.014812
20
184.169032
11
147.582932
21
184.609813
0
LINE
8
Layer 1
10
147.582932
20
184.609813
11
148.415520
21
184.766531
0
LINE
8
Layer 1
10
148.415520
20
184.766531
11
149.257904
21
184.658786
0
LINE
8
Layer 1
10
149.257904
20
184.658786
11
150.090493
21
184.315959
0
LINE
8
Layer 1
10
150.090493
20
184.315959
11
149.747662
21
183.718453
0
LINE
8
Layer 1
10
149.747662
20
183.718453
11
149.052206
21
184.012307
0
LINE
8
Layer 1
10
149.052206
20
184.012307
11
148.425316
21
184.100464
0
LINE
8
Layer 1
10
148.425316
20
184.100464
11
147.866991
21
183.953537
0
LINE
8
Layer 1
10
147.866991
20
183.953537
11
147.671088
21
183.581317
0
LINE
8
Layer 1
10
147.671088
20
183.581317
11
147.827811
21
183.258077
0
LINE
8
Layer 1
10
147.827811
20
183.258077
11
148.395930
21
183.042582
0
LINE
8
Layer 1
10
148.395930
20
183.042582
11
148.699580
21
182.964223
0
LINE
8
Layer 1
10
148.699580
20
182.964223
11
149.590939
21
182.631186
0
LINE
8
Layer 1
10
149.590939
20
182.631186
11
150.090493
21
182.180608
0
LINE
8
Layer 1
10
150.090493
20
182.180608
11
150.247215
21
181.563514
0
LINE
8
Layer 1
10
150.247215
20
181.563514
11
150.041517
21
180.868062
0
LINE
8
Layer 1
10
150.041517
20
180.868062
11
149.453807
21
180.407686
0
LINE
8
Layer 1
10
149.453807
20
180.407686
11
148.503676
21
180.241171
0
LINE
8
Layer 1
10
148.503676
20
180.241171
11
148.503676
21
180.241171
0
LINE
8
Layer 1
10
151.638123
20
185.520761
11
151.344268
21
185.599120
0
LINE
8
Layer 1
10
151.344268
20
185.599120
11
151.118979
21
185.824412
0
LINE
8
Layer 1
10
151.118979
20
185.824412
11
151.040619
21
186.118266
0
LINE
8
Layer 1
10
151.040619
20
186.118266
11
151.118979
21
186.421918
0
LINE
8
Layer 1
10
151.118979
20
186.421918
11
151.344268
21
186.637406
0
LINE
8
Layer 1
10
151.344268
20
186.637406
11
151.638123
21
186.725563
0
LINE
8
Layer 1
10
151.638123
20
186.725563
11
151.941773
21
186.637406
0
LINE
8
Layer 1
10
151.941773
20
186.637406
11
152.157266
21
186.421918
0
LINE
8
Layer 1
10
152.157266
20
186.421918
11
152.245423
21
186.118266
0
LINE
8
Layer 1
10
152.245423
20
186.118266
11
152.157266
21
185.824412
0
LINE
8
Layer 1
10
152.157266
20
185.824412
11
151.941773
21
185.599120
0
LINE
8
Layer 1
10
151.941773
20
185.599120
11
151.638123
21
185.520761
0
LINE
8
Layer 1
10
151.638123
20
185.520761
11
151.638123
21
185.520761
0
LINE
8
Layer 1
10
151.226726
20
180.358712
11
151.226726
21
184.648989
0
LINE
8
Layer 1
10
151.226726
20
184.648989
11
152.069110
21
184.746943
0
LINE
8
Layer 1
10
152.069110
20
184.746943
11
152.069110
21
180.358712
0
LINE
8
Layer 1
10
152.069110
20
180.358712
11
151.226726
21
180.358712
0
LINE
8
Layer 1
10
155.154584
20
180.241171
11
154.525245
21
180.314634
0
LINE
8
Layer 1
10
154.525245
20
180.314634
11
154.008550
21
180.535025
0
LINE
8
Layer 1
10
154.008550
20
180.535025
11
153.606948
21
180.890101
0
LINE
8
Layer 1
10
153.606948
20
180.890101
11
153.322889
21
181.348026
0
LINE
8
Layer 1
10
153.322889
20
181.348026
11
153.097600
21
182.513645
0
LINE
8
Layer 1
10
153.097600
20
182.513645
11
153.171064
21
183.226244
0
LINE
8
Layer 1
10
153.171064
20
183.226244
11
153.391455
21
183.796812
0
LINE
8
Layer 1
10
153.391455
20
183.796812
11
153.736734
21
184.235146
0
LINE
8
Layer 1
10
153.736734
20
184.235146
11
154.184862
21
184.531447
0
LINE
8
Layer 1
10
154.184862
20
184.531447
11
155.321101
21
184.766531
0
LINE
8
Layer 1
10
155.321101
20
184.766531
11
155.950440
21
184.690620
0
LINE
8
Layer 1
10
155.950440
20
184.690620
11
156.467134
21
184.462886
0
LINE
8
Layer 1
10
156.467134
20
184.462886
11
156.868736
21
184.115158
0
LINE
8
Layer 1
10
156.868736
20
184.115158
11
157.152796
21
183.659682
0
LINE
8
Layer 1
10
157.152796
20
183.659682
11
157.378084
21
182.503854
0
LINE
8
Layer 1
10
157.378084
20
182.503854
11
157.304620
21
181.781457
0
LINE
8
Layer 1
10
157.304620
20
181.781457
11
157.084229
21
181.201092
0
LINE
8
Layer 1
10
157.084229
20
181.201092
11
156.738950
21
180.767657
0
LINE
8
Layer 1
10
156.738950
20
180.767657
11
156.290822
21
180.466457
0
LINE
8
Layer 1
10
156.290822
20
180.466457
11
155.154584
21
180.241171
0
LINE
8
Layer 1
10
155.154584
20
180.241171
11
155.154584
21
180.241171
0
LINE
8
Layer 1
10
155.232944
20
180.926833
11
155.785759
21
181.026008
0
LINE
8
Layer 1
10
155.785759
20
181.026008
11
156.180626
21
181.323536
0
LINE
8
Layer 1
10
156.180626
20
181.323536
11
156.417546
21
181.819414
0
LINE
8
Layer 1
10
156.417546
20
181.819414
11
156.496520
21
182.513645
0
LINE
8
Layer 1
10
156.496520
20
182.513645
11
156.418159
21
183.155228
0
LINE
8
Layer 1
10
156.418159
20
183.155228
11
156.183075
21
183.649885
0
LINE
8
Layer 1
10
156.183075
20
183.649885
11
155.801064
21
183.973123
0
LINE
8
Layer 1
10
155.801064
20
183.973123
11
155.262330
21
184.080869
0
LINE
8
Layer 1
10
155.262330
20
184.080869
11
154.672172
21
183.975572
0
LINE
8
Layer 1
10
154.672172
20
183.975572
11
154.273019
21
183.659682
0
LINE
8
Layer 1
10
154.273019
20
183.659682
11
154.052628
21
183.167475
0
LINE
8
Layer 1
10
154.052628
20
183.167475
11
153.979164
21
182.513645
0
LINE
8
Layer 1
10
153.979164
20
182.513645
11
154.057526
21
181.862269
0
LINE
8
Layer 1
10
154.057526
20
181.862269
11
154.292609
21
181.357816
0
LINE
8
Layer 1
10
154.292609
20
181.357816
11
154.684415
21
181.034578
0
LINE
8
Layer 1
10
154.684415
20
181.034578
11
155.232944
21
180.926833
0
LINE
8
Layer 1
10
155.232944
20
180.926833
11
155.232944
21
180.926833
0
LINE
8
Layer 1
10
160.816185
20
184.766531
11
161.390427
21
184.681435
0
LINE
8
Layer 1
10
161.390427
20
184.681435
11
161.800599
21
184.426149
0
LINE
8
Layer 1
10
161.800599
20
184.426149
11
162.046702
21
184.000672
0
LINE
8
Layer 1
10
162.046702
20
184.000672
11
162.128737
21
183.405004
0
LINE
8
Layer 1
10
162.128737
20
183.405004
11
162.128737
21
180.358712
0
LINE
8
Layer 1
10
162.128737
20
180.358712
11
161.286353
21
180.358712
0
LINE
8
Layer 1
10
161.286353
20
180.358712
11
161.286353
21
183.091562
0
LINE
8
Layer 1
10
161.286353
20
183.091562
11
161.207992
21
183.649885
0
LINE
8
Layer 1
10
161.207992
20
183.649885
11
160.963113
21
183.943739
0
LINE
8
Layer 1
10
160.963113
20
183.943739
11
160.502740
21
184.031895
0
LINE
8
Layer 1
10
160.502740
20
184.031895
11
159.875850
21
183.943739
0
LINE
8
Layer 1
10
159.875850
20
183.943739
11
159.248960
21
183.728244
0
LINE
8
Layer 1
10
159.248960
20
183.728244
11
159.248960
21
180.358712
0
LINE
8
Layer 1
10
159.248960
20
180.358712
11
158.406576
21
180.358712
0
LINE
8
Layer 1
10
158.406576
20
180.358712
11
158.406576
21
184.648989
0
LINE
8
Layer 1
10
158.406576
20
184.648989
11
159.248960
21
184.746943
0
LINE
8
Layer 1
10
159.248960
20
184.746943
11
159.248960
21
184.335547
0
LINE
8
Layer 1
10
159.248960
20
184.335547
11
160.052163
21
184.658785
0
LINE
8
Layer 1
10
160.052163
20
184.658785
11
160.816185
21
184.766531
0
LINE
8
Layer 1
10
160.816185
20
184.766531
11
160.816185
21
184.766531
0
LINE
8
Layer 1
10
165.841095
20
184.766531
11
166.384727
21
184.688170
0
LINE
8
Layer 1
10
166.384727
20
184.688170
11
166.801021
21
184.453089
0
LINE
8
Layer 1
10
166.801021
20
184.453089
11
167.065491
21
184.041690
0
LINE
8
Layer 1
10
167.065491
20
184.041690
11
167.153647
21
183.434390
0
LINE
8
Layer 1
10
167.153647
20
183.434390
11
167.153647
21
180.358712
0
LINE
8
Layer 1
10
167.153647
20
180.358712
11
166.311263
21
180.358712
0
LINE
8
Layer 1
10
166.311263
20
180.358712
11
166.311263
21
183.091562
0
LINE
8
Layer 1
10
166.311263
20
183.091562
11
166.232902
21
183.649885
0
LINE
8
Layer 1
10
166.232902
20
183.649885
11
165.988023
21
183.943739
0
LINE
8
Layer 1
10
165.988023
20
183.943739
11
165.527651
21
184.031895
0
LINE
8
Layer 1
10
165.527651
20
184.031895
11
164.900760
21
183.953537
0
LINE
8
Layer 1
10
164.900760
20
183.953537
11
164.293461
21
183.738041
0
LINE
8
Layer 1
10
164.293461
20
183.738041
11
164.293461
21
180.358712
0
LINE
8
Layer 1
10
164.293461
20
180.358712
11
163.451077
21
180.358712
0
LINE
8
Layer 1
10
163.451077
20
180.358712
11
163.451077
21
187.097782
0
LINE
8
Layer 1
10
163.451077
20
187.097782
11
164.293461
21
187.195736
0
LINE
8
Layer 1
10
164.293461
20
187.195736
11
164.293461
21
184.345344
0
LINE
8
Layer 1
10
164.293461
20
184.345344
11
165.081971
21
184.661234
0
LINE
8
Layer 1
10
165.081971
20
184.661234
11
165.841095
21
184.766531
0
LINE
8
Layer 1
10
165.841095
20
184.766531
11
165.841095
21
184.766531
0
LINE
8
Layer 1
10
172.110005
20
184.746936
11
172.110005
21
180.358706
0
LINE
8
Layer 1
10
172.110005
20
180.358706
11
171.355775
21
180.358706
0
LINE
8
Layer 1
10
171.355775
20
180.358706
11
171.306801
21
180.681945
0
LINE
8
Layer 1
10
171.306801
20
180.681945
11
170.547677
21
180.351359
0
LINE
8
Layer 1
10
170.547677
20
180.351359
11
169.778757
21
180.241164
0
LINE
8
Layer 1
10
169.778757
20
180.241164
11
169.235125
21
180.324423
0
LINE
8
Layer 1
10
169.235125
20
180.324423
11
168.799241
21
180.574201
0
LINE
8
Layer 1
10
168.799241
20
180.574201
11
168.520079
21
181.002737
0
LINE
8
Layer 1
10
168.520079
20
181.002737
11
168.427025
21
181.602690
0
LINE
8
Layer 1
10
168.427025
20
181.602690
11
168.427025
21
184.648982
0
LINE
8
Layer 1
10
168.427025
20
184.648982
11
169.269409
21
184.746936
0
LINE
8
Layer 1
10
169.269409
20
184.746936
11
169.269409
21
181.847571
0
LINE
8
Layer 1
10
169.269409
20
181.847571
11
169.347769
21
181.328424
0
LINE
8
Layer 1
10
169.347769
20
181.328424
11
169.602444
21
181.054158
0
LINE
8
Layer 1
10
169.602444
20
181.054158
11
170.092202
21
180.975799
0
LINE
8
Layer 1
10
170.092202
20
180.975799
11
171.267621
21
181.338222
0
LINE
8
Layer 1
10
171.267621
20
181.338222
11
171.267621
21
184.648982
0
LINE
8
Layer 1
10
171.267621
20
184.648982
11
172.110005
21
184.746936
0
LINE
8
Layer 1
10
175.763593
20
184.766531
11
176.285186
21
184.695517
0
LINE
8
Layer 1
10
176.285186
20
184.695517
11
176.713724
21
184.482474
0
LINE
8
Layer 1
10
176.713724
20
184.482474
11
177.281844
21
183.718453
0
LINE
8
Layer 1
10
177.281844
20
183.718453
11
177.467954
21
182.631186
0
LINE
8
Layer 1
10
177.467954
20
182.631186
11
177.374899
21
181.857370
0
LINE
8
Layer 1
10
177.374899
20
181.857370
11
177.095734
21
181.240275
0
LINE
8
Layer 1
10
177.095734
20
181.240275
11
176.684337
21
180.784801
0
LINE
8
Layer 1
10
176.684337
20
180.784801
11
176.174989
21
180.476254
0
LINE
8
Layer 1
10
176.174989
20
180.476254
11
175.019161
21
180.241171
0
LINE
8
Layer 1
10
175.019161
20
180.241171
11
173.481322
21
180.525227
0
LINE
8
Layer 1
10
173.481322
20
180.525227
11
173.481322
21
187.097782
0
LINE
8
Layer 1
10
173.481322
20
187.097782
11
174.323708
21
187.195736
0
LINE
8
Layer 1
10
174.323708
20
187.195736
11
174.323708
21
184.384520
0
LINE
8
Layer 1
10
174.323708
20
184.384520
11
175.031406
21
184.671028
0
LINE
8
Layer 1
10
175.031406
20
184.671028
11
175.763593
21
184.766531
0
LINE
8
Layer 1
10
175.763593
20
184.766531
11
175.763593
21
184.766531
0
LINE
8
Layer 1
10
174.989775
20
180.936623
11
175.621565
21
181.034575
0
LINE
8
Layer 1
10
175.621565
20
181.034575
11
176.126016
21
181.328431
0
LINE
8
Layer 1
10
176.126016
20
181.328431
11
176.456601
21
181.859821
0
LINE
8
Layer 1
10
176.456601
20
181.859821
11
176.566797
21
182.650781
0
LINE
8
Layer 1
10
176.566797
20
182.650781
11
176.503129
21
183.240937
0
LINE
8
Layer 1
10
176.503129
20
183.240937
11
176.312125
21
183.679271
0
LINE
8
Layer 1
10
176.312125
20
183.679271
11
175.988883
21
183.951087
0
LINE
8
Layer 1
10
175.988883
20
183.951087
11
175.528510
21
184.041693
0
LINE
8
Layer 1
10
175.528510
20
184.041693
11
174.323708
21
183.757629
0
LINE
8
Layer 1
10
174.323708
20
183.757629
11
174.323708
21
181.014989
0
LINE
8
Layer 1
10
174.323708
20
181.014989
11
174.989775
21
180.936623
0
LINE
8
Layer 1
10
174.989775
20
180.936623
11
174.989775
21
180.936623
0
LINE
8
Capa 1
10
168.536340
20
173.398400
11
168.536340
21
168.726860
0
LINE
8
Capa 1
10
168.536340
20
168.726860
11
169.425170
21
168.726860
0
LINE
8
Capa 1
10
169.425170
20
168.726860
11
169.425170
21
167.507300
0
LINE
8
Capa 1
10
169.425170
20
167.507300
11
168.536340
21
167.507300
0
LINE
8
Capa 1
10
168.536340
20
167.507300
11
168.536340
21
165.988020
0
LINE
8
Capa 1
10
168.536340
20
165.988020
11
167.048060
21
165.988020
0
LINE
8
Capa 1
10
167.048060
20
165.988020
11
167.048060
21
167.507300
0
LINE
8
Capa 1
10
167.048060
20
167.507300
11
163.818300
21
167.507300
0
LINE
8
Capa 1
10
163.818300
20
167.507300
11
163.818300
21
168.783710
0
LINE
8
Capa 1
10
163.818300
20
168.783710
11
164.707130
21
169.832740
0
LINE
8
Capa 1
10
164.707130
20
169.832740
11
165.595960
21
171.010960
0
LINE
8
Capa 1
10
165.595960
20
171.010960
11
166.391780
21
172.225350
0
LINE
8
Capa 1
10
166.391780
20
172.225350
11
167.022230
21
173.398400
0
LINE
8
Capa 1
10
167.022230
20
173.398400
11
168.536340
21
173.398400
0
LINE
8
Capa 1
10
165.280740
20
168.726860
11
167.048060
21
168.726860
0
LINE
8
Capa 1
10
167.048060
20
168.726860
11
167.048060
21
171.315850
0
LINE
8
Capa 1
10
167.048060
20
171.315850
11
166.655320
21
170.633720
0
LINE
8
Capa 1
10
166.655320
20
170.633720
11
166.210910
21
169.956760
0
LINE
8
Capa 1
10
166.210910
20
169.956760
11
165.740650
21
169.310810
0
LINE
8
Capa 1
10
165.740650
20
169.310810
11
165.280740
21
168.726860
0
LINE
8
Capa 1
10
165.280740
20
168.726860
11
165.280740
21
168.726860
0
LINE
8
Capa 1
10
173.590280
20
166.050030
11
172.499910
21
165.858830
0
LINE
8
Capa 1
10
172.499910
20
165.858830
11
171.744789
21
165.970903
0
LINE
8
Capa 1
10
171.744789
20
165.970903
11
171.205417
21
166.307122
0
LINE
8
Capa 1
10
171.205417
20
166.307122
11
170.881794
21
166.867488
0
LINE
8
Capa 1
10
170.881794
20
166.867488
11
170.773920
21
167.652000
0
LINE
8
Capa 1
10
170.773920
20
167.652000
11
170.773920
21
170.075610
0
LINE
8
Capa 1
10
170.773920
20
170.075610
11
169.916100
21
170.075610
0
LINE
8
Capa 1
10
169.916100
20
170.075610
11
169.916100
21
171.279670
0
LINE
8
Capa 1
10
169.916100
20
171.279670
11
170.773920
21
171.279670
0
LINE
8
Capa 1
10
170.773920
20
171.279670
11
170.773920
21
172.421720
0
LINE
8
Capa 1
10
170.773920
20
172.421720
11
172.401730
21
172.886800
0
LINE
8
Capa 1
10
172.401730
20
172.886800
11
172.401730
21
171.279670
0
LINE
8
Capa 1
10
172.401730
20
171.279670
11
173.590280
21
171.279670
0
LINE
8
Capa 1
10
173.590280
20
171.279670
11
173.590280
21
170.075610
0
LINE
8
Capa 1
10
173.590280
20
170.075610
11
172.401730
21
170.075610
0
LINE
8
Capa 1
10
172.401730
20
170.075610
11
172.401730
21
167.936220
0
LINE
8
Capa 1
10
172.401730
20
167.936220
11
172.565800
21
167.316105
0
LINE
8
Capa 1
10
172.565800
20
167.316105
11
173.058010
21
167.109400
0
LINE
8
Capa 1
10
173.058010
20
167.109400
11
173.590280
21
167.259260
0
LINE
8
Capa 1
10
173.590280
20
167.259260
11
173.590280
21
166.050030
0
LINE
8
Capa 1
10
179.589890
20
165.988030
11
177.962090
21
165.988030
0
LINE
8
Capa 1
10
177.962090
20
165.988030
11
177.962090
21
168.995590
0
LINE
8
Capa 1
10
177.962090
20
168.995590
11
177.750217
21
169.867630
0
LINE
8
Capa 1
10
177.750217
20
169.867630
11
177.485377
21
170.085640
0
LINE
8
Capa 1
10
177.485377
20
170.085640
11
177.114600
21
170.158310
0
LINE
8
Capa 1
10
177.114600
20
170.158310
11
176.721860
21
170.076920
0
LINE
8
Capa 1
10
176.721860
20
170.076920
11
176.411800
21
169.832750
0
LINE
8
Capa 1
10
176.411800
20
169.832750
11
176.210267
21
169.463265
0
LINE
8
Capa 1
10
176.210267
20
169.463265
11
176.143090
21
169.005930
0
LINE
8
Capa 1
10
176.143090
20
169.005930
11
176.143090
21
165.988030
0
LINE
8
Capa 1
10
176.143090
20
165.988030
11
174.510120
21
165.988030
0
LINE
8
Capa 1
10
174.510120
20
165.988030
11
174.510120
21
173.822150
0
LINE
8
Capa 1
10
174.510120
20
173.822150
11
176.143090
21
173.822150
0
LINE
8
Capa 1
10
176.143090
20
173.822150
11
176.143090
21
170.494200
0
LINE
8
Capa 1
10
176.143090
20
170.494200
11
176.163790
21
170.494200
0
LINE
8
Capa 1
10
176.163790
20
170.494200
11
176.870460
21
171.180202
0
LINE
8
Capa 1
10
176.870460
20
171.180202
11
177.791590
21
171.408870
0
LINE
8
Capa 1
10
177.791590
20
171.408870
11
178.578359
21
171.273220
0
LINE
8
Capa 1
10
178.578359
20
171.273220
11
179.140338
21
170.866270
0
LINE
8
Capa 1
10
179.140338
20
170.866270
11
179.477524
21
170.188020
0
LINE
8
Capa 1
10
179.477524
20
170.188020
11
179.589920
21
169.238470
0
LINE
8
Capa 1
10
179.589920
20
169.238470
11
179.589890
21
165.988030
0
LINE
8
Capa 1
10
187.000270
20
166.050030
11
185.909900
21
165.858830
0
LINE
8
Capa 1
10
185.909900
20
165.858830
11
185.154779
21
165.970903
0
LINE
8
Capa 1
10
185.154779
20
165.970903
11
184.615408
21
166.307122
0
LINE
8
Capa 1
10
184.615408
20
166.307122
11
184.291784
21
166.867488
0
LINE
8
Capa 1
10
184.291784
20
166.867488
11
184.183910
21
167.652000
0
LINE
8
Capa 1
10
184.183910
20
167.652000
11
184.183910
21
170.075610
0
LINE
8
Capa 1
10
184.183910
20
170.075610
11
183.326090
21
170.075610
0
LINE
8
Capa 1
10
183.326090
20
170.075610
11
183.326090
21
171.279670
0
LINE
8
Capa 1
10
183.326090
20
171.279670
11
184.183910
21
171.279670
0
LINE
8
Capa 1
10
184.183910
20
171.279670
11
184.183910
21
172.421720
0
LINE
8
Capa 1
10
184.183910
20
172.421720
11
185.811720
21
172.886800
0
LINE
8
Capa 1
10
185.811720
20
172.886800
11
185.811720
21
171.279670
0
LINE
8
Capa 1
10
185.811720
20
171.279670
11
187.000270
21
171.279670
0
LINE
8
Capa 1
10
187.000270
20
171.279670
11
187.000270
21
170.075610
0
LINE
8
Capa 1
10
187.000270
20
170.075610
11
185.811720
21
170.075610
0
LINE
8
Capa 1
10
185.811720
20
170.075610
11
185.811720
21
167.936220
0
LINE
8
Capa 1
10
185.811720
20
167.936220
11
185.975793
21
167.316105
0
LINE
8
Capa 1
10
185.975793
20
167.316105
11
186.468010
21
167.109400
0
LINE
8
Capa 1
10
186.468010
20
167.109400
11
187.000270
21
167.259260
0
LINE
8
Capa 1
10
187.000270
20
167.259260
11
187.000270
21
166.050030
0
LINE
8
Capa 1
10
191.372080
20
169.806900
11
190.684790
21
169.967090
0
LINE
8
Capa 1
10
190.684790
20
169.967090
11
190.210658
21
169.868905
0
LINE
8
Capa 1
10
190.210658
20
169.868905
11
189.852800
21
169.574350
0
LINE
8
Capa 1
10
189.852800
20
169.574350
11
189.628010
21
169.115725
0
LINE
8
Capa 1
10
189.628010
20
169.115725
11
189.553080
21
168.514990
0
LINE
8
Capa 1
10
189.553080
20
168.514990
11
189.553080
21
165.988020
0
LINE
8
Capa 1
10
189.553080
20
165.988020
11
187.920110
21
165.988020
0
LINE
8
Capa 1
10
187.920110
20
165.988020
11
187.920110
21
171.279670
0
LINE
8
Capa 1
10
187.920110
20
171.279670
11
189.553080
21
171.279670
0
LINE
8
Capa 1
10
189.553080
20
171.279670
11
189.553080
21
170.297820
0
LINE
8
Capa 1
10
189.553080
20
170.297820
11
189.573780
21
170.297820
0
LINE
8
Capa 1
10
189.573780
20
170.297820
11
190.116380
21
171.103972
0
LINE
8
Capa 1
10
190.116380
20
171.103972
11
190.503953
21
171.305511
0
LINE
8
Capa 1
10
190.503953
20
171.305511
11
190.969040
21
171.372690
0
LINE
8
Capa 1
10
190.969040
20
171.372690
11
191.372110
21
171.310690
0
LINE
8
Capa 1
10
191.372110
20
171.310690
11
191.372080
21
169.806900
0
LINE
8
Capa 1
10
197.170160
20
171.279670
11
195.020430
21
165.564280
0
LINE
8
Capa 1
10
195.020430
20
165.564280
11
194.583767
21
164.662203
0
LINE
8
Capa 1
10
194.583767
20
164.662203
11
194.048918
21
164.017863
0
LINE
8
Capa 1
10
194.048918
20
164.017863
11
193.415882
21
163.631258
0
LINE
8
Capa 1
10
193.415882
20
163.631258
11
192.684660
21
163.502390
0
LINE
8
Capa 1
10
192.684660
20
163.502390
11
191.707980
21
163.636750
0
LINE
8
Capa 1
10
191.707980
20
163.636750
11
191.707980
21
164.938990
0
LINE
8
Capa 1
10
191.707980
20
164.938990
11
192.415950
21
164.747790
0
LINE
8
Capa 1
10
192.415950
20
164.747790
11
192.950798
21
164.896360
0
LINE
8
Capa 1
10
192.950798
20
164.896360
11
193.294440
21
165.342070
0
LINE
8
Capa 1
10
193.294440
20
165.342070
11
193.573490
21
165.998360
0
LINE
8
Capa 1
10
193.573490
20
165.998360
11
191.423760
21
171.279670
0
LINE
8
Capa 1
10
191.423760
20
171.279670
11
193.232430
21
171.279670
0
LINE
8
Capa 1
10
193.232430
20
171.279670
11
194.219450
21
168.060240
0
LINE
8
Capa 1
10
194.219450
20
168.060240
11
194.364140
21
167.352280
0
LINE
8
Capa 1
10
194.364140
20
167.352280
11
194.384840
21
167.352280
0
LINE
8
Capa 1
10
194.384840
20
167.352280
11
194.555370
21
168.049900
0
LINE
8
Capa 1
10
194.555370
20
168.049900
11
195.552720
21
171.279670
0
LINE
8
Capa 1
10
195.552720
20
171.279670
11
197.170160
21
171.279670
0
LINE
8
Capa 1
10
36.312551
20
135.357000
11
35.192617
21
134.380532
0
LINE
8
Capa 1
10
35.192617
20
134.380532
11
34.002911
21
133.537910
0
LINE
8
Capa 1
10
34.002911
20
133.537910
11
31.455317
21
132.253524
0
LINE
8
Capa 1
10
31.455317
20
132.253524
11
28.752034
21
131.502470
0
LINE
8
Capa 1
10
28.752034
20
131.502470
11
25.975329
21
131.283378
0
LINE
8
Capa 1
10
25.975329
20
131.283378
11
23.207466
21
131.594876
0
LINE
8
Capa 1
10
23.207466
20
131.594876
11
20.530712
21
132.435593
0
LINE
8
Capa 1
10
20.530712
20
132.435593
11
18.027332
21
133.804158
0
LINE
8
Capa 1
10
18.027332
20
133.804158
11
16.866365
21
134.685955
0
LINE
8
Capa 1
10
16.866365
20
134.685955
11
15.779591
21
135.699200
0
LINE
8
Capa 1
10
15.779591
20
135.699200
11
14.800222
21
136.816599
0
LINE
8
Capa 1
10
14.800222
20
136.816599
11
13.954520
21
138.004117
0
LINE
8
Capa 1
10
13.954520
20
138.004117
11
12.663533
21
140.548373
0
LINE
8
Capa 1
10
12.663533
20
140.548373
11
11.905473
21
143.249699
0
LINE
8
Capa 1
10
11.905473
20
143.249699
11
11.679183
21
146.025828
0
LINE
8
Capa 1
10
11.679183
20
146.025828
11
11.983504
21
148.794489
0
LINE
8
Capa 1
10
11.983504
20
148.794489
11
12.817279
21
151.473414
0
LINE
8
Capa 1
10
12.817279
20
151.473414
11
14.179350
21
153.980334
0
LINE
8
Capa 1
10
14.179350
20
153.980334
11
15.058134
21
155.143583
0
LINE
8
Capa 1
10
15.058134
20
155.143583
11
16.068559
21
156.232980
0
LINE
8
Capa 1
10
16.068559
20
156.232980
11
17.183415
21
157.215242
0
LINE
8
Capa 1
10
17.183415
20
157.215242
11
18.368737
21
158.064019
0
LINE
8
Capa 1
10
18.368737
20
158.064019
11
20.909637
21
159.361596
0
LINE
8
Capa 1
10
20.909637
20
159.361596
11
23.608989
21
160.126656
0
LINE
8
Capa 1
10
23.608989
20
160.126656
11
26.384521
21
160.360141
0
LINE
8
Capa 1
10
26.384521
20
160.360141
11
29.153962
21
160.062998
0
LINE
8
Capa 1
10
29.153962
20
160.062998
11
31.835038
21
159.236170
0
LINE
8
Capa 1
10
31.835038
20
159.236170
11
34.345480
21
157.880603
0
LINE
8
Capa 1
10
34.345480
20
157.880603
11
35.511004
21
157.004837
0
LINE
8
Capa 1
10
35.511004
20
157.004837
11
36.603016
21
155.997240
0
LINE
8
Capa 1
10
36.603016
20
155.997240
11
37.588165
21
154.884934
0
LINE
8
Capa 1
10
37.588165
20
154.884934
11
38.440013
21
153.701818
0
LINE
8
Capa 1
10
38.440013
20
153.701818
11
39.744174
21
151.164290
0
LINE
8
Capa 1
10
39.744174
20
151.164290
11
40.516230
21
148.466930
0
LINE
8
Capa 1
10
40.516230
20
148.466930
11
40.756911
21
145.692013
0
LINE
8
Capa 1
10
40.756911
20
145.692013
11
40.466950
21
142.921811
0
LINE
8
Capa 1
10
40.466950
20
142.921811
11
39.647076
21
140.238600
0
LINE
8
Capa 1
10
39.647076
20
140.238600
11
38.298022
21
137.724651
0
LINE
8
Capa 1
10
38.298022
20
137.724651
11
37.425281
21
136.556861
0
LINE
8
Capa 1
10
37.425281
20
136.556861
11
36.420519
21
135.462240
0
LINE
8
Capa 1
10
40.718810
20
146.941699
11
28.313005
21
145.110414
0
LINE
8
Capa 1
10
28.313005
20
145.110414
11
33.860220
21
132.401825
0
LINE
8
Capa 1
10
33.860220
20
132.401825
11
26.257948
21
143.662339
0
LINE
8
Capa 1
10
26.257948
20
143.662339
11
19.320348
21
131.863514
0
LINE
8
Capa 1
10
19.320348
20
131.863514
11
24.123882
21
144.955318
0
LINE
8
Capa 1
10
24.123882
20
144.955318
11
11.639066
21
145.865082
0
LINE
8
Capa 1
10
11.639066
20
145.865082
11
24.044874
21
147.696372
0
LINE
8
Capa 1
10
24.044874
20
147.696372
11
18.497656
21
160.404956
0
LINE
8
Capa 1
10
18.497656
20
160.404956
11
26.099930
21
149.144441
0
LINE
8
Capa 1
10
26.099930
20
149.144441
11
33.037530
21
160.943266
0
LINE
8
Capa 1
10
33.037530
20
160.943266
11
28.233995
21
147.851463
0
LINE
8
Capa 1
10
28.233995
20
147.851463
11
40.718810
21
146.941699
0
LINE
8
Capa 1
10
49.871438
20
143.440648
11
49.761511
21
141.896251
0
LINE
8
Capa 1
10
49.761511
20
141.896251
11
49.431729
21
140.793111
0
LINE
8
Capa 1
10
49.431729
20
140.793111
11
48.882092
21
140.131227
0
LINE
8
Capa 1
10
48.882092
20
140.131227
11
48.112600
21
139.910599
0
LINE
8
Capa 1
10
48.112600
20
139.910599
11
47.366117
21
140.126103
0
LINE
8
Capa 1
10
47.366117
20
140.126103
11
46.832915
21
140.772617
0
LINE
8
Capa 1
10
46.832915
20
140.772617
11
46.512993
21
141.850141
0
LINE
8
Capa 1
10
46.512993
20
141.850141
11
46.406353
21
143.358674
0
LINE
8
Capa 1
10
46.406353
20
143.358674
11
46.406353
21
147.883255
0
LINE
8
Capa 1
10
46.406353
20
147.883255
11
47.352970
21
147.883255
0
LINE
8
Capa 1
10
47.352970
20
147.883255
11
47.352970
21
143.336820
0
LINE
8
Capa 1
10
47.352970
20
143.336820
11
47.551642
21
141.910594
0
LINE
8
Capa 1
10
47.551642
20
141.910594
11
47.799983
21
141.554038
0
LINE
8
Capa 1
10
47.799983
20
141.554038
11
48.147660
21
141.435185
0
LINE
8
Capa 1
10
48.147660
20
141.435185
11
48.488946
21
141.549939
0
LINE
8
Capa 1
10
48.488946
20
141.549939
11
48.732722
21
141.894200
0
LINE
8
Capa 1
10
48.732722
20
141.894200
11
48.927743
21
143.271243
0
LINE
8
Capa 1
10
48.927743
20
143.271243
11
48.927743
21
147.883255
0
LINE
8
Capa 1
10
48.927743
20
147.883255
11
49.871438
21
147.883255
0
LINE
8
Capa 1
10
49.871438
20
147.883255
11
49.871438
21
143.440648
0
LINE
8
Capa 1
10
50.496673
20
140.194745
11
50.496673
21
141.593649
0
LINE
8
Capa 1
10
50.496673
20
141.593649
11
50.949530
21
141.211145
0
LINE
8
Capa 1
10
50.949530
20
141.211145
11
51.379013
21
141.085463
0
LINE
8
Capa 1
10
51.379013
20
141.085463
11
51.764672
21
141.211145
0
LINE
8
Capa 1
10
51.764672
20
141.211145
11
51.907834
21
141.593649
0
LINE
8
Capa 1
10
51.907834
20
141.593649
11
51.843561
21
141.866882
0
LINE
8
Capa 1
10
51.843561
20
141.866882
11
51.677026
21
142.058141
0
LINE
8
Capa 1
10
51.677026
20
142.058141
11
51.457901
21
142.205678
0
LINE
8
Capa 1
10
51.457901
20
142.205678
11
51.227091
21
142.353214
0
LINE
8
Capa 1
10
51.227091
20
142.353214
11
50.911552
21
142.620977
0
LINE
8
Capa 1
10
50.911552
20
142.620977
11
50.683662
21
142.959772
0
LINE
8
Capa 1
10
50.683662
20
142.959772
11
50.543423
21
143.402396
0
LINE
8
Capa 1
10
50.543423
20
143.402396
11
50.496677
21
143.998027
0
LINE
8
Capa 1
10
50.496677
20
143.998027
11
50.604779
21
144.806757
0
LINE
8
Capa 1
10
50.604779
20
144.806757
11
50.896944
21
145.358679
0
LINE
8
Capa 1
10
50.896944
20
145.358679
11
51.314741
21
145.675607
0
LINE
8
Capa 1
10
51.314741
20
145.675607
11
51.805579
21
145.779408
0
LINE
8
Capa 1
10
51.805579
20
145.779408
11
52.208768
21
145.719233
0
LINE
8
Capa 1
10
52.208768
20
145.719233
11
52.611957
21
145.555299
0
LINE
8
Capa 1
10
52.611957
20
145.555299
11
52.611957
21
144.221971
0
LINE
8
Capa 1
10
52.611957
20
144.221971
11
52.235063
21
144.506118
0
LINE
8
Capa 1
10
52.235063
20
144.506118
11
51.843561
21
144.604448
0
LINE
8
Capa 1
10
51.843561
20
144.604448
11
51.671184
21
144.571626
0
LINE
8
Capa 1
10
51.671184
20
144.571626
11
51.530944
21
144.484236
0
LINE
8
Capa 1
10
51.530944
20
144.484236
11
51.434529
21
144.336699
0
LINE
8
Capa 1
10
51.434529
20
144.336699
11
51.399468
21
144.134513
0
LINE
8
Capa 1
10
51.399468
20
144.134513
11
51.452056
21
143.872221
0
LINE
8
Capa 1
10
51.452056
20
143.872221
11
51.589374
21
143.680962
0
LINE
8
Capa 1
10
51.589374
20
143.680962
11
51.776360
21
143.538882
0
LINE
8
Capa 1
10
51.776360
20
143.538882
11
51.983798
21
143.413200
0
LINE
8
Capa 1
10
51.983798
20
143.413200
11
52.316867
21
143.150908
0
LINE
8
Capa 1
10
52.316867
20
143.150908
11
52.571051
21
142.817569
0
LINE
8
Capa 1
10
52.571051
20
142.817569
11
52.734664
21
142.369489
0
LINE
8
Capa 1
10
52.734664
20
142.369489
11
52.793095
21
141.757460
0
LINE
8
Capa 1
10
52.793095
20
141.757460
11
52.676228
21
140.905008
0
LINE
8
Capa 1
10
52.676228
20
140.905008
11
52.369455
21
140.331245
0
LINE
8
Capa 1
10
52.369455
20
140.331245
11
51.928284
21
140.014304
0
LINE
8
Capa 1
10
51.928284
20
140.014304
11
51.411151
21
139.910503
0
LINE
8
Capa 1
10
51.411151
20
139.910503
11
50.496672
21
140.194649
0
LINE
8
Capa 1
10
50.496672
20
140.194649
11
50.496673
21
140.194745
0
LINE
8
Capa 1
10
53.792302
20
146.528073
11
53.409565
21
146.784895
0
LINE
8
Capa 1
10
53.409565
20
146.784895
11
53.260561
21
147.424248
0
LINE
8
Capa 1
10
53.260561
20
147.424248
11
53.409565
21
148.058117
0
LINE
8
Capa 1
10
53.409565
20
148.058117
11
53.792302
21
148.304025
0
LINE
8
Capa 1
10
53.792302
20
148.304025
11
54.175040
21
148.058117
0
LINE
8
Capa 1
10
54.175040
20
148.058117
11
54.324044
21
147.424248
0
LINE
8
Capa 1
10
54.324044
20
147.424248
11
54.175040
21
146.779438
0
LINE
8
Capa 1
10
54.175040
20
146.779438
11
53.792302
21
146.528073
0
LINE
8
Capa 1
10
53.792302
20
146.528073
11
53.792302
21
146.528073
0
LINE
8
Capa 1
10
54.248081
20
140.047208
11
53.324837
21
140.047208
0
LINE
8
Capa 1
10
53.324837
20
140.047208
11
53.324837
21
145.642826
0
LINE
8
Capa 1
10
53.324837
20
145.642826
11
54.248081
21
145.642826
0
LINE
8
Capa 1
10
54.248081
20
145.642826
11
54.248081
21
140.047208
0
LINE
8
Capa 1
10
57.914761
20
140.047208
11
56.994439
21
140.047208
0
LINE
8
Capa 1
10
56.994439
20
140.047208
11
56.994439
21
143.156488
0
LINE
8
Capa 1
10
56.994439
20
143.156488
11
56.870268
21
144.131898
0
LINE
8
Capa 1
10
56.870268
20
144.131898
11
56.715055
21
144.375750
0
LINE
8
Capa 1
10
56.715055
20
144.375750
11
56.497757
21
144.457034
0
LINE
8
Capa 1
10
56.497757
20
144.457034
11
56.279363
21
144.370968
0
LINE
8
Capa 1
10
56.279363
20
144.370968
11
56.103333
21
144.112768
0
LINE
8
Capa 1
10
56.103333
20
144.112768
11
55.948485
21
143.238462
0
LINE
8
Capa 1
10
55.948485
20
143.238462
11
55.948485
21
140.047208
0
LINE
8
Capa 1
10
55.948485
20
140.047208
11
55.025242
21
140.047208
0
LINE
8
Capa 1
10
55.025242
20
140.047208
11
55.025242
21
145.642826
0
LINE
8
Capa 1
10
55.025242
20
145.642826
11
55.948485
21
145.642826
0
LINE
8
Capa 1
10
55.948485
20
145.642826
11
55.948485
21
144.757578
0
LINE
8
Capa 1
10
55.948485
20
144.757578
11
55.960170
21
144.757578
0
LINE
8
Capa 1
10
55.960170
20
144.757578
11
56.365550
21
145.523971
0
LINE
8
Capa 1
10
56.365550
20
145.523971
11
56.921395
21
145.779435
0
LINE
8
Capa 1
10
56.921395
20
145.779435
11
57.355991
21
145.635310
0
LINE
8
Capa 1
10
57.355991
20
145.635310
11
57.666417
21
145.202934
0
LINE
8
Capa 1
10
57.666417
20
145.202934
11
57.852673
21
144.482307
0
LINE
8
Capa 1
10
57.852673
20
144.482307
11
57.914758
21
143.473429
0
LINE
8
Capa 1
10
57.914758
20
143.473429
11
57.914761
21
140.047208
0
LINE
8
Capa 1
10
61.578519
20
140.686548
11
61.458001
21
139.305408
0
LINE
8
Capa 1
10
61.458001
20
139.305408
11
61.096446
21
138.276727
0
LINE
8
Capa 1
10
61.096446
20
138.276727
11
60.506271
21
137.633285
0
LINE
8
Capa 1
10
60.506271
20
137.633285
11
59.699893
21
137.418804
0
LINE
8
Capa 1
10
59.699893
20
137.418804
11
59.157926
21
137.499404
0
LINE
8
Capa 1
10
59.157926
20
137.499404
11
58.741590
21
137.741202
0
LINE
8
Capa 1
10
58.741590
20
137.741202
11
58.741590
21
139.194756
0
LINE
8
Capa 1
10
58.741590
20
139.194756
11
59.205404
21
138.817708
0
LINE
8
Capa 1
10
59.205404
20
138.817708
11
59.673599
21
138.692026
0
LINE
8
Capa 1
10
59.673599
20
138.692026
11
60.088474
21
138.808146
0
LINE
8
Capa 1
10
60.088474
20
138.808146
11
60.398170
21
139.156504
0
LINE
8
Capa 1
10
60.398170
20
139.156504
11
60.591000
21
139.698846
0
LINE
8
Capa 1
10
60.591000
20
139.698846
11
60.655276
21
140.407858
0
LINE
8
Capa 1
10
60.655276
20
140.407858
11
60.655276
21
140.850482
0
LINE
8
Capa 1
10
60.655276
20
140.850482
11
60.643591
21
140.850482
0
LINE
8
Capa 1
10
60.643591
20
140.850482
11
60.252820
21
140.145569
0
LINE
8
Capa 1
10
60.252820
20
140.145569
11
59.711583
21
139.910599
0
LINE
8
Capa 1
10
59.711583
20
139.910599
11
59.198101
21
140.099122
0
LINE
8
Capa 1
10
59.198101
20
140.099122
11
58.802947
21
140.664693
0
LINE
8
Capa 1
10
58.802947
20
140.664693
11
58.550954
21
141.547206
0
LINE
8
Capa 1
10
58.550954
20
141.547206
11
58.466956
21
142.686553
0
LINE
8
Capa 1
10
58.466956
20
142.686553
11
58.560449
21
143.961139
0
LINE
8
Capa 1
10
58.560449
20
143.961139
11
58.840929
21
144.943380
0
LINE
8
Capa 1
10
58.840929
20
144.943380
11
59.274064
21
145.570422
0
LINE
8
Capa 1
10
59.274064
20
145.570422
11
59.825527
21
145.779435
0
LINE
8
Capa 1
10
59.825527
20
145.779435
11
60.303218
21
145.582716
0
LINE
8
Capa 1
10
60.303218
20
145.582716
11
60.643591
21
144.992559
0
LINE
8
Capa 1
10
60.643591
20
144.992559
11
60.655276
21
144.992559
0
LINE
8
Capa 1
10
60.655276
20
144.992559
11
60.655276
21
145.642826
0
LINE
8
Capa 1
10
60.655276
20
145.642826
11
61.578519
21
145.642826
0
LINE
8
Capa 1
10
61.578519
20
145.642826
11
61.578519
21
140.686548
0
LINE
8
Capa 1
10
60.666962
20
142.735732
11
60.666962
21
143.178356
0
LINE
8
Capa 1
10
60.666962
20
143.178356
11
60.497506
21
144.079987
0
LINE
8
Capa 1
10
60.497506
20
144.079987
11
60.305407
21
144.362773
0
LINE
8
Capa 1
10
60.305407
20
144.362773
11
60.062179
21
144.457034
0
LINE
8
Capa 1
10
60.062179
20
144.457034
11
59.788274
21
144.345014
0
LINE
8
Capa 1
10
59.788274
20
144.345014
11
59.580106
21
144.008954
0
LINE
8
Capa 1
10
59.580106
20
144.008954
11
59.404806
21
142.746659
0
LINE
8
Capa 1
10
59.404806
20
142.746659
11
59.571341
21
141.637371
0
LINE
8
Capa 1
10
59.571341
20
141.637371
11
59.768553
21
141.334092
0
LINE
8
Capa 1
10
59.768553
20
141.334092
11
60.027120
21
141.232999
0
LINE
8
Capa 1
10
60.027120
20
141.232999
11
60.285686
21
141.335457
0
LINE
8
Capa 1
10
60.285686
20
141.335457
11
60.488742
21
141.642828
0
LINE
8
Capa 1
10
60.488742
20
141.642828
11
60.666962
21
142.735732
0
LINE
8
Capa 1
10
60.666962
20
142.735732
11
60.666962
21
142.735732
0
LINE
8
Capa 1
10
66.267780
20
140.249394
11
65.885774
21
139.995298
0
LINE
8
Capa 1
10
65.885774
20
139.995298
11
65.364988
21
139.910599
0
LINE
8
Capa 1
10
65.364988
20
139.910599
11
64.741214
21
140.105953
0
LINE
8
Capa 1
10
64.741214
20
140.105953
11
64.248915
21
140.692018
0
LINE
8
Capa 1
10
64.248915
20
140.692018
11
63.928993
21
141.586825
0
LINE
8
Capa 1
10
63.928993
20
141.586825
11
63.822353
21
142.708407
0
LINE
8
Capa 1
10
63.822353
20
142.708407
11
63.936298
21
143.982997
0
LINE
8
Capa 1
10
63.936298
20
143.982997
11
64.278132
21
144.954307
0
LINE
8
Capa 1
10
64.278132
20
144.954307
11
64.813525
21
145.573153
0
LINE
8
Capa 1
10
64.813525
20
145.573153
11
65.502306
21
145.779435
0
LINE
8
Capa 1
10
65.502306
20
145.779435
11
65.958085
21
145.713862
0
LINE
8
Capa 1
10
65.958085
20
145.713862
11
66.267780
21
145.517143
0
LINE
8
Capa 1
10
66.267780
20
145.517143
11
66.267780
21
144.052662
0
LINE
8
Capa 1
10
66.267780
20
144.052662
11
65.961737
21
144.355941
0
LINE
8
Capa 1
10
65.961737
20
144.355941
11
65.622094
21
144.457034
0
LINE
8
Capa 1
10
65.622094
20
144.457034
11
65.265652
21
144.347746
0
LINE
8
Capa 1
10
65.265652
20
144.347746
11
64.991016
21
144.019881
0
LINE
8
Capa 1
10
64.991016
20
144.019881
11
64.760205
21
142.823163
0
LINE
8
Capa 1
10
64.760205
20
142.823163
11
64.982251
21
141.653769
0
LINE
8
Capa 1
10
64.982251
20
141.653769
11
65.245931
21
141.338192
0
LINE
8
Capa 1
10
65.245931
20
141.338192
11
65.592877
21
141.232999
0
LINE
8
Capa 1
10
65.592877
20
141.232999
11
65.933981
21
141.334092
0
LINE
8
Capa 1
10
65.933981
20
141.334092
11
66.267780
21
141.637371
0
LINE
8
Capa 1
10
66.267780
20
141.637371
11
66.267780
21
140.249394
0
LINE
8
Capa 1
10
67.340029
20
146.528073
11
66.957292
21
146.784895
0
LINE
8
Capa 1
10
66.957292
20
146.784895
11
66.808287
21
147.424248
0
LINE
8
Capa 1
10
66.808287
20
147.424248
11
66.957292
21
148.058117
0
LINE
8
Capa 1
10
66.957292
20
148.058117
11
67.340029
21
148.304025
0
LINE
8
Capa 1
10
67.340029
20
148.304025
11
67.722766
21
148.058117
0
LINE
8
Capa 1
10
67.722766
20
148.058117
11
67.871771
21
147.424248
0
LINE
8
Capa 1
10
67.871771
20
147.424248
11
67.722766
21
146.779438
0
LINE
8
Capa 1
10
67.722766
20
146.779438
11
67.340029
21
146.528073
0
LINE
8
Capa 1
10
67.340029
20
146.528073
11
67.340029
21
146.528073
0
LINE
8
Capa 1
10
67.795808
20
140.047208
11
66.872564
21
140.047208
0
LINE
8
Capa 1
10
66.872564
20
140.047208
11
66.872564
21
145.642826
0
LINE
8
Capa 1
10
66.872564
20
145.642826
11
67.795808
21
145.642826
0
LINE
8
Capa 1
10
67.795808
20
145.642826
11
67.795808
21
140.047208
0
LINE
8
Capa 1
10
70.524635
20
144.085457
11
70.136055
21
144.254848
0
LINE
8
Capa 1
10
70.136055
20
144.254848
11
69.867993
21
144.151024
0
LINE
8
Capa 1
10
69.867993
20
144.151024
11
69.665668
21
143.839549
0
LINE
8
Capa 1
10
69.665668
20
143.839549
11
69.496211
21
142.719334
0
LINE
8
Capa 1
10
69.496211
20
142.719334
11
69.496211
21
140.047208
0
LINE
8
Capa 1
10
69.496211
20
140.047208
11
68.572968
21
140.047208
0
LINE
8
Capa 1
10
68.572968
20
140.047208
11
68.572968
21
145.642826
0
LINE
8
Capa 1
10
68.572968
20
145.642826
11
69.496211
21
145.642826
0
LINE
8
Capa 1
10
69.496211
20
145.642826
11
69.496211
21
144.604571
0
LINE
8
Capa 1
10
69.496211
20
144.604571
11
69.507896
21
144.604571
0
LINE
8
Capa 1
10
69.507896
20
144.604571
11
69.814670
21
145.457030
0
LINE
8
Capa 1
10
69.814670
20
145.457030
11
70.296743
21
145.741183
0
LINE
8
Capa 1
10
70.296743
20
145.741183
11
70.524633
21
145.675539
0
LINE
8
Capa 1
10
70.524633
20
145.675539
11
70.524635
21
144.085457
0
LINE
8
Capa 1
10
73.221329
20
140.249394
11
72.839320
21
139.995298
0
LINE
8
Capa 1
10
72.839320
20
139.995298
11
72.318534
21
139.910599
0
LINE
8
Capa 1
10
72.318534
20
139.910599
11
71.694760
21
140.105953
0
LINE
8
Capa 1
10
71.694760
20
140.105953
11
71.202461
21
140.692018
0
LINE
8
Capa 1
10
71.202461
20
140.692018
11
70.882540
21
141.586825
0
LINE
8
Capa 1
10
70.882540
20
141.586825
11
70.775899
21
142.708407
0
LINE
8
Capa 1
10
70.775899
20
142.708407
11
70.889844
21
143.982997
0
LINE
8
Capa 1
10
70.889844
20
143.982997
11
71.231677
21
144.954307
0
LINE
8
Capa 1
10
71.231677
20
144.954307
11
71.767071
21
145.573153
0
LINE
8
Capa 1
10
71.767071
20
145.573153
11
72.455852
21
145.779435
0
LINE
8
Capa 1
10
72.455852
20
145.779435
11
72.911631
21
145.713862
0
LINE
8
Capa 1
10
72.911631
20
145.713862
11
73.221329
21
145.517143
0
LINE
8
Capa 1
10
73.221329
20
145.517143
11
73.221329
21
144.052662
0
LINE
8
Capa 1
10
73.221329
20
144.052662
11
72.915283
21
144.355941
0
LINE
8
Capa 1
10
72.915283
20
144.355941
11
72.575640
21
144.457034
0
LINE
8
Capa 1
10
72.575640
20
144.457034
11
72.219198
21
144.347746
0
LINE
8
Capa 1
10
72.219198
20
144.347746
11
71.944562
21
144.019881
0
LINE
8
Capa 1
10
71.944562
20
144.019881
11
71.713751
21
142.823163
0
LINE
8
Capa 1
10
71.713751
20
142.823163
11
71.935797
21
141.653769
0
LINE
8
Capa 1
10
71.935797
20
141.653769
11
72.199476
21
141.338192
0
LINE
8
Capa 1
10
72.199476
20
141.338192
11
72.546423
21
141.232999
0
LINE
8
Capa 1
10
72.546423
20
141.232999
11
72.887528
21
141.334092
0
LINE
8
Capa 1
10
72.887528
20
141.334092
11
73.221329
21
141.637371
0
LINE
8
Capa 1
10
73.221329
20
141.637371
11
73.221329
21
140.249394
0
LINE
8
Capa 1
10
74.749354
20
140.047208
11
73.826110
21
140.047208
0
LINE
8
Capa 1
10
73.826110
20
140.047208
11
73.826110
21
148.331349
0
LINE
8
Capa 1
10
73.826110
20
148.331349
11
74.749354
21
148.331349
0
LINE
8
Capa 1
10
74.749354
20
148.331349
11
74.749354
21
140.047208
0
LINE
8
Capa 1
10
78.214434
20
142.353214
11
76.262770
21
142.353214
0
LINE
8
Capa 1
10
76.262770
20
142.353214
11
76.491378
21
141.439285
0
LINE
8
Capa 1
10
76.491378
20
141.439285
11
76.742095
21
141.210802
0
LINE
8
Capa 1
10
76.742095
20
141.210802
11
77.083754
21
141.134642
0
LINE
8
Capa 1
10
77.083754
20
141.134642
11
77.547568
21
141.243930
0
LINE
8
Capa 1
10
77.547568
20
141.243930
11
77.951485
21
141.571795
0
LINE
8
Capa 1
10
77.951485
20
141.571795
11
77.951485
21
140.325898
0
LINE
8
Capa 1
10
77.951485
20
140.325898
11
77.474526
21
140.014423
0
LINE
8
Capa 1
10
77.474526
20
140.014423
11
76.873393
21
139.910599
0
LINE
8
Capa 1
10
76.873393
20
139.910599
11
76.229900
21
140.097758
0
LINE
8
Capa 1
10
76.229900
20
140.097758
11
75.748556
21
140.659237
0
LINE
8
Capa 1
10
75.748556
20
140.659237
11
75.448359
21
141.560871
0
LINE
8
Capa 1
10
75.448359
20
141.560871
11
75.348293
21
142.757586
0
LINE
8
Capa 1
10
75.348293
20
142.757586
11
75.456395
21
144.006215
0
LINE
8
Capa 1
10
75.456395
20
144.006215
11
75.780699
21
144.965235
0
LINE
8
Capa 1
10
75.780699
20
144.965235
11
76.262770
21
145.575885
0
LINE
8
Capa 1
10
76.262770
20
145.575885
11
76.844182
21
145.779435
0
LINE
8
Capa 1
10
76.844182
20
145.779435
11
77.424131
21
145.597743
0
LINE
8
Capa 1
10
77.424131
20
145.597743
11
77.855075
21
145.052665
0
LINE
8
Capa 1
10
77.855075
20
145.052665
11
78.124594
21
144.196110
0
LINE
8
Capa 1
10
78.124594
20
144.196110
11
78.214434
21
143.079984
0
LINE
8
Capa 1
10
78.214434
20
143.079984
11
78.214434
21
142.353214
0
LINE
8
Capa 1
10
77.358388
20
143.413323
11
77.228376
21
144.314965
0
LINE
8
Capa 1
10
77.228376
20
144.314965
11
77.065861
21
144.540375
0
LINE
8
Capa 1
10
77.065861
20
144.540375
11
76.838339
21
144.615512
0
LINE
8
Capa 1
10
76.838339
20
144.615512
11
76.452679
21
144.271246
0
LINE
8
Capa 1
10
76.452679
20
144.271246
11
76.256927
21
143.413323
0
LINE
8
Capa 1
10
76.256927
20
143.413323
11
77.358388
21
143.413323
0
LINE
8
Capa 1
10
78.567958
20
140.194745
11
78.567958
21
141.593649
0
LINE
8
Capa 1
10
78.567958
20
141.593649
11
79.020817
21
141.211145
0
LINE
8
Capa 1
10
79.020817
20
141.211145
11
79.450298
21
141.085463
0
LINE
8
Capa 1
10
79.450298
20
141.085463
11
79.835959
21
141.211145
0
LINE
8
Capa 1
10
79.835959
20
141.211145
11
79.979122
21
141.593649
0
LINE
8
Capa 1
10
79.979122
20
141.593649
11
79.914849
21
141.866882
0
LINE
8
Capa 1
10
79.914849
20
141.866882
11
79.748316
21
142.058141
0
LINE
8
Capa 1
10
79.748316
20
142.058141
11
79.529188
21
142.205678
0
LINE
8
Capa 1
10
79.529188
20
142.205678
11
79.298383
21
142.353214
0
LINE
8
Capa 1
10
79.298383
20
142.353214
11
78.982838
21
142.620977
0
LINE
8
Capa 1
10
78.982838
20
142.620977
11
78.754950
21
142.959772
0
LINE
8
Capa 1
10
78.754950
20
142.959772
11
78.614712
21
143.402396
0
LINE
8
Capa 1
10
78.614712
20
143.402396
11
78.567987
21
143.998027
0
LINE
8
Capa 1
10
78.567987
20
143.998027
11
78.676089
21
144.806757
0
LINE
8
Capa 1
10
78.676089
20
144.806757
11
78.968257
21
145.358679
0
LINE
8
Capa 1
10
78.968257
20
145.358679
11
79.386054
21
145.675607
0
LINE
8
Capa 1
10
79.386054
20
145.675607
11
79.876892
21
145.779408
0
LINE
8
Capa 1
10
79.876892
20
145.779408
11
80.280079
21
145.719233
0
LINE
8
Capa 1
10
80.280079
20
145.719233
11
80.683267
21
145.555299
0
LINE
8
Capa 1
10
80.683267
20
145.555299
11
80.683267
21
144.221971
0
LINE
8
Capa 1
10
80.683267
20
144.221971
11
80.306374
21
144.506118
0
LINE
8
Capa 1
10
80.306374
20
144.506118
11
79.914871
21
144.604448
0
LINE
8
Capa 1
10
79.914871
20
144.604448
11
79.742496
21
144.571626
0
LINE
8
Capa 1
10
79.742496
20
144.571626
11
79.602258
21
144.484236
0
LINE
8
Capa 1
10
79.602258
20
144.484236
11
79.505841
21
144.336699
0
LINE
8
Capa 1
10
79.505841
20
144.336699
11
79.470743
21
144.134513
0
LINE
8
Capa 1
10
79.470743
20
144.134513
11
79.523317
21
143.872221
0
LINE
8
Capa 1
10
79.523317
20
143.872221
11
79.660637
21
143.680962
0
LINE
8
Capa 1
10
79.660637
20
143.680962
11
79.847622
21
143.538882
0
LINE
8
Capa 1
10
79.847622
20
143.538882
11
80.055058
21
143.413200
0
LINE
8
Capa 1
10
80.055058
20
143.413200
11
80.388130
21
143.150908
0
LINE
8
Capa 1
10
80.388130
20
143.150908
11
80.642312
21
142.817569
0
LINE
8
Capa 1
10
80.642312
20
142.817569
11
80.805927
21
142.369489
0
LINE
8
Capa 1
10
80.805927
20
142.369489
11
80.864350
21
141.757460
0
LINE
8
Capa 1
10
80.864350
20
141.757460
11
80.747489
21
140.905008
0
LINE
8
Capa 1
10
80.747489
20
140.905008
11
80.440711
21
140.331245
0
LINE
8
Capa 1
10
80.440711
20
140.331245
11
79.999544
21
140.014304
0
LINE
8
Capa 1
10
79.999544
20
140.014304
11
79.482406
21
139.910503
0
LINE
8
Capa 1
10
79.482406
20
139.910503
11
78.567929
21
140.194649
0
LINE
8
Capa 1
10
78.567929
20
140.194649
11
78.567958
21
140.194745
0
LINE
8
Capa 1
10
85.536112
20
140.047208
11
84.662539
21
140.047208
0
LINE
8
Capa 1
10
84.662539
20
140.047208
11
84.662539
21
140.850482
0
LINE
8
Capa 1
10
84.662539
20
140.850482
11
84.650840
21
140.850482
0
LINE
8
Capa 1
10
84.650840
20
140.850482
11
84.277599
21
140.145569
0
LINE
8
Capa 1
10
84.277599
20
140.145569
11
83.759733
21
139.910599
0
LINE
8
Capa 1
10
83.759733
20
139.910599
11
83.370423
21
140.025354
0
LINE
8
Capa 1
10
83.370423
20
140.025354
11
83.073144
21
140.369620
0
LINE
8
Capa 1
10
83.073144
20
140.369620
11
82.886889
21
140.910601
0
LINE
8
Capa 1
10
82.886889
20
140.910601
11
82.824804
21
141.604590
0
LINE
8
Capa 1
10
82.824804
20
141.604590
11
82.889263
21
142.332726
0
LINE
8
Capa 1
10
82.889263
20
142.332726
11
83.082640
21
142.888732
0
LINE
8
Capa 1
10
83.082640
20
142.888732
11
83.404936
21
143.272609
0
LINE
8
Capa 1
10
83.404936
20
143.272609
11
83.856150
21
143.484356
0
LINE
8
Capa 1
10
83.856150
20
143.484356
11
84.668374
21
143.686542
0
LINE
8
Capa 1
10
84.668374
20
143.686542
11
84.535439
21
144.375064
0
LINE
8
Capa 1
10
84.535439
20
144.375064
11
84.136633
21
144.604571
0
LINE
8
Capa 1
10
84.136633
20
144.604571
11
83.615114
21
144.455667
0
LINE
8
Capa 1
10
83.615114
20
144.455667
11
83.119890
21
144.008954
0
LINE
8
Capa 1
10
83.119890
20
144.008954
11
83.119890
21
145.309501
0
LINE
8
Capa 1
10
83.119890
20
145.309501
11
83.645789
21
145.637369
0
LINE
8
Capa 1
10
83.645789
20
145.637369
11
84.256420
21
145.779435
0
LINE
8
Capa 1
10
84.256420
20
145.779435
11
84.816282
21
145.630187
0
LINE
8
Capa 1
10
84.816282
20
145.630187
11
85.216184
21
145.182444
0
LINE
8
Capa 1
10
85.216184
20
145.182444
11
85.456125
21
144.436204
0
LINE
8
Capa 1
10
85.456125
20
144.436204
11
85.536105
21
143.391469
0
LINE
8
Capa 1
10
85.536105
20
143.391469
11
85.536112
21
140.047208
0
LINE
8
Capa 1
10
84.668382
20
142.320433
11
84.668382
21
142.697480
0
LINE
8
Capa 1
10
84.668382
20
142.697480
11
84.124949
21
142.566327
0
LINE
8
Capa 1
10
84.124949
20
142.566327
11
83.787498
21
142.321801
0
LINE
8
Capa 1
10
83.787498
20
142.321801
11
83.675015
21
141.806762
0
LINE
8
Capa 1
10
83.675015
20
141.806762
11
83.783117
21
141.320430
0
LINE
8
Capa 1
10
83.783117
20
141.320430
11
84.081127
21
141.134642
0
LINE
8
Capa 1
10
84.081127
20
141.134642
11
84.317049
21
141.217973
0
LINE
8
Capa 1
10
84.317049
20
141.217973
11
84.504767
21
141.467967
0
LINE
8
Capa 1
10
84.504767
20
141.467967
11
84.668382
21
142.320433
0
LINE
8
Capa 1
10
84.668382
20
142.320433
11
84.668382
21
142.320433
0
LINE
8
Capa 1
10
89.156048
20
140.047208
11
88.235721
21
140.047208
0
LINE
8
Capa 1
10
88.235721
20
140.047208
11
88.235721
21
143.156488
0
LINE
8
Capa 1
10
88.235721
20
143.156488
11
88.111551
21
144.131898
0
LINE
8
Capa 1
10
88.111551
20
144.131898
11
87.956339
21
144.375750
0
LINE
8
Capa 1
10
87.956339
20
144.375750
11
87.739042
21
144.457034
0
LINE
8
Capa 1
10
87.739042
20
144.457034
11
87.520645
21
144.370968
0
LINE
8
Capa 1
10
87.520645
20
144.370968
11
87.344614
21
144.112768
0
LINE
8
Capa 1
10
87.344614
20
144.112768
11
87.189766
21
143.238462
0
LINE
8
Capa 1
10
87.189766
20
143.238462
11
87.189766
21
140.047208
0
LINE
8
Capa 1
10
87.189766
20
140.047208
11
86.266522
21
140.047208
0
LINE
8
Capa 1
10
86.266522
20
140.047208
11
86.266522
21
145.642826
0
LINE
8
Capa 1
10
86.266522
20
145.642826
11
87.189766
21
145.642826
0
LINE
8
Capa 1
10
87.189766
20
145.642826
11
87.189766
21
144.757578
0
LINE
8
Capa 1
10
87.189766
20
144.757578
11
87.201465
21
144.757578
0
LINE
8
Capa 1
10
87.201465
20
144.757578
11
87.606845
21
145.523971
0
LINE
8
Capa 1
10
87.606845
20
145.523971
11
88.162688
21
145.779435
0
LINE
8
Capa 1
10
88.162688
20
145.779435
11
88.597286
21
145.635310
0
LINE
8
Capa 1
10
88.597286
20
145.635310
11
88.907713
21
145.202934
0
LINE
8
Capa 1
10
88.907713
20
145.202934
11
89.093969
21
144.482307
0
LINE
8
Capa 1
10
89.093969
20
144.482307
11
89.156055
21
143.473429
0
LINE
8
Capa 1
10
89.156055
20
143.473429
11
89.156048
21
140.047208
0
LINE
8
Capa 1
10
92.813962
20
140.047208
11
91.890718
21
140.047208
0
LINE
8
Capa 1
10
91.890718
20
140.047208
11
91.890718
21
140.817700
0
LINE
8
Capa 1
10
91.890718
20
140.817700
11
91.879019
21
140.817700
0
LINE
8
Capa 1
10
91.879019
20
140.817700
11
91.489709
21
140.137374
0
LINE
8
Capa 1
10
91.489709
20
140.137374
11
90.952857
21
139.910599
0
LINE
8
Capa 1
10
90.952857
20
139.910599
11
90.446679
21
140.095023
0
LINE
8
Capa 1
10
90.446679
20
140.095023
11
90.050065
21
140.648296
0
LINE
8
Capa 1
10
90.050065
20
140.648296
11
89.793686
21
141.537639
0
LINE
8
Capa 1
10
89.793686
20
141.537639
11
89.708226
21
142.719335
0
LINE
8
Capa 1
10
89.708226
20
142.719335
11
89.802451
21
143.969335
0
LINE
8
Capa 1
10
89.802451
20
143.969335
11
90.085127
21
144.943380
0
LINE
8
Capa 1
10
90.085127
20
144.943380
11
90.520452
21
145.570422
0
LINE
8
Capa 1
10
90.520452
20
145.570422
11
91.072643
21
145.779435
0
LINE
8
Capa 1
10
91.072643
20
145.779435
11
91.563481
21
145.585448
0
LINE
8
Capa 1
10
91.563481
20
145.585448
11
91.879019
21
145.003486
0
LINE
8
Capa 1
10
91.879019
20
145.003486
11
91.890718
21
145.003486
0
LINE
8
Capa 1
10
91.890718
20
145.003486
11
91.890718
21
148.331349
0
LINE
8
Capa 1
10
91.890718
20
148.331349
11
92.813962
21
148.331349
0
LINE
8
Capa 1
10
92.813962
20
148.331349
11
92.813962
21
140.047208
0
LINE
8
Capa 1
10
91.908245
20
142.768513
11
91.908245
21
143.189283
0
LINE
8
Capa 1
10
91.908245
20
143.189283
11
91.738788
21
144.096385
0
LINE
8
Capa 1
10
91.738788
20
144.096385
11
91.543767
21
144.366872
0
LINE
8
Capa 1
10
91.543767
20
144.366872
11
91.297621
21
144.457034
0
LINE
8
Capa 1
10
91.297621
20
144.457034
11
91.024444
21
144.343647
0
LINE
8
Capa 1
10
91.024444
20
144.343647
11
90.818469
21
144.003484
0
LINE
8
Capa 1
10
90.818469
20
144.003484
11
90.646087
21
142.768513
0
LINE
8
Capa 1
10
90.646087
20
142.768513
11
90.812626
21
141.631901
0
LINE
8
Capa 1
10
90.812626
20
141.631901
11
91.011297
21
141.332725
0
LINE
8
Capa 1
10
91.011297
20
141.332725
11
91.274245
21
141.232999
0
LINE
8
Capa 1
10
91.274245
20
141.232999
11
91.528427
21
141.338192
0
LINE
8
Capa 1
10
91.528427
20
141.338192
11
91.730021
21
141.653769
0
LINE
8
Capa 1
10
91.730021
20
141.653769
11
91.908245
21
142.768513
0
LINE
8
Capa 1
10
91.908245
20
142.768513
11
91.908245
21
142.768513
0
LINE
8
Capa 1
10
97.731109
20
140.047208
11
96.857529
21
140.047208
0
LINE
8
Capa 1
10
96.857529
20
140.047208
11
96.857529
21
140.850482
0
LINE
8
Capa 1
10
96.857529
20
140.850482
11
96.845830
21
140.850482
0
LINE
8
Capa 1
10
96.845830
20
140.850482
11
96.472589
21
140.145569
0
LINE
8
Capa 1
10
96.472589
20
140.145569
11
95.954723
21
139.910599
0
LINE
8
Capa 1
10
95.954723
20
139.910599
11
95.565413
21
140.025354
0
LINE
8
Capa 1
10
95.565413
20
140.025354
11
95.268134
21
140.369620
0
LINE
8
Capa 1
10
95.268134
20
140.369620
11
95.081879
21
140.910601
0
LINE
8
Capa 1
10
95.081879
20
140.910601
11
95.019794
21
141.604590
0
LINE
8
Capa 1
10
95.019794
20
141.604590
11
95.084253
21
142.332726
0
LINE
8
Capa 1
10
95.084253
20
142.332726
11
95.277630
21
142.888732
0
LINE
8
Capa 1
10
95.277630
20
142.888732
11
95.599926
21
143.272609
0
LINE
8
Capa 1
10
95.599926
20
143.272609
11
96.051139
21
143.484356
0
LINE
8
Capa 1
10
96.051139
20
143.484356
11
96.863357
21
143.686542
0
LINE
8
Capa 1
10
96.863357
20
143.686542
11
96.730422
21
144.375064
0
LINE
8
Capa 1
10
96.730422
20
144.375064
11
96.331616
21
144.604571
0
LINE
8
Capa 1
10
96.331616
20
144.604571
11
95.810103
21
144.455667
0
LINE
8
Capa 1
10
95.810103
20
144.455667
11
95.314880
21
144.008954
0
LINE
8
Capa 1
10
95.314880
20
144.008954
11
95.314880
21
145.309501
0
LINE
8
Capa 1
10
95.314880
20
145.309501
11
95.840779
21
145.637369
0
LINE
8
Capa 1
10
95.840779
20
145.637369
11
96.451409
21
145.779435
0
LINE
8
Capa 1
10
96.451409
20
145.779435
11
97.011272
21
145.630187
0
LINE
8
Capa 1
10
97.011272
20
145.630187
11
97.411174
21
145.182444
0
LINE
8
Capa 1
10
97.411174
20
145.182444
11
97.651115
21
144.436204
0
LINE
8
Capa 1
10
97.651115
20
144.436204
11
97.731095
21
143.391469
0
LINE
8
Capa 1
10
97.731095
20
143.391469
11
97.731109
21
140.047208
0
LINE
8
Capa 1
10
96.863372
20
142.320433
11
96.863372
21
142.697480
0
LINE
8
Capa 1
10
96.863372
20
142.697480
11
96.319946
21
142.566327
0
LINE
8
Capa 1
10
96.319946
20
142.566327
11
95.982496
21
142.321801
0
LINE
8
Capa 1
10
95.982496
20
142.321801
11
95.870012
21
141.806762
0
LINE
8
Capa 1
10
95.870012
20
141.806762
11
95.978114
21
141.320430
0
LINE
8
Capa 1
10
95.978114
20
141.320430
11
96.276125
21
141.134642
0
LINE
8
Capa 1
10
96.276125
20
141.134642
11
96.512047
21
141.217973
0
LINE
8
Capa 1
10
96.512047
20
141.217973
11
96.699764
21
141.467967
0
LINE
8
Capa 1
10
96.699764
20
141.467967
11
96.863372
21
142.320433
0
LINE
8
Capa 1
10
96.863372
20
142.320433
11
96.863372
21
142.320433
0
LINE
8
Capa 1
10
102.966720
20
142.653758
11
102.858618
21
141.571795
0
LINE
8
Capa 1
10
102.858618
20
141.571795
11
102.557690
21
140.697475
0
LINE
8
Capa 1
10
102.557690
20
140.697475
11
102.098989
21
140.118241
0
LINE
8
Capa 1
10
102.098989
20
140.118241
11
101.517577
21
139.910599
0
LINE
8
Capa 1
10
101.517577
20
139.910599
11
100.883577
21
140.156493
0
LINE
8
Capa 1
10
100.883577
20
140.156493
11
100.413191
21
140.866879
0
LINE
8
Capa 1
10
100.413191
20
140.866879
11
100.118105
21
142.014419
0
LINE
8
Capa 1
10
100.118105
20
142.014419
11
100.015846
21
143.549933
0
LINE
8
Capa 1
10
100.015846
20
143.549933
11
100.147317
21
145.380534
0
LINE
8
Capa 1
10
100.147317
20
145.380534
11
100.527135
21
146.790365
0
LINE
8
Capa 1
10
100.527135
20
146.790365
11
101.126074
21
147.691996
0
LINE
8
Capa 1
10
101.126074
20
147.691996
11
101.498586
21
147.933805
0
LINE
8
Capa 1
10
101.498586
20
147.933805
11
101.914922
21
148.014408
0
LINE
8
Capa 1
10
101.914922
20
148.014408
11
102.668709
21
147.801295
0
LINE
8
Capa 1
10
102.668709
20
147.801295
11
102.668709
21
146.358669
0
LINE
8
Capa 1
10
102.668709
20
146.358669
11
102.335639
21
146.612765
0
LINE
8
Capa 1
10
102.335639
20
146.612765
11
101.973353
21
146.697464
0
LINE
8
Capa 1
10
101.973353
20
146.697464
11
101.549714
21
146.528073
0
LINE
8
Capa 1
10
101.549714
20
146.528073
11
101.222491
21
146.047198
0
LINE
8
Capa 1
10
101.222491
20
146.047198
11
101.009206
21
145.293103
0
LINE
8
Capa 1
10
101.009206
20
145.293103
11
100.927405
21
144.314954
0
LINE
8
Capa 1
10
100.927405
20
144.314954
11
100.944954
21
144.314954
0
LINE
8
Capa 1
10
100.944954
20
144.314954
11
101.313814
21
144.892824
0
LINE
8
Capa 1
10
101.313814
20
144.892824
11
101.824370
21
145.085447
0
LINE
8
Capa 1
10
101.824370
20
145.085447
11
102.294762
21
144.910585
0
LINE
8
Capa 1
10
102.294762
20
144.910585
11
102.654121
21
144.413326
0
LINE
8
Capa 1
10
102.654121
20
144.413326
11
102.884934
21
143.648290
0
LINE
8
Capa 1
10
102.884934
20
143.648290
11
102.966742
21
142.653758
0
LINE
8
Capa 1
10
102.966742
20
142.653758
11
102.966720
21
142.653758
0
LINE
8
Capa 1
10
102.063928
20
142.544487
11
101.925880
21
143.491208
0
LINE
8
Capa 1
10
101.925880
20
143.491208
11
101.753319
21
143.727888
0
LINE
8
Capa 1
10
101.753319
20
143.727888
11
101.511735
21
143.806782
0
LINE
8
Capa 1
10
101.511735
20
143.806782
11
101.283847
21
143.719392
0
LINE
8
Capa 1
10
101.283847
20
143.719392
11
101.108547
21
143.473484
0
LINE
8
Capa 1
10
101.108547
20
143.473484
11
100.994603
21
143.096437
0
LINE
8
Capa 1
10
100.994603
20
143.096437
11
100.956654
21
142.621031
0
LINE
8
Capa 1
10
100.956654
20
142.621031
11
100.997528
21
142.080050
0
LINE
8
Capa 1
10
100.997528
20
142.080050
11
101.111472
21
141.637426
0
LINE
8
Capa 1
10
101.111472
20
141.637426
11
101.289697
21
141.342339
0
LINE
8
Capa 1
10
101.289697
20
141.342339
11
101.517585
21
141.233068
0
LINE
8
Capa 1
10
101.517585
20
141.233068
11
101.742555
21
141.325928
0
LINE
8
Capa 1
10
101.742555
20
141.325928
11
101.914930
21
141.593677
0
LINE
8
Capa 1
10
101.914930
20
141.593677
11
102.025956
21
142.008976
0
LINE
8
Capa 1
10
102.025956
20
142.008976
11
102.063906
21
142.544501
0
LINE
8
Capa 1
10
102.063906
20
142.544501
11
102.063928
21
142.544487
0
LINE
8
Capa 1
10
106.139639
20
140.697488
11
106.127940
21
140.697488
0
LINE
8
Capa 1
10
106.127940
20
140.697488
11
106.127940
21
137.473453
0
LINE
8
Capa 1
10
106.127940
20
137.473453
11
105.204696
21
137.473453
0
LINE
8
Capa 1
10
105.204696
20
137.473453
11
105.204696
21
145.642839
0
LINE
8
Capa 1
10
105.204696
20
145.642839
11
106.127940
21
145.642839
0
LINE
8
Capa 1
10
106.127940
20
145.642839
11
106.127940
21
144.801314
0
LINE
8
Capa 1
10
106.127940
20
144.801314
11
106.139639
21
144.801314
0
LINE
8
Capa 1
10
106.139639
20
144.801314
11
106.550861
21
145.534915
0
LINE
8
Capa 1
10
106.550861
20
145.534915
11
107.100862
21
145.779449
0
LINE
8
Capa 1
10
107.100862
20
145.779449
11
107.615805
21
145.592293
0
LINE
8
Capa 1
10
107.615805
20
145.592293
11
107.997811
21
145.030825
0
LINE
8
Capa 1
10
107.997811
20
145.030825
11
108.236658
21
144.152412
0
LINE
8
Capa 1
10
108.236658
20
144.152412
11
108.316274
21
143.003508
0
LINE
8
Capa 1
10
108.316274
20
143.003508
11
108.223511
21
141.742581
0
LINE
8
Capa 1
10
108.223511
20
141.742581
11
107.945223
21
140.757608
0
LINE
8
Capa 1
10
107.945223
20
140.757608
11
107.515736
21
140.122361
0
LINE
8
Capa 1
10
107.515736
20
140.122361
11
106.963541
21
139.910612
0
LINE
8
Capa 1
10
106.963541
20
139.910612
11
106.487315
21
140.107331
0
LINE
8
Capa 1
10
106.487315
20
140.107331
11
106.139639
21
140.697488
0
LINE
8
Capa 1
10
106.139639
20
140.697488
11
106.139639
21
140.697488
0
LINE
8
Capa 1
10
106.113316
20
142.992567
11
106.113316
21
142.544487
0
LINE
8
Capa 1
10
106.113316
20
142.544487
11
106.276923
21
141.599133
0
LINE
8
Capa 1
10
106.276923
20
141.599133
11
106.466103
21
141.324543
0
LINE
8
Capa 1
10
106.466103
20
141.324543
11
106.706412
21
141.233013
0
LINE
8
Capa 1
10
106.706412
20
141.233013
11
106.986159
21
141.346401
0
LINE
8
Capa 1
10
106.986159
20
141.346401
11
107.194325
21
141.686564
0
LINE
8
Capa 1
10
107.194325
20
141.686564
11
107.369624
21
142.981640
0
LINE
8
Capa 1
10
107.369624
20
142.981640
11
107.216237
21
144.088196
0
LINE
8
Capa 1
10
107.216237
20
144.088196
11
107.024503
21
144.364835
0
LINE
8
Capa 1
10
107.024503
20
144.364835
11
106.756076
21
144.457048
0
LINE
8
Capa 1
10
106.756076
20
144.457048
11
106.498239
21
144.355955
0
LINE
8
Capa 1
10
106.498239
20
144.355955
11
106.291533
21
144.052676
0
LINE
8
Capa 1
10
106.291533
20
144.052676
11
106.113316
21
142.992567
0
LINE
8
Capa 1
10
106.113316
20
142.992567
11
106.113316
21
142.992567
0
LINE
8
Capa 1
10
110.340950
20
139.910612
11
109.672621
21
140.105967
0
LINE
8
Capa 1
10
109.672621
20
140.105967
11
109.163524
21
140.692032
0
LINE
8
Capa 1
10
109.163524
20
140.692032
11
108.843600
21
141.618256
0
LINE
8
Capa 1
10
108.843600
20
141.618256
11
108.736959
21
142.823176
0
LINE
8
Capa 1
10
108.736959
20
142.823176
11
108.847982
21
144.059514
0
LINE
8
Capa 1
10
108.847982
20
144.059514
11
109.181051
21
144.992573
0
LINE
8
Capa 1
10
109.181051
20
144.992573
11
109.703297
21
145.582730
0
LINE
8
Capa 1
10
109.703297
20
145.582730
11
110.381853
21
145.779449
0
LINE
8
Capa 1
10
110.381853
20
145.779449
11
111.046533
21
145.582730
0
LINE
8
Capa 1
10
111.046533
20
145.582730
11
111.550520
21
144.992573
0
LINE
8
Capa 1
10
111.550520
20
144.992573
11
111.868249
21
144.084104
0
LINE
8
Capa 1
10
111.868249
20
144.084104
11
111.974159
21
142.921534
0
LINE
8
Capa 1
10
111.974159
20
142.921534
11
111.864597
21
141.674273
0
LINE
8
Capa 1
10
111.864597
20
141.674273
11
111.535910
21
140.719356
0
LINE
8
Capa 1
10
111.535910
20
140.719356
11
111.019504
21
140.112798
0
LINE
8
Capa 1
10
111.019504
20
140.112798
11
110.340950
21
139.910612
0
LINE
8
Capa 1
10
110.340950
20
139.910612
11
110.340950
21
139.910612
0
LINE
8
Capa 1
10
110.364348
20
144.457048
11
110.073641
21
144.351859
0
LINE
8
Capa 1
10
110.073641
20
144.351859
11
109.855977
21
144.036292
0
LINE
8
Capa 1
10
109.855977
20
144.036292
11
109.674835
21
142.845031
0
LINE
8
Capa 1
10
109.674835
20
142.845031
11
109.848674
21
141.636018
0
LINE
8
Capa 1
10
109.848674
20
141.636018
11
110.065972
21
141.333764
0
LINE
8
Capa 1
10
110.065972
20
141.333764
11
110.370191
21
141.233013
0
LINE
8
Capa 1
10
110.370191
20
141.233013
11
110.660346
21
141.336497
0
LINE
8
Capa 1
10
110.660346
20
141.336497
11
110.867600
21
141.646948
0
LINE
8
Capa 1
10
110.867600
20
141.646948
11
111.033403
21
142.888753
0
LINE
8
Capa 1
10
111.033403
20
142.888753
11
110.866139
21
144.064974
0
LINE
8
Capa 1
10
110.866139
20
144.064974
11
110.657060
21
144.359030
0
LINE
8
Capa 1
10
110.657060
20
144.359030
11
110.364348
21
144.457048
0
LINE
8
Capa 1
10
110.364348
20
144.457048
11
110.364348
21
144.457048
0
LINE
8
Capa 1
10
113.040588
20
146.528087
11
112.657845
21
146.784908
0
LINE
8
Capa 1
10
112.657845
20
146.784908
11
112.508840
21
147.424261
0
LINE
8
Capa 1
10
112.508840
20
147.424261
11
112.657845
21
148.058130
0
LINE
8
Capa 1
10
112.657845
20
148.058130
11
113.040588
21
148.304039
0
LINE
8
Capa 1
10
113.040588
20
148.304039
11
113.423324
21
148.058130
0
LINE
8
Capa 1
10
113.423324
20
148.058130
11
113.572329
21
147.424261
0
LINE
8
Capa 1
10
113.572329
20
147.424261
11
113.423324
21
146.779452
0
LINE
8
Capa 1
10
113.423324
20
146.779452
11
113.040588
21
146.528087
0
LINE
8
Capa 1
10
113.040588
20
146.528087
11
113.040588
21
146.528087
0
LINE
8
Capa 1
10
113.496364
20
140.047222
11
112.573120
21
140.047222
0
LINE
8
Capa 1
10
112.573120
20
140.047222
11
112.573120
21
145.642839
0
LINE
8
Capa 1
10
112.573120
20
145.642839
11
113.496364
21
145.642839
0
LINE
8
Capa 1
10
113.496364
20
145.642839
11
113.496364
21
140.047222
0
LINE
8
Capa 1
10
117.163045
20
140.047222
11
116.242719
21
140.047222
0
LINE
8
Capa 1
10
116.242719
20
140.047222
11
116.242719
21
143.156502
0
LINE
8
Capa 1
10
116.242719
20
143.156502
11
116.118549
21
144.131911
0
LINE
8
Capa 1
10
116.118549
20
144.131911
11
115.963337
21
144.375764
0
LINE
8
Capa 1
10
115.963337
20
144.375764
11
115.746039
21
144.457048
0
LINE
8
Capa 1
10
115.746039
20
144.457048
11
115.527648
21
144.370982
0
LINE
8
Capa 1
10
115.527648
20
144.370982
11
115.351619
21
144.112782
0
LINE
8
Capa 1
10
115.351619
20
144.112782
11
115.196771
21
143.238475
0
LINE
8
Capa 1
10
115.196771
20
143.238475
11
115.196771
21
140.047222
0
LINE
8
Capa 1
10
115.196771
20
140.047222
11
114.273527
21
140.047222
0
LINE
8
Capa 1
10
114.273527
20
140.047222
11
114.273527
21
145.642839
0
LINE
8
Capa 1
10
114.273527
20
145.642839
11
115.196771
21
145.642839
0
LINE
8
Capa 1
10
115.196771
20
145.642839
11
115.196771
21
144.757592
0
LINE
8
Capa 1
10
115.196771
20
144.757592
11
115.208470
21
144.757592
0
LINE
8
Capa 1
10
115.208470
20
144.757592
11
115.613850
21
145.523985
0
LINE
8
Capa 1
10
115.613850
20
145.523985
11
116.169693
21
145.779449
0
LINE
8
Capa 1
10
116.169693
20
145.779449
11
116.604291
21
145.635324
0
LINE
8
Capa 1
10
116.604291
20
145.635324
11
116.914718
21
145.202947
0
LINE
8
Capa 1
10
116.914718
20
145.202947
11
117.100974
21
144.482320
0
LINE
8
Capa 1
10
117.100974
20
144.482320
11
117.163060
21
143.473443
0
LINE
8
Capa 1
10
117.163060
20
143.473443
11
117.163045
21
140.047222
0
LINE
8
Capa 1
10
119.701964
20
140.112867
11
119.085498
21
139.910681
0
LINE
8
Capa 1
10
119.085498
20
139.910681
11
118.658571
21
140.029191
0
LINE
8
Capa 1
10
118.658571
20
140.029191
11
118.353624
21
140.384722
0
LINE
8
Capa 1
10
118.353624
20
140.384722
11
118.170655
21
140.977273
0
LINE
8
Capa 1
10
118.170655
20
140.977273
11
118.109666
21
141.806844
0
LINE
8
Capa 1
10
118.109666
20
141.806844
11
118.109666
21
144.369686
0
LINE
8
Capa 1
10
118.109666
20
144.369686
11
117.624671
21
144.369686
0
LINE
8
Capa 1
10
117.624671
20
144.369686
11
117.624671
21
145.642908
0
LINE
8
Capa 1
10
117.624671
20
145.642908
11
118.109666
21
145.642908
0
LINE
8
Capa 1
10
118.109666
20
145.642908
11
118.109666
21
146.850553
0
LINE
8
Capa 1
10
118.109666
20
146.850553
11
119.029985
21
147.342356
0
LINE
8
Capa 1
10
119.029985
20
147.342356
11
119.029985
21
145.642908
0
LINE
8
Capa 1
10
119.029985
20
145.642908
11
119.701964
21
145.642908
0
LINE
8
Capa 1
10
119.701964
20
145.642908
11
119.701964
21
144.369686
0
LINE
8
Capa 1
10
119.701964
20
144.369686
11
119.029985
21
144.369686
0
LINE
8
Capa 1
10
119.029985
20
144.369686
11
119.029985
21
142.107402
0
LINE
8
Capa 1
10
119.029985
20
142.107402
11
119.122748
21
141.451662
0
LINE
8
Capa 1
10
119.122748
20
141.451662
11
119.401036
21
141.233082
0
LINE
8
Capa 1
10
119.401036
20
141.233082
11
119.701964
21
141.391545
0
LINE
8
Capa 1
10
119.701964
20
141.391545
11
119.701964
21
140.112867
0
LINE
8
Capa 1
10
121.677005
20
140.194786
11
121.677005
21
141.593690
0
LINE
8
Capa 1
10
121.677005
20
141.593690
11
122.129864
21
141.211186
0
LINE
8
Capa 1
10
122.129864
20
141.211186
11
122.559346
21
141.085504
0
LINE
8
Capa 1
10
122.559346
20
141.085504
11
122.945006
21
141.211186
0
LINE
8
Capa 1
10
122.945006
20
141.211186
11
123.088169
21
141.593690
0
LINE
8
Capa 1
10
123.088169
20
141.593690
11
123.023896
21
141.866923
0
LINE
8
Capa 1
10
123.023896
20
141.866923
11
122.857364
21
142.058182
0
LINE
8
Capa 1
10
122.857364
20
142.058182
11
122.638235
21
142.205719
0
LINE
8
Capa 1
10
122.638235
20
142.205719
11
122.407430
21
142.353255
0
LINE
8
Capa 1
10
122.407430
20
142.353255
11
122.091885
21
142.621018
0
LINE
8
Capa 1
10
122.091885
20
142.621018
11
121.863997
21
142.959813
0
LINE
8
Capa 1
10
121.863997
20
142.959813
11
121.723759
21
143.402437
0
LINE
8
Capa 1
10
121.723759
20
143.402437
11
121.677035
21
143.998068
0
LINE
8
Capa 1
10
121.677035
20
143.998068
11
121.785136
21
144.806798
0
LINE
8
Capa 1
10
121.785136
20
144.806798
11
122.077305
21
145.358720
0
LINE
8
Capa 1
10
122.077305
20
145.358720
11
122.495102
21
145.675648
0
LINE
8
Capa 1
10
122.495102
20
145.675648
11
122.985939
21
145.779449
0
LINE
8
Capa 1
10
122.985939
20
145.779449
11
123.389127
21
145.719275
0
LINE
8
Capa 1
10
123.389127
20
145.719275
11
123.792314
21
145.555340
0
LINE
8
Capa 1
10
123.792314
20
145.555340
11
123.792314
21
144.222012
0
LINE
8
Capa 1
10
123.792314
20
144.222012
11
123.415421
21
144.506159
0
LINE
8
Capa 1
10
123.415421
20
144.506159
11
123.023918
21
144.604489
0
LINE
8
Capa 1
10
123.023918
20
144.604489
11
122.851543
21
144.571667
0
LINE
8
Capa 1
10
122.851543
20
144.571667
11
122.711305
21
144.484277
0
LINE
8
Capa 1
10
122.711305
20
144.484277
11
122.614888
21
144.336740
0
LINE
8
Capa 1
10
122.614888
20
144.336740
11
122.579790
21
144.134554
0
LINE
8
Capa 1
10
122.579790
20
144.134554
11
122.632364
21
143.872262
0
LINE
8
Capa 1
10
122.632364
20
143.872262
11
122.769685
21
143.681003
0
LINE
8
Capa 1
10
122.769685
20
143.681003
11
122.956669
21
143.538924
0
LINE
8
Capa 1
10
122.956669
20
143.538924
11
123.164105
21
143.413241
0
LINE
8
Capa 1
10
123.164105
20
143.413241
11
123.497177
21
143.150949
0
LINE
8
Capa 1
10
123.497177
20
143.150949
11
123.751359
21
142.817610
0
LINE
8
Capa 1
10
123.751359
20
142.817610
11
123.914974
21
142.369530
0
LINE
8
Capa 1
10
123.914974
20
142.369530
11
123.973398
21
141.757501
0
LINE
8
Capa 1
10
123.973398
20
141.757501
11
123.856536
21
140.905049
0
LINE
8
Capa 1
10
123.856536
20
140.905049
11
123.549758
21
140.331286
0
LINE
8
Capa 1
10
123.549758
20
140.331286
11
123.108592
21
140.014345
0
LINE
8
Capa 1
10
123.108592
20
140.014345
11
122.591453
21
139.910544
0
LINE
8
Capa 1
10
122.591453
20
139.910544
11
121.676976
21
140.194690
0
LINE
8
Capa 1
10
121.676976
20
140.194690
11
121.677005
21
140.194786
0
LINE
8
Capa 1
10
126.313677
20
140.112867
11
125.697211
21
139.910681
0
LINE
8
Capa 1
10
125.697211
20
139.910681
11
125.270284
21
140.029191
0
LINE
8
Capa 1
10
125.270284
20
140.029191
11
124.965336
21
140.384722
0
LINE
8
Capa 1
10
124.965336
20
140.384722
11
124.782368
21
140.977273
0
LINE
8
Capa 1
10
124.782368
20
140.977273
11
124.721378
21
141.806844
0
LINE
8
Capa 1
10
124.721378
20
141.806844
11
124.721378
21
144.369686
0
LINE
8
Capa 1
10
124.721378
20
144.369686
11
124.236383
21
144.369686
0
LINE
8
Capa 1
10
124.236383
20
144.369686
11
124.236383
21
145.642908
0
LINE
8
Capa 1
10
124.236383
20
145.642908
11
124.721378
21
145.642908
0
LINE
8
Capa 1
10
124.721378
20
145.642908
11
124.721378
21
146.850553
0
LINE
8
Capa 1
10
124.721378
20
146.850553
11
125.641697
21
147.342356
0
LINE
8
Capa 1
10
125.641697
20
147.342356
11
125.641697
21
145.642908
0
LINE
8
Capa 1
10
125.641697
20
145.642908
11
126.313677
21
145.642908
0
LINE
8
Capa 1
10
126.313677
20
145.642908
11
126.313677
21
144.369686
0
LINE
8
Capa 1
10
126.313677
20
144.369686
11
125.641697
21
144.369686
0
LINE
8
Capa 1
10
125.641697
20
144.369686
11
125.641697
21
142.107402
0
LINE
8
Capa 1
10
125.641697
20
142.107402
11
125.734460
21
141.451662
0
LINE
8
Capa 1
10
125.734460
20
141.451662
11
126.012748
21
141.233082
0
LINE
8
Capa 1
10
126.012748
20
141.233082
11
126.313677
21
141.391545
0
LINE
8
Capa 1
10
126.313677
20
141.391545
11
126.313677
21
140.112867
0
LINE
8
Capa 1
10
129.322981
20
140.047222
11
128.449408
21
140.047222
0
LINE
8
Capa 1
10
128.449408
20
140.047222
11
128.449408
21
140.850495
0
LINE
8
Capa 1
10
128.449408
20
140.850495
11
128.437709
21
140.850495
0
LINE
8
Capa 1
10
128.437709
20
140.850495
11
128.064464
21
140.145583
0
LINE
8
Capa 1
10
128.064464
20
140.145583
11
127.546601
21
139.910612
0
LINE
8
Capa 1
10
127.546601
20
139.910612
11
127.157292
21
140.025368
0
LINE
8
Capa 1
10
127.157292
20
140.025368
11
126.860013
21
140.369634
0
LINE
8
Capa 1
10
126.860013
20
140.369634
11
126.673758
21
140.910615
0
LINE
8
Capa 1
10
126.673758
20
140.910615
11
126.611673
21
141.604604
0
LINE
8
Capa 1
10
126.611673
20
141.604604
11
126.676132
21
142.332740
0
LINE
8
Capa 1
10
126.676132
20
142.332740
11
126.869509
21
142.888746
0
LINE
8
Capa 1
10
126.869509
20
142.888746
11
127.191805
21
143.272623
0
LINE
8
Capa 1
10
127.191805
20
143.272623
11
127.643018
21
143.484370
0
LINE
8
Capa 1
10
127.643018
20
143.484370
11
128.455236
21
143.686556
0
LINE
8
Capa 1
10
128.455236
20
143.686556
11
128.322301
21
144.375078
0
LINE
8
Capa 1
10
128.322301
20
144.375078
11
127.923495
21
144.604585
0
LINE
8
Capa 1
10
127.923495
20
144.604585
11
127.401978
21
144.455680
0
LINE
8
Capa 1
10
127.401978
20
144.455680
11
126.906759
21
144.008968
0
LINE
8
Capa 1
10
126.906759
20
144.008968
11
126.906759
21
145.309514
0
LINE
8
Capa 1
10
126.906759
20
145.309514
11
127.432657
21
145.637383
0
LINE
8
Capa 1
10
127.432657
20
145.637383
11
128.043281
21
145.779449
0
LINE
8
Capa 1
10
128.043281
20
145.779449
11
128.603143
21
145.630201
0
LINE
8
Capa 1
10
128.603143
20
145.630201
11
129.003045
21
145.182457
0
LINE
8
Capa 1
10
129.003045
20
145.182457
11
129.242986
21
144.436218
0
LINE
8
Capa 1
10
129.242986
20
144.436218
11
129.322966
21
143.391483
0
LINE
8
Capa 1
10
129.322966
20
143.391483
11
129.322981
21
140.047222
0
LINE
8
Capa 1
10
128.455250
20
142.320447
11
128.455250
21
142.697494
0
LINE
8
Capa 1
10
128.455250
20
142.697494
11
127.911825
21
142.566341
0
LINE
8
Capa 1
10
127.911825
20
142.566341
11
127.574374
21
142.321814
0
LINE
8
Capa 1
10
127.574374
20
142.321814
11
127.461891
21
141.806776
0
LINE
8
Capa 1
10
127.461891
20
141.806776
11
127.569985
21
141.320444
0
LINE
8
Capa 1
10
127.569985
20
141.320444
11
127.867996
21
141.134655
0
LINE
8
Capa 1
10
127.867996
20
141.134655
11
128.103922
21
141.217987
0
LINE
8
Capa 1
10
128.103922
20
141.217987
11
128.291636
21
141.467980
0
LINE
8
Capa 1
10
128.291636
20
141.467980
11
128.455250
21
142.320447
0
LINE
8
Capa 1
10
128.455250
20
142.320447
11
128.455250
21
142.320447
0
LINE
8
Capa 1
10
132.005063
20
144.085471
11
131.616485
21
144.254862
0
LINE
8
Capa 1
10
131.616485
20
144.254862
11
131.348424
21
144.151037
0
LINE
8
Capa 1
10
131.348424
20
144.151037
11
131.146099
21
143.839563
0
LINE
8
Capa 1
10
131.146099
20
143.839563
11
130.976642
21
142.719348
0
LINE
8
Capa 1
10
130.976642
20
142.719348
11
130.976642
21
140.047222
0
LINE
8
Capa 1
10
130.976642
20
140.047222
11
130.053398
21
140.047222
0
LINE
8
Capa 1
10
130.053398
20
140.047222
11
130.053398
21
145.642839
0
LINE
8
Capa 1
10
130.053398
20
145.642839
11
130.976642
21
145.642839
0
LINE
8
Capa 1
10
130.976642
20
145.642839
11
130.976642
21
144.604585
0
LINE
8
Capa 1
10
130.976642
20
144.604585
11
130.988342
21
144.604585
0
LINE
8
Capa 1
10
130.988342
20
144.604585
11
131.295118
21
145.457044
0
LINE
8
Capa 1
10
131.295118
20
145.457044
11
131.777190
21
145.741197
0
LINE
8
Capa 1
10
131.777190
20
145.741197
11
132.005078
21
145.675552
0
LINE
8
Capa 1
10
132.005078
20
145.675552
11
132.005063
21
144.085471
0
LINE
8
kit_1 v1_Sketch1
10
18.357978
20
90.700836
11
18.210839
21
90.955688
0
LINE
8
kit_1 v1_Sketch1
10
18.210839
20
90.955688
11
17.916561
21
90.955688
0
LINE
8
kit_1 v1_Sketch1
10
17.916561
20
90.955688
11
17.769423
21
90.700836
0
LINE
8
kit_1 v1_Sketch1
10
17.769423
20
90.700836
11
17.916561
21
90.445984
0
LINE
8
kit_1 v1_Sketch1
10
17.916561
20
90.445984
11
18.210839
21
90.445984
0
LINE
8
kit_1 v1_Sketch1
10
18.210839
20
90.445984
11
18.357978
21
90.700836
0
LINE
8
kit_1 v1_Sketch1
10
18.357978
20
90.700836
11
18.357978
21
90.700836
0
LINE
8
kit_1 v1_Sketch2
10
18.357978
20
90.700836
11
18.210839
21
90.955688
0
LINE
8
kit_1 v1_Sketch2
10
18.210839
20
90.955688
11
17.916561
21
90.955688
0
LINE
8
kit_1 v1_Sketch2
10
17.916561
20
90.955688
11
17.769423
21
90.700836
0
LINE
8
kit_1 v1_Sketch2
10
17.769423
20
90.700836
11
17.916561
21
90.445984
0
LINE
8
kit_1 v1_Sketch2
10
17.916561
20
90.445984
11
18.210839
21
90.445984
0
LINE
8
kit_1 v1_Sketch2
10
18.210839
20
90.445984
11
18.357978
21
90.700836
0
LINE
8
kit_1 v1_Sketch2
10
18.357978
20
90.700836
11
18.357978
21
90.700836
0
LINE
8
kit_1 v1_Sketch2
10
18.063700
20
112.947862
11
62.552926
21
112.947862
0
LINE
8
kit_1 v1_Sketch2
10
18.063700
20
68.453104
11
18.063700
21
112.947862
0
LINE
8
kit_1 v1_Sketch2
10
62.552926
20
68.453104
11
18.063700
21
68.453104
0
LINE
8
kit_1 v1_Sketch2
10
62.552926
20
112.947862
11
62.552926
21
68.453104
0
LINE
8
kit_1 v1_Sketch4
10
18.357978
20
90.700836
11
18.210839
21
90.955688
0
LINE
8
kit_1 v1_Sketch4
10
18.210839
20
90.955688
11
17.916561
21
90.955688
0
LINE
8
kit_1 v1_Sketch4
10
17.916561
20
90.955688
11
17.769423
21
90.700836
0
LINE
8
kit_1 v1_Sketch4
10
17.769423
20
90.700836
11
17.916561
21
90.445984
0
LINE
8
kit_1 v1_Sketch4
10
17.916561
20
90.445984
11
18.210839
21
90.445984
0
LINE
8
kit_1 v1_Sketch4
10
18.210839
20
90.445984
11
18.357978
21
90.700836
0
LINE
8
kit_1 v1_Sketch4
10
18.357978
20
90.700836
11
18.357978
21
90.700836
0
LINE
8
kit_1 v1_Sketch5
10
18.357978
20
90.700836
11
18.210839
21
90.955688
0
LINE
8
kit_1 v1_Sketch5
10
18.210839
20
90.955688
11
17.916561
21
90.955688
0
LINE
8
kit_1 v1_Sketch5
10
17.916561
20
90.955688
11
17.769423
21
90.700836
0
LINE
8
kit_1 v1_Sketch5
10
17.769423
20
90.700836
11
17.916561
21
90.445984
0
LINE
8
kit_1 v1_Sketch5
10
17.916561
20
90.445984
11
18.210839
21
90.445984
0
LINE
8
kit_1 v1_Sketch5
10
18.210839
20
90.445984
11
18.357978
21
90.700836
0
LINE
8
kit_1 v1_Sketch5
10
18.357978
20
90.700836
11
18.357978
21
90.700836
0
LINE
8
kit_1 v1_Sketch5
10
53.655033
20
99.599434
11
71.450700
21
99.599434
0
LINE
8
kit_1 v1_Sketch5
10
53.655033
20
81.801531
11
53.655033
21
99.599434
0
LINE
8
kit_1 v1_Sketch5
10
71.450700
20
81.801531
11
53.655033
21
81.801531
0
LINE
8
kit_1 v1_Sketch5
10
71.450700
20
99.599434
11
71.450700
21
81.801531
0
LINE
8
kit_1 v1_Sketch6
10
18.357978
20
90.700836
11
18.210839
21
90.955688
0
LINE
8
kit_1 v1_Sketch6
10
18.210839
20
90.955688
11
17.916561
21
90.955688
0
LINE
8
kit_1 v1_Sketch6
10
17.916561
20
90.955688
11
17.769423
21
90.700836
0
LINE
8
kit_1 v1_Sketch6
10
17.769423
20
90.700836
11
17.916561
21
90.445984
0
LINE
8
kit_1 v1_Sketch6
10
17.916561
20
90.445984
11
18.210839
21
90.445984
0
LINE
8
kit_1 v1_Sketch6
10
18.210839
20
90.445984
11
18.357978
21
90.700836
0
LINE
8
kit_1 v1_Sketch6
10
18.357978
20
90.700836
11
18.357978
21
90.700836
0
LINE
8
kit_1 v1_Sketch6
10
31.410479
20
104.048910
11
31.410479
21
121.846813
0
LINE
8
kit_1 v1_Sketch6
10
49.206146
20
121.846813
11
49.206146
21
104.048910
0
LINE
8
kit_1 v1_Sketch6
10
49.206146
20
104.048910
11
31.410479
21
104.048910
0
LINE
8
kit_1 v1_Sketch6
10
31.410479
20
121.846813
11
49.206146
21
121.846813
0
LINE
8
kit_1 v1_Sketch7
10
18.357978
20
90.700836
11
18.210839
21
90.955688
0
LINE
8
kit_1 v1_Sketch7
10
18.210839
20
90.955688
11
17.916561
21
90.955688
0
LINE
8
kit_1 v1_Sketch7
10
17.916561
20
90.955688
11
17.769423
21
90.700836
0
LINE
8
kit_1 v1_Sketch7
10
17.769423
20
90.700836
11
17.916561
21
90.445984
0
LINE
8
kit_1 v1_Sketch7
10
17.916561
20
90.445984
11
18.210839
21
90.445984
0
LINE
8
kit_1 v1_Sketch7
10
18.210839
20
90.445984
11
18.357978
21
90.700836
0
LINE
8
kit_1 v1_Sketch7
10
18.357978
20
90.700836
11
18.357978
21
90.700836
0
LINE
8
kit_1 v1_Sketch7
10
9.165867
20
81.801531
11
26.961533
21
81.801531
0
LINE
8
kit_1 v1_Sketch7
10
9.165867
20
99.599434
11
9.165867
21
81.801531
0
LINE
8
kit_1 v1_Sketch7
10
26.961533
20
81.801531
11
26.961533
21
99.599434
0
LINE
8
kit_1 v1_Sketch7
10
26.961533
20
99.599434
11
9.165867
21
99.599434
0
LINE
8
kit_1 v1_Sketch8
10
18.357978
20
90.700836
11
18.210839
21
90.955688
0
LINE
8
kit_1 v1_Sketch8
10
18.210839
20
90.955688
11
17.916561
21
90.955688
0
LINE
8
kit_1 v1_Sketch8
10
17.916561
20
90.955688
11
17.769423
21
90.700836
0
LINE
8
kit_1 v1_Sketch8
10
17.769423
20
90.700836
11
17.916561
21
90.445984
0
LINE
8
kit_1 v1_Sketch8
10
17.916561
20
90.445984
11
18.210839
21
90.445984
0
LINE
8
kit_1 v1_Sketch8
10
18.210839
20
90.445984
11
18.357978
21
90.700836
0
LINE
8
kit_1 v1_Sketch8
10
18.357978
20
90.700836
11
18.357978
21
90.700836
0
LINE
8
kit_1 v1_Sketch8
10
49.206146
20
59.554152
11
31.410479
21
59.554152
0
LINE
8
kit_1 v1_Sketch8
10
31.410479
20
77.352055
11
49.206146
21
77.352055
0
LINE
8
kit_1 v1_Sketch8
10
49.206146
20
77.352055
11
49.206146
21
59.554152
0
LINE
8
kit_1 v1_Sketch8
10
31.410479
20
59.554152
11
31.410479
21
77.352055
 0 
ENDSEC
 0 
EOF