ISO-10303-21;
HEADER;
/* Generated by software containing ST-Developer
 * from STEP Tools, Inc. (www.steptools.com) 
 */

FILE_DESCRIPTION(
/* description */ (''),
/* implementation_level */ '2;1');

FILE_NAME(
/* name */ 'Aquaponics IOT Device.step',
/* time_stamp */ '2024-05-30T00:43:03+08:00',
/* author */ (''),
/* organization */ (''),
/* preprocessor_version */ 'ST-DEVELOPER v20',
/* originating_system */ 'Autodesk Translation Framework v13.14.0.145',

/* authorisation */ '');

FILE_SCHEMA (('AUTOMOTIVE_DESIGN { 1 0 10303 214 3 1 1 }'));
ENDSEC;

DATA;
#10=MECHANICAL_DESIGN_GEOMETRIC_PRESENTATION_REPRESENTATION('',(#14,#15,
#16,#17,#18,#19),#442);
#11=SHAPE_REPRESENTATION_RELATIONSHIP('SRR','None',#449,#12);
#12=ADVANCED_BREP_SHAPE_REPRESENTATION('',(#20,#21,#22,#23),#441);
#13=SPHERICAL_SURFACE('',#280,140.);
#14=STYLED_ITEM('',(#459),#20);
#15=STYLED_ITEM('',(#460),#230);
#16=STYLED_ITEM('',(#458),#21);
#17=STYLED_ITEM('',(#459),#234);
#18=STYLED_ITEM('',(#458),#22);
#19=STYLED_ITEM('',(#458),#23);
#20=MANIFOLD_SOLID_BREP('\X2\5B9E4F53\X0\2',#241);
#21=MANIFOLD_SOLID_BREP('\X2\5B9E4F53\X0\3',#242);
#22=MANIFOLD_SOLID_BREP('\X2\5B9E4F53\X0\6',#243);
#23=MANIFOLD_SOLID_BREP('\X2\5B9E4F53\X0\7',#244);
#24=FACE_BOUND('',#62,.T.);
#25=FACE_BOUND('',#64,.T.);
#26=FACE_BOUND('',#67,.T.);
#27=FACE_BOUND('',#71,.T.);
#28=FACE_BOUND('',#73,.T.);
#29=FACE_BOUND('',#78,.T.);
#30=FACE_BOUND('',#82,.T.);
#31=FACE_BOUND('',#84,.T.);
#32=PLANE('',#264);
#33=PLANE('',#265);
#34=PLANE('',#269);
#35=PLANE('',#276);
#36=PLANE('',#277);
#37=PLANE('',#278);
#38=PLANE('',#285);
#39=PLANE('',#292);
#40=PLANE('',#293);
#41=FACE_OUTER_BOUND('',#59,.T.);
#42=FACE_OUTER_BOUND('',#60,.T.);
#43=FACE_OUTER_BOUND('',#61,.T.);
#44=FACE_OUTER_BOUND('',#63,.T.);
#45=FACE_OUTER_BOUND('',#65,.T.);
#46=FACE_OUTER_BOUND('',#66,.T.);
#47=FACE_OUTER_BOUND('',#68,.T.);
#48=FACE_OUTER_BOUND('',#69,.T.);
#49=FACE_OUTER_BOUND('',#70,.T.);
#50=FACE_OUTER_BOUND('',#72,.T.);
#51=FACE_OUTER_BOUND('',#74,.T.);
#52=FACE_OUTER_BOUND('',#75,.T.);
#53=FACE_OUTER_BOUND('',#76,.T.);
#54=FACE_OUTER_BOUND('',#77,.T.);
#55=FACE_OUTER_BOUND('',#79,.T.);
#56=FACE_OUTER_BOUND('',#80,.T.);
#57=FACE_OUTER_BOUND('',#81,.T.);
#58=FACE_OUTER_BOUND('',#83,.T.);
#59=EDGE_LOOP('',(#163,#164,#165,#166));
#60=EDGE_LOOP('',(#167,#168,#169,#170));
#61=EDGE_LOOP('',(#171));
#62=EDGE_LOOP('',(#172));
#63=EDGE_LOOP('',(#173));
#64=EDGE_LOOP('',(#174));
#65=EDGE_LOOP('',(#175,#176,#177,#178));
#66=EDGE_LOOP('',(#179));
#67=EDGE_LOOP('',(#180));
#68=EDGE_LOOP('',(#181,#182,#183,#184));
#69=EDGE_LOOP('',(#185,#186,#187,#188));
#70=EDGE_LOOP('',(#189));
#71=EDGE_LOOP('',(#190));
#72=EDGE_LOOP('',(#191));
#73=EDGE_LOOP('',(#192));
#74=EDGE_LOOP('',(#193));
#75=EDGE_LOOP('',(#194,#195,#196));
#76=EDGE_LOOP('',(#197,#198,#199,#200));
#77=EDGE_LOOP('',(#201));
#78=EDGE_LOOP('',(#202));
#79=EDGE_LOOP('',(#203,#204,#205,#206));
#80=EDGE_LOOP('',(#207,#208,#209,#210));
#81=EDGE_LOOP('',(#211));
#82=EDGE_LOOP('',(#212));
#83=EDGE_LOOP('',(#213));
#84=EDGE_LOOP('',(#214));
#85=LINE('',#381,#93);
#86=LINE('',#387,#94);
#87=LINE('',#395,#95);
#88=LINE('',#402,#96);
#89=LINE('',#408,#97);
#90=LINE('',#422,#98);
#91=LINE('',#431,#99);
#92=LINE('',#435,#100);
#93=VECTOR('',#300,43.);
#94=VECTOR('',#307,45.);
#95=VECTOR('',#318,68.);
#96=VECTOR('',#327,48.);
#97=VECTOR('',#334,150.);
#98=VECTOR('',#353,68.);
#99=VECTOR('',#364,45.);
#100=VECTOR('',#369,48.);
#101=CIRCLE('',#259,43.);
#102=CIRCLE('',#260,43.);
#103=CIRCLE('',#262,45.);
#104=CIRCLE('',#263,45.);
#105=CIRCLE('',#267,68.);
#106=CIRCLE('',#268,68.);
#107=CIRCLE('',#270,48.);
#108=CIRCLE('',#272,48.);
#109=CIRCLE('',#274,150.);
#110=CIRCLE('',#275,150.);
#111=CIRCLE('',#279,140.);
#112=CIRCLE('',#281,140.);
#113=CIRCLE('',#283,68.);
#114=CIRCLE('',#284,68.);
#115=CIRCLE('',#286,48.);
#116=CIRCLE('',#288,45.);
#117=CIRCLE('',#289,45.);
#118=CIRCLE('',#291,48.);
#119=VERTEX_POINT('',#378);
#120=VERTEX_POINT('',#380);
#121=VERTEX_POINT('',#384);
#122=VERTEX_POINT('',#386);
#123=VERTEX_POINT('',#392);
#124=VERTEX_POINT('',#394);
#125=VERTEX_POINT('',#398);
#126=VERTEX_POINT('',#401);
#127=VERTEX_POINT('',#405);
#128=VERTEX_POINT('',#407);
#129=VERTEX_POINT('',#413);
#130=VERTEX_POINT('',#416);
#131=VERTEX_POINT('',#419);
#132=VERTEX_POINT('',#421);
#133=VERTEX_POINT('',#425);
#134=VERTEX_POINT('',#428);
#135=VERTEX_POINT('',#430);
#136=VERTEX_POINT('',#434);
#137=EDGE_CURVE('',#119,#119,#101,.T.);
#138=EDGE_CURVE('',#119,#120,#85,.T.);
#139=EDGE_CURVE('',#120,#120,#102,.T.);
#140=EDGE_CURVE('',#121,#121,#103,.T.);
#141=EDGE_CURVE('',#121,#122,#86,.T.);
#142=EDGE_CURVE('',#122,#122,#104,.T.);
#143=EDGE_CURVE('',#123,#123,#105,.T.);
#144=EDGE_CURVE('',#123,#124,#87,.T.);
#145=EDGE_CURVE('',#124,#124,#106,.T.);
#146=EDGE_CURVE('',#125,#125,#107,.T.);
#147=EDGE_CURVE('',#125,#126,#88,.T.);
#148=EDGE_CURVE('',#126,#126,#108,.T.);
#149=EDGE_CURVE('',#127,#127,#109,.T.);
#150=EDGE_CURVE('',#127,#128,#89,.T.);
#151=EDGE_CURVE('',#128,#128,#110,.T.);
#152=EDGE_CURVE('',#129,#129,#111,.T.);
#153=EDGE_CURVE('',#130,#129,#112,.T.);
#154=EDGE_CURVE('',#131,#131,#113,.T.);
#155=EDGE_CURVE('',#131,#132,#90,.T.);
#156=EDGE_CURVE('',#132,#132,#114,.T.);
#157=EDGE_CURVE('',#133,#133,#115,.T.);
#158=EDGE_CURVE('',#134,#134,#116,.T.);
#159=EDGE_CURVE('',#134,#135,#91,.T.);
#160=EDGE_CURVE('',#135,#135,#117,.T.);
#161=EDGE_CURVE('',#133,#136,#92,.T.);
#162=EDGE_CURVE('',#136,#136,#118,.T.);
#163=ORIENTED_EDGE('',*,*,#137,.F.);
#164=ORIENTED_EDGE('',*,*,#138,.T.);
#165=ORIENTED_EDGE('',*,*,#139,.F.);
#166=ORIENTED_EDGE('',*,*,#138,.F.);
#167=ORIENTED_EDGE('',*,*,#140,.F.);
#168=ORIENTED_EDGE('',*,*,#141,.T.);
#169=ORIENTED_EDGE('',*,*,#142,.F.);
#170=ORIENTED_EDGE('',*,*,#141,.F.);
#171=ORIENTED_EDGE('',*,*,#142,.T.);
#172=ORIENTED_EDGE('',*,*,#139,.T.);
#173=ORIENTED_EDGE('',*,*,#140,.T.);
#174=ORIENTED_EDGE('',*,*,#137,.T.);
#175=ORIENTED_EDGE('',*,*,#143,.F.);
#176=ORIENTED_EDGE('',*,*,#144,.T.);
#177=ORIENTED_EDGE('',*,*,#145,.F.);
#178=ORIENTED_EDGE('',*,*,#144,.F.);
#179=ORIENTED_EDGE('',*,*,#143,.T.);
#180=ORIENTED_EDGE('',*,*,#146,.F.);
#181=ORIENTED_EDGE('',*,*,#146,.T.);
#182=ORIENTED_EDGE('',*,*,#147,.T.);
#183=ORIENTED_EDGE('',*,*,#148,.T.);
#184=ORIENTED_EDGE('',*,*,#147,.F.);
#185=ORIENTED_EDGE('',*,*,#149,.F.);
#186=ORIENTED_EDGE('',*,*,#150,.T.);
#187=ORIENTED_EDGE('',*,*,#151,.T.);
#188=ORIENTED_EDGE('',*,*,#150,.F.);
#189=ORIENTED_EDGE('',*,*,#149,.T.);
#190=ORIENTED_EDGE('',*,*,#145,.T.);
#191=ORIENTED_EDGE('',*,*,#151,.F.);
#192=ORIENTED_EDGE('',*,*,#148,.F.);
#193=ORIENTED_EDGE('',*,*,#152,.F.);
#194=ORIENTED_EDGE('',*,*,#152,.T.);
#195=ORIENTED_EDGE('',*,*,#153,.F.);
#196=ORIENTED_EDGE('',*,*,#153,.T.);
#197=ORIENTED_EDGE('',*,*,#154,.F.);
#198=ORIENTED_EDGE('',*,*,#155,.T.);
#199=ORIENTED_EDGE('',*,*,#156,.T.);
#200=ORIENTED_EDGE('',*,*,#155,.F.);
#201=ORIENTED_EDGE('',*,*,#156,.F.);
#202=ORIENTED_EDGE('',*,*,#157,.F.);
#203=ORIENTED_EDGE('',*,*,#158,.F.);
#204=ORIENTED_EDGE('',*,*,#159,.T.);
#205=ORIENTED_EDGE('',*,*,#160,.T.);
#206=ORIENTED_EDGE('',*,*,#159,.F.);
#207=ORIENTED_EDGE('',*,*,#157,.T.);
#208=ORIENTED_EDGE('',*,*,#161,.T.);
#209=ORIENTED_EDGE('',*,*,#162,.T.);
#210=ORIENTED_EDGE('',*,*,#161,.F.);
#211=ORIENTED_EDGE('',*,*,#154,.T.);
#212=ORIENTED_EDGE('',*,*,#158,.T.);
#213=ORIENTED_EDGE('',*,*,#162,.F.);
#214=ORIENTED_EDGE('',*,*,#160,.F.);
#215=CYLINDRICAL_SURFACE('',#258,43.);
#216=CYLINDRICAL_SURFACE('',#261,45.);
#217=CYLINDRICAL_SURFACE('',#266,68.);
#218=CYLINDRICAL_SURFACE('',#271,48.);
#219=CYLINDRICAL_SURFACE('',#273,150.);
#220=CYLINDRICAL_SURFACE('',#282,68.);
#221=CYLINDRICAL_SURFACE('',#287,45.);
#222=CYLINDRICAL_SURFACE('',#290,48.);
#223=ADVANCED_FACE('',(#41),#215,.F.);
#224=ADVANCED_FACE('',(#42),#216,.T.);
#225=ADVANCED_FACE('',(#43,#24),#32,.T.);
#226=ADVANCED_FACE('',(#44,#25),#33,.F.);
#227=ADVANCED_FACE('',(#45),#217,.F.);
#228=ADVANCED_FACE('',(#46,#26),#34,.T.);
#229=ADVANCED_FACE('',(#47),#218,.F.);
#230=ADVANCED_FACE('',(#48),#219,.T.);
#231=ADVANCED_FACE('',(#49,#27),#35,.T.);
#232=ADVANCED_FACE('',(#50,#28),#36,.F.);
#233=ADVANCED_FACE('',(#51),#37,.F.);
#234=ADVANCED_FACE('',(#52),#13,.T.);
#235=ADVANCED_FACE('',(#53),#220,.T.);
#236=ADVANCED_FACE('',(#54,#29),#38,.F.);
#237=ADVANCED_FACE('',(#55),#221,.F.);
#238=ADVANCED_FACE('',(#56),#222,.T.);
#239=ADVANCED_FACE('',(#57,#30),#39,.T.);
#240=ADVANCED_FACE('',(#58,#31),#40,.F.);
#241=CLOSED_SHELL('',(#223,#224,#225,#226));
#242=CLOSED_SHELL('',(#227,#228,#229,#230,#231,#232));
#243=CLOSED_SHELL('',(#233,#234));
#244=CLOSED_SHELL('',(#235,#236,#237,#238,#239,#240));
#245=DERIVED_UNIT_ELEMENT(#247,1.);
#246=DERIVED_UNIT_ELEMENT(#444,-3.);
#247=(
MASS_UNIT()
NAMED_UNIT(*)
SI_UNIT(.KILO.,.GRAM.)
);
#248=DERIVED_UNIT((#245,#246));
#249=MEASURE_REPRESENTATION_ITEM('density measure',
POSITIVE_RATIO_MEASURE(7850.),#248);
#250=PROPERTY_DEFINITION_REPRESENTATION(#255,#252);
#251=PROPERTY_DEFINITION_REPRESENTATION(#256,#253);
#252=REPRESENTATION('material name',(#254),#441);
#253=REPRESENTATION('density',(#249),#441);
#254=DESCRIPTIVE_REPRESENTATION_ITEM('\X2\94A2\X0\','\X2\94A2\X0\');
#255=PROPERTY_DEFINITION('material property','material name',#451);
#256=PROPERTY_DEFINITION('material property','density of part',#451);
#257=AXIS2_PLACEMENT_3D('',#376,#294,#295);
#258=AXIS2_PLACEMENT_3D('',#377,#296,#297);
#259=AXIS2_PLACEMENT_3D('',#379,#298,#299);
#260=AXIS2_PLACEMENT_3D('',#382,#301,#302);
#261=AXIS2_PLACEMENT_3D('',#383,#303,#304);
#262=AXIS2_PLACEMENT_3D('',#385,#305,#306);
#263=AXIS2_PLACEMENT_3D('',#388,#308,#309);
#264=AXIS2_PLACEMENT_3D('',#389,#310,#311);
#265=AXIS2_PLACEMENT_3D('',#390,#312,#313);
#266=AXIS2_PLACEMENT_3D('',#391,#314,#315);
#267=AXIS2_PLACEMENT_3D('',#393,#316,#317);
#268=AXIS2_PLACEMENT_3D('',#396,#319,#320);
#269=AXIS2_PLACEMENT_3D('',#397,#321,#322);
#270=AXIS2_PLACEMENT_3D('',#399,#323,#324);
#271=AXIS2_PLACEMENT_3D('',#400,#325,#326);
#272=AXIS2_PLACEMENT_3D('',#403,#328,#329);
#273=AXIS2_PLACEMENT_3D('',#404,#330,#331);
#274=AXIS2_PLACEMENT_3D('',#406,#332,#333);
#275=AXIS2_PLACEMENT_3D('',#409,#335,#336);
#276=AXIS2_PLACEMENT_3D('',#410,#337,#338);
#277=AXIS2_PLACEMENT_3D('',#411,#339,#340);
#278=AXIS2_PLACEMENT_3D('',#412,#341,#342);
#279=AXIS2_PLACEMENT_3D('',#414,#343,#344);
#280=AXIS2_PLACEMENT_3D('',#415,#345,#346);
#281=AXIS2_PLACEMENT_3D('',#417,#347,#348);
#282=AXIS2_PLACEMENT_3D('',#418,#349,#350);
#283=AXIS2_PLACEMENT_3D('',#420,#351,#352);
#284=AXIS2_PLACEMENT_3D('',#423,#354,#355);
#285=AXIS2_PLACEMENT_3D('',#424,#356,#357);
#286=AXIS2_PLACEMENT_3D('',#426,#358,#359);
#287=AXIS2_PLACEMENT_3D('',#427,#360,#361);
#288=AXIS2_PLACEMENT_3D('',#429,#362,#363);
#289=AXIS2_PLACEMENT_3D('',#432,#365,#366);
#290=AXIS2_PLACEMENT_3D('',#433,#367,#368);
#291=AXIS2_PLACEMENT_3D('',#436,#370,#371);
#292=AXIS2_PLACEMENT_3D('',#437,#372,#373);
#293=AXIS2_PLACEMENT_3D('',#438,#374,#375);
#294=DIRECTION('axis',(0.,0.,1.));
#295=DIRECTION('refdir',(1.,0.,0.));
#296=DIRECTION('center_axis',(0.,0.,-1.));
#297=DIRECTION('ref_axis',(1.,0.,0.));
#298=DIRECTION('center_axis',(0.,0.,1.));
#299=DIRECTION('ref_axis',(1.,0.,0.));
#300=DIRECTION('',(0.,0.,1.));
#301=DIRECTION('center_axis',(0.,0.,-1.));
#302=DIRECTION('ref_axis',(1.,0.,0.));
#303=DIRECTION('center_axis',(0.,0.,-1.));
#304=DIRECTION('ref_axis',(1.,0.,0.));
#305=DIRECTION('center_axis',(0.,0.,-1.));
#306=DIRECTION('ref_axis',(1.,0.,0.));
#307=DIRECTION('',(0.,0.,1.));
#308=DIRECTION('center_axis',(0.,0.,1.));
#309=DIRECTION('ref_axis',(1.,0.,0.));
#310=DIRECTION('center_axis',(0.,0.,1.));
#311=DIRECTION('ref_axis',(1.,0.,0.));
#312=DIRECTION('center_axis',(0.,0.,1.));
#313=DIRECTION('ref_axis',(1.,0.,0.));
#314=DIRECTION('center_axis',(0.,0.,1.));
#315=DIRECTION('ref_axis',(1.,0.,0.));
#316=DIRECTION('center_axis',(0.,0.,1.));
#317=DIRECTION('ref_axis',(1.,0.,0.));
#318=DIRECTION('',(0.,0.,1.));
#319=DIRECTION('center_axis',(0.,0.,-1.));
#320=DIRECTION('ref_axis',(1.,0.,0.));
#321=DIRECTION('center_axis',(0.,0.,1.));
#322=DIRECTION('ref_axis',(1.,0.,0.));
#323=DIRECTION('center_axis',(0.,0.,1.));
#324=DIRECTION('ref_axis',(1.,0.,0.));
#325=DIRECTION('center_axis',(0.,0.,1.));
#326=DIRECTION('ref_axis',(1.,0.,0.));
#327=DIRECTION('',(0.,0.,-1.));
#328=DIRECTION('center_axis',(0.,0.,-1.));
#329=DIRECTION('ref_axis',(1.,0.,0.));
#330=DIRECTION('center_axis',(0.,0.,1.));
#331=DIRECTION('ref_axis',(1.,0.,0.));
#332=DIRECTION('center_axis',(0.,0.,1.));
#333=DIRECTION('ref_axis',(1.,0.,0.));
#334=DIRECTION('',(0.,0.,-1.));
#335=DIRECTION('center_axis',(0.,0.,1.));
#336=DIRECTION('ref_axis',(1.,0.,0.));
#337=DIRECTION('center_axis',(0.,0.,1.));
#338=DIRECTION('ref_axis',(1.,0.,0.));
#339=DIRECTION('center_axis',(0.,0.,1.));
#340=DIRECTION('ref_axis',(1.,0.,0.));
#341=DIRECTION('center_axis',(0.,0.,1.));
#342=DIRECTION('ref_axis',(1.,0.,0.));
#343=DIRECTION('center_axis',(0.,0.,1.));
#344=DIRECTION('ref_axis',(0.,1.,0.));
#345=DIRECTION('center_axis',(6.12323399573677E-17,0.,1.));
#346=DIRECTION('ref_axis',(1.,0.,0.));
#347=DIRECTION('center_axis',(1.22464679914735E-16,-1.,0.));
#348=DIRECTION('ref_axis',(-1.,-1.22464679914735E-16,0.));
#349=DIRECTION('center_axis',(0.,0.,1.));
#350=DIRECTION('ref_axis',(1.,0.,0.));
#351=DIRECTION('center_axis',(0.,0.,1.));
#352=DIRECTION('ref_axis',(1.,0.,0.));
#353=DIRECTION('',(0.,0.,-1.));
#354=DIRECTION('center_axis',(0.,0.,1.));
#355=DIRECTION('ref_axis',(1.,0.,0.));
#356=DIRECTION('center_axis',(0.,0.,1.));
#357=DIRECTION('ref_axis',(1.,0.,0.));
#358=DIRECTION('center_axis',(0.,0.,-1.));
#359=DIRECTION('ref_axis',(1.,0.,0.));
#360=DIRECTION('center_axis',(0.,0.,1.));
#361=DIRECTION('ref_axis',(1.,0.,0.));
#362=DIRECTION('center_axis',(0.,0.,-1.));
#363=DIRECTION('ref_axis',(1.,0.,0.));
#364=DIRECTION('',(0.,0.,-1.));
#365=DIRECTION('center_axis',(0.,0.,-1.));
#366=DIRECTION('ref_axis',(1.,0.,0.));
#367=DIRECTION('center_axis',(0.,0.,1.));
#368=DIRECTION('ref_axis',(1.,0.,0.));
#369=DIRECTION('',(0.,0.,-1.));
#370=DIRECTION('center_axis',(0.,0.,1.));
#371=DIRECTION('ref_axis',(1.,0.,0.));
#372=DIRECTION('center_axis',(0.,0.,1.));
#373=DIRECTION('ref_axis',(1.,0.,0.));
#374=DIRECTION('center_axis',(0.,0.,1.));
#375=DIRECTION('ref_axis',(1.,0.,0.));
#376=CARTESIAN_POINT('',(0.,0.,0.));
#377=CARTESIAN_POINT('Origin',(0.,0.,0.));
#378=CARTESIAN_POINT('',(-43.,-5.26598123633362E-15,-120.));
#379=CARTESIAN_POINT('Origin',(0.,0.,-120.));
#380=CARTESIAN_POINT('',(-43.,-5.26598123633362E-15,0.));
#381=CARTESIAN_POINT('',(-43.,5.26598123633362E-15,0.));
#382=CARTESIAN_POINT('Origin',(0.,0.,0.));
#383=CARTESIAN_POINT('Origin',(0.,0.,0.));
#384=CARTESIAN_POINT('',(-45.,-5.51091059616309E-15,-120.));
#385=CARTESIAN_POINT('Origin',(0.,0.,-120.));
#386=CARTESIAN_POINT('',(-45.,-5.51091059616309E-15,0.));
#387=CARTESIAN_POINT('',(-45.,5.51091059616309E-15,0.));
#388=CARTESIAN_POINT('Origin',(0.,0.,0.));
#389=CARTESIAN_POINT('Origin',(0.,0.,0.));
#390=CARTESIAN_POINT('Origin',(0.,0.,-120.));
#391=CARTESIAN_POINT('Origin',(0.,0.,17.));
#392=CARTESIAN_POINT('',(-68.,-8.327598234202E-15,17.));
#393=CARTESIAN_POINT('Origin',(0.,0.,17.));
#394=CARTESIAN_POINT('',(-68.,8.327598234202E-15,60.));
#395=CARTESIAN_POINT('',(-68.,-8.327598234202E-15,17.));
#396=CARTESIAN_POINT('Origin',(0.,0.,60.));
#397=CARTESIAN_POINT('Origin',(0.,0.,17.));
#398=CARTESIAN_POINT('',(-48.,-5.8783046359073E-15,17.));
#399=CARTESIAN_POINT('Origin',(0.,0.,17.));
#400=CARTESIAN_POINT('Origin',(0.,0.,0.));
#401=CARTESIAN_POINT('',(-48.,-5.8783046359073E-15,0.));
#402=CARTESIAN_POINT('',(-48.,-5.8783046359073E-15,0.));
#403=CARTESIAN_POINT('Origin',(0.,0.,0.));
#404=CARTESIAN_POINT('Origin',(0.,0.,0.));
#405=CARTESIAN_POINT('',(-150.,-1.83697019872103E-14,60.));
#406=CARTESIAN_POINT('Origin',(0.,0.,60.));
#407=CARTESIAN_POINT('',(-150.,-1.83697019872103E-14,0.));
#408=CARTESIAN_POINT('',(-150.,-1.83697019872103E-14,0.));
#409=CARTESIAN_POINT('Origin',(0.,0.,0.));
#410=CARTESIAN_POINT('Origin',(0.,0.,60.));
#411=CARTESIAN_POINT('Origin',(0.,0.,0.));
#412=CARTESIAN_POINT('Origin',(0.,0.,60.));
#413=CARTESIAN_POINT('',(-140.,-1.71450551880629E-14,60.));
#414=CARTESIAN_POINT('Origin',(0.,0.,60.));
#415=CARTESIAN_POINT('Origin',(0.,0.,60.));
#416=CARTESIAN_POINT('',(-8.57252759403147E-15,-1.0498318478633E-30,200.));
#417=CARTESIAN_POINT('Origin',(0.,0.,60.));
#418=CARTESIAN_POINT('Origin',(0.,0.,17.));
#419=CARTESIAN_POINT('',(-68.,-8.327598234202E-15,20.));
#420=CARTESIAN_POINT('Origin',(0.,0.,20.));
#421=CARTESIAN_POINT('',(-68.,-8.327598234202E-15,17.));
#422=CARTESIAN_POINT('',(-68.,-8.327598234202E-15,17.));
#423=CARTESIAN_POINT('Origin',(0.,0.,17.));
#424=CARTESIAN_POINT('Origin',(0.,0.,17.));
#425=CARTESIAN_POINT('',(-48.,-5.8783046359073E-15,17.));
#426=CARTESIAN_POINT('Origin',(0.,0.,17.));
#427=CARTESIAN_POINT('Origin',(0.,0.,0.));
#428=CARTESIAN_POINT('',(-45.,-5.51091059616309E-15,20.));
#429=CARTESIAN_POINT('Origin',(0.,0.,20.));
#430=CARTESIAN_POINT('',(-45.,-5.51091059616309E-15,0.));
#431=CARTESIAN_POINT('',(-45.,-5.51091059616309E-15,0.));
#432=CARTESIAN_POINT('Origin',(0.,0.,0.));
#433=CARTESIAN_POINT('Origin',(0.,0.,0.));
#434=CARTESIAN_POINT('',(-48.,-5.8783046359073E-15,0.));
#435=CARTESIAN_POINT('',(-48.,-5.8783046359073E-15,0.));
#436=CARTESIAN_POINT('Origin',(0.,0.,0.));
#437=CARTESIAN_POINT('Origin',(0.,0.,20.));
#438=CARTESIAN_POINT('Origin',(0.,0.,0.));
#439=UNCERTAINTY_MEASURE_WITH_UNIT(LENGTH_MEASURE(0.01),#443,
'DISTANCE_ACCURACY_VALUE',
'Maximum model space distance between geometric entities at asserted c
onnectivities');
#440=UNCERTAINTY_MEASURE_WITH_UNIT(LENGTH_MEASURE(0.01),#443,
'DISTANCE_ACCURACY_VALUE',
'Maximum model space distance between geometric entities at asserted c
onnectivities');
#441=(
GEOMETRIC_REPRESENTATION_CONTEXT(3)
GLOBAL_UNCERTAINTY_ASSIGNED_CONTEXT((#439))
GLOBAL_UNIT_ASSIGNED_CONTEXT((#443,#445,#446))
REPRESENTATION_CONTEXT('','3D')
);
#442=(
GEOMETRIC_REPRESENTATION_CONTEXT(3)
GLOBAL_UNCERTAINTY_ASSIGNED_CONTEXT((#440))
GLOBAL_UNIT_ASSIGNED_CONTEXT((#443,#445,#446))
REPRESENTATION_CONTEXT('','3D')
);
#443=(
LENGTH_UNIT()
NAMED_UNIT(*)
SI_UNIT(.MILLI.,.METRE.)
);
#444=(
LENGTH_UNIT()
NAMED_UNIT(*)
SI_UNIT($,.METRE.)
);
#445=(
NAMED_UNIT(*)
PLANE_ANGLE_UNIT()
SI_UNIT($,.RADIAN.)
);
#446=(
NAMED_UNIT(*)
SI_UNIT($,.STERADIAN.)
SOLID_ANGLE_UNIT()
);
#447=SHAPE_DEFINITION_REPRESENTATION(#448,#449);
#448=PRODUCT_DEFINITION_SHAPE('',$,#451);
#449=SHAPE_REPRESENTATION('',(#257),#441);
#450=PRODUCT_DEFINITION_CONTEXT('part definition',#455,'design');
#451=PRODUCT_DEFINITION('Aquaponics IOT Device',
'Aquaponics IOT Device v9',#452,#450);
#452=PRODUCT_DEFINITION_FORMATION('',$,#457);
#453=PRODUCT_RELATED_PRODUCT_CATEGORY('Aquaponics IOT Device v9',
'Aquaponics IOT Device v9',(#457));
#454=APPLICATION_PROTOCOL_DEFINITION('international standard',
'automotive_design',2009,#455);
#455=APPLICATION_CONTEXT(
'Core Data for Automotive Mechanical Design Process');
#456=PRODUCT_CONTEXT('part definition',#455,'mechanical');
#457=PRODUCT('Aquaponics IOT Device','Aquaponics IOT Device v9',$,(#456));
#458=PRESENTATION_STYLE_ASSIGNMENT((#461));
#459=PRESENTATION_STYLE_ASSIGNMENT((#462));
#460=PRESENTATION_STYLE_ASSIGNMENT((#463));
#461=SURFACE_STYLE_USAGE(.BOTH.,#464);
#462=SURFACE_STYLE_USAGE(.BOTH.,#465);
#463=SURFACE_STYLE_USAGE(.BOTH.,#466);
#464=SURFACE_SIDE_STYLE('',(#467));
#465=SURFACE_SIDE_STYLE('',(#468));
#466=SURFACE_SIDE_STYLE('',(#469));
#467=SURFACE_STYLE_FILL_AREA(#470);
#468=SURFACE_STYLE_FILL_AREA(#471);
#469=SURFACE_STYLE_FILL_AREA(#472);
#470=FILL_AREA_STYLE('\X2\94A2\X0\ - \X2\7F0E5149\X0\',(#473));
#471=FILL_AREA_STYLE('\X2\4E9A514B529B\X0\(\X2\900F660E\X0\)',(#474));
#472=FILL_AREA_STYLE('\X2\78B37EA47EF4\X0\ - \X2\666E901A\X0\',(#475));
#473=FILL_AREA_STYLE_COLOUR('\X2\94A2\X0\ - \X2\7F0E5149\X0\',#476);
#474=FILL_AREA_STYLE_COLOUR('\X2\4E9A514B529B\X0\(\X2\900F660E\X0\)',#477);
#475=FILL_AREA_STYLE_COLOUR('\X2\78B37EA47EF4\X0\ - \X2\666E901A\X0\',#478);
#476=COLOUR_RGB('\X2\94A2\X0\ - \X2\7F0E5149\X0\',0.627450980392157,0.627450980392157,
0.627450980392157);
#477=COLOUR_RGB('\X2\4E9A514B529B\X0\(\X2\900F660E\X0\)',0.964705882352941,
0.964705882352941,0.952941176470588);
#478=COLOUR_RGB('\X2\78B37EA47EF4\X0\ - \X2\666E901A\X0\',0.266666666666667,
0.247058823529412,0.247058823529412);
ENDSEC;
END-ISO-10303-21;
