ISO-10303-21;
HEADER;
/* Generated by software containing ST-Developer
 * from STEP Tools, Inc. (www.steptools.com) 
 */

FILE_DESCRIPTION(
/* description */ (''),
/* implementation_level */ '2;1');

FILE_NAME(
/* name */ 'A-components2 v2.step',
/* time_stamp */ '2024-05-30T00:43:16+08:00',
/* author */ (''),
/* organization */ (''),
/* preprocessor_version */ 'ST-DEVELOPER v20',
/* originating_system */ 'Autodesk Translation Framework v13.14.0.145',

/* authorisation */ '');

FILE_SCHEMA (('AUTOMOTIVE_DESIGN { 1 0 10303 214 3 1 1 }'));
ENDSEC;

DATA;
#10=MECHANICAL_DESIGN_GEOMETRIC_PRESENTATION_REPRESENTATION('',(#13),#441);
#11=SHAPE_REPRESENTATION_RELATIONSHIP('SRR','None',#448,#12);
#12=ADVANCED_BREP_SHAPE_REPRESENTATION('',(#14),#440);
#13=STYLED_ITEM('',(#457),#14);
#14=MANIFOLD_SOLID_BREP('\X2\5B9E4F53\X0\1',#246);
#15=FACE_BOUND('',#57,.T.);
#16=FACE_BOUND('',#59,.T.);
#17=FACE_BOUND('',#60,.T.);
#18=FACE_BOUND('',#61,.T.);
#19=FACE_BOUND('',#62,.T.);
#20=FACE_BOUND('',#63,.T.);
#21=FACE_BOUND('',#66,.T.);
#22=FACE_BOUND('',#67,.T.);
#23=FACE_BOUND('',#68,.T.);
#24=FACE_BOUND('',#69,.T.);
#25=FACE_BOUND('',#70,.T.);
#26=FACE_BOUND('',#74,.T.);
#27=FACE_BOUND('',#76,.T.);
#28=PLANE('',#280);
#29=PLANE('',#282);
#30=PLANE('',#287);
#31=PLANE('',#292);
#32=PLANE('',#293);
#33=CONICAL_SURFACE('',#275,46.,0.785398163397449);
#34=FACE_OUTER_BOUND('',#49,.T.);
#35=FACE_OUTER_BOUND('',#50,.T.);
#36=FACE_OUTER_BOUND('',#51,.T.);
#37=FACE_OUTER_BOUND('',#52,.T.);
#38=FACE_OUTER_BOUND('',#53,.T.);
#39=FACE_OUTER_BOUND('',#54,.T.);
#40=FACE_OUTER_BOUND('',#55,.T.);
#41=FACE_OUTER_BOUND('',#56,.T.);
#42=FACE_OUTER_BOUND('',#58,.T.);
#43=FACE_OUTER_BOUND('',#64,.T.);
#44=FACE_OUTER_BOUND('',#65,.T.);
#45=FACE_OUTER_BOUND('',#71,.T.);
#46=FACE_OUTER_BOUND('',#72,.T.);
#47=FACE_OUTER_BOUND('',#73,.T.);
#48=FACE_OUTER_BOUND('',#75,.T.);
#49=EDGE_LOOP('',(#164,#165,#166,#167));
#50=EDGE_LOOP('',(#168,#169,#170,#171));
#51=EDGE_LOOP('',(#172,#173,#174,#175));
#52=EDGE_LOOP('',(#176,#177,#178,#179));
#53=EDGE_LOOP('',(#180,#181,#182,#183));
#54=EDGE_LOOP('',(#184,#185,#186,#187));
#55=EDGE_LOOP('',(#188,#189,#190,#191));
#56=EDGE_LOOP('',(#192));
#57=EDGE_LOOP('',(#193));
#58=EDGE_LOOP('',(#194));
#59=EDGE_LOOP('',(#195));
#60=EDGE_LOOP('',(#196));
#61=EDGE_LOOP('',(#197));
#62=EDGE_LOOP('',(#198));
#63=EDGE_LOOP('',(#199));
#64=EDGE_LOOP('',(#200,#201,#202,#203));
#65=EDGE_LOOP('',(#204));
#66=EDGE_LOOP('',(#205));
#67=EDGE_LOOP('',(#206));
#68=EDGE_LOOP('',(#207));
#69=EDGE_LOOP('',(#208));
#70=EDGE_LOOP('',(#209));
#71=EDGE_LOOP('',(#210,#211,#212,#213));
#72=EDGE_LOOP('',(#214,#215,#216,#217));
#73=EDGE_LOOP('',(#218));
#74=EDGE_LOOP('',(#219));
#75=EDGE_LOOP('',(#220));
#76=EDGE_LOOP('',(#221));
#77=LINE('',#379,#87);
#78=LINE('',#385,#88);
#79=LINE('',#391,#89);
#80=LINE('',#397,#90);
#81=LINE('',#403,#91);
#82=LINE('',#409,#92);
#83=LINE('',#413,#93);
#84=LINE('',#425,#94);
#85=LINE('',#430,#95);
#86=LINE('',#434,#96);
#87=VECTOR('',#300,3.5);
#88=VECTOR('',#307,3.5);
#89=VECTOR('',#314,8.);
#90=VECTOR('',#321,13.5);
#91=VECTOR('',#328,1.5);
#92=VECTOR('',#335,46.);
#93=VECTOR('',#340,45.);
#94=VECTOR('',#355,43.);
#95=VECTOR('',#362,40.);
#96=VECTOR('',#367,48.);
#97=CIRCLE('',#261,3.5);
#98=CIRCLE('',#262,3.5);
#99=CIRCLE('',#264,3.5);
#100=CIRCLE('',#265,3.5);
#101=CIRCLE('',#267,8.);
#102=CIRCLE('',#268,8.);
#103=CIRCLE('',#270,13.5);
#104=CIRCLE('',#271,13.5);
#105=CIRCLE('',#273,1.5);
#106=CIRCLE('',#274,1.5);
#107=CIRCLE('',#276,47.);
#108=CIRCLE('',#277,45.);
#109=CIRCLE('',#279,45.);
#110=CIRCLE('',#281,48.);
#111=CIRCLE('',#283,40.);
#112=CIRCLE('',#285,43.);
#113=CIRCLE('',#286,43.);
#114=CIRCLE('',#289,40.);
#115=CIRCLE('',#291,48.);
#116=VERTEX_POINT('',#376);
#117=VERTEX_POINT('',#378);
#118=VERTEX_POINT('',#382);
#119=VERTEX_POINT('',#384);
#120=VERTEX_POINT('',#388);
#121=VERTEX_POINT('',#390);
#122=VERTEX_POINT('',#394);
#123=VERTEX_POINT('',#396);
#124=VERTEX_POINT('',#400);
#125=VERTEX_POINT('',#402);
#126=VERTEX_POINT('',#406);
#127=VERTEX_POINT('',#408);
#128=VERTEX_POINT('',#412);
#129=VERTEX_POINT('',#416);
#130=VERTEX_POINT('',#419);
#131=VERTEX_POINT('',#422);
#132=VERTEX_POINT('',#424);
#133=VERTEX_POINT('',#429);
#134=VERTEX_POINT('',#433);
#135=EDGE_CURVE('',#116,#116,#97,.T.);
#136=EDGE_CURVE('',#116,#117,#77,.T.);
#137=EDGE_CURVE('',#117,#117,#98,.T.);
#138=EDGE_CURVE('',#118,#118,#99,.T.);
#139=EDGE_CURVE('',#118,#119,#78,.T.);
#140=EDGE_CURVE('',#119,#119,#100,.T.);
#141=EDGE_CURVE('',#120,#120,#101,.T.);
#142=EDGE_CURVE('',#120,#121,#79,.T.);
#143=EDGE_CURVE('',#121,#121,#102,.T.);
#144=EDGE_CURVE('',#122,#122,#103,.T.);
#145=EDGE_CURVE('',#122,#123,#80,.T.);
#146=EDGE_CURVE('',#123,#123,#104,.T.);
#147=EDGE_CURVE('',#124,#124,#105,.T.);
#148=EDGE_CURVE('',#124,#125,#81,.T.);
#149=EDGE_CURVE('',#125,#125,#106,.T.);
#150=EDGE_CURVE('',#126,#126,#107,.T.);
#151=EDGE_CURVE('',#126,#127,#82,.T.);
#152=EDGE_CURVE('',#127,#127,#108,.T.);
#153=EDGE_CURVE('',#127,#128,#83,.T.);
#154=EDGE_CURVE('',#128,#128,#109,.T.);
#155=EDGE_CURVE('',#129,#129,#110,.T.);
#156=EDGE_CURVE('',#130,#130,#111,.T.);
#157=EDGE_CURVE('',#131,#131,#112,.T.);
#158=EDGE_CURVE('',#131,#132,#84,.T.);
#159=EDGE_CURVE('',#132,#132,#113,.T.);
#160=EDGE_CURVE('',#130,#133,#85,.T.);
#161=EDGE_CURVE('',#133,#133,#114,.T.);
#162=EDGE_CURVE('',#129,#134,#86,.T.);
#163=EDGE_CURVE('',#134,#134,#115,.T.);
#164=ORIENTED_EDGE('',*,*,#135,.F.);
#165=ORIENTED_EDGE('',*,*,#136,.T.);
#166=ORIENTED_EDGE('',*,*,#137,.F.);
#167=ORIENTED_EDGE('',*,*,#136,.F.);
#168=ORIENTED_EDGE('',*,*,#138,.F.);
#169=ORIENTED_EDGE('',*,*,#139,.T.);
#170=ORIENTED_EDGE('',*,*,#140,.F.);
#171=ORIENTED_EDGE('',*,*,#139,.F.);
#172=ORIENTED_EDGE('',*,*,#141,.F.);
#173=ORIENTED_EDGE('',*,*,#142,.T.);
#174=ORIENTED_EDGE('',*,*,#143,.F.);
#175=ORIENTED_EDGE('',*,*,#142,.F.);
#176=ORIENTED_EDGE('',*,*,#144,.F.);
#177=ORIENTED_EDGE('',*,*,#145,.T.);
#178=ORIENTED_EDGE('',*,*,#146,.F.);
#179=ORIENTED_EDGE('',*,*,#145,.F.);
#180=ORIENTED_EDGE('',*,*,#147,.F.);
#181=ORIENTED_EDGE('',*,*,#148,.T.);
#182=ORIENTED_EDGE('',*,*,#149,.F.);
#183=ORIENTED_EDGE('',*,*,#148,.F.);
#184=ORIENTED_EDGE('',*,*,#150,.T.);
#185=ORIENTED_EDGE('',*,*,#151,.T.);
#186=ORIENTED_EDGE('',*,*,#152,.T.);
#187=ORIENTED_EDGE('',*,*,#151,.F.);
#188=ORIENTED_EDGE('',*,*,#152,.F.);
#189=ORIENTED_EDGE('',*,*,#153,.T.);
#190=ORIENTED_EDGE('',*,*,#154,.F.);
#191=ORIENTED_EDGE('',*,*,#153,.F.);
#192=ORIENTED_EDGE('',*,*,#155,.T.);
#193=ORIENTED_EDGE('',*,*,#150,.F.);
#194=ORIENTED_EDGE('',*,*,#156,.F.);
#195=ORIENTED_EDGE('',*,*,#137,.T.);
#196=ORIENTED_EDGE('',*,*,#140,.T.);
#197=ORIENTED_EDGE('',*,*,#143,.T.);
#198=ORIENTED_EDGE('',*,*,#146,.T.);
#199=ORIENTED_EDGE('',*,*,#147,.T.);
#200=ORIENTED_EDGE('',*,*,#157,.F.);
#201=ORIENTED_EDGE('',*,*,#158,.T.);
#202=ORIENTED_EDGE('',*,*,#159,.F.);
#203=ORIENTED_EDGE('',*,*,#158,.F.);
#204=ORIENTED_EDGE('',*,*,#157,.T.);
#205=ORIENTED_EDGE('',*,*,#135,.T.);
#206=ORIENTED_EDGE('',*,*,#138,.T.);
#207=ORIENTED_EDGE('',*,*,#141,.T.);
#208=ORIENTED_EDGE('',*,*,#144,.T.);
#209=ORIENTED_EDGE('',*,*,#149,.T.);
#210=ORIENTED_EDGE('',*,*,#156,.T.);
#211=ORIENTED_EDGE('',*,*,#160,.T.);
#212=ORIENTED_EDGE('',*,*,#161,.T.);
#213=ORIENTED_EDGE('',*,*,#160,.F.);
#214=ORIENTED_EDGE('',*,*,#155,.F.);
#215=ORIENTED_EDGE('',*,*,#162,.T.);
#216=ORIENTED_EDGE('',*,*,#163,.T.);
#217=ORIENTED_EDGE('',*,*,#162,.F.);
#218=ORIENTED_EDGE('',*,*,#154,.T.);
#219=ORIENTED_EDGE('',*,*,#159,.T.);
#220=ORIENTED_EDGE('',*,*,#163,.F.);
#221=ORIENTED_EDGE('',*,*,#161,.F.);
#222=CYLINDRICAL_SURFACE('',#260,3.5);
#223=CYLINDRICAL_SURFACE('',#263,3.5);
#224=CYLINDRICAL_SURFACE('',#266,8.);
#225=CYLINDRICAL_SURFACE('',#269,13.5);
#226=CYLINDRICAL_SURFACE('',#272,1.5);
#227=CYLINDRICAL_SURFACE('',#278,45.);
#228=CYLINDRICAL_SURFACE('',#284,43.);
#229=CYLINDRICAL_SURFACE('',#288,40.);
#230=CYLINDRICAL_SURFACE('',#290,48.);
#231=ADVANCED_FACE('',(#34),#222,.F.);
#232=ADVANCED_FACE('',(#35),#223,.F.);
#233=ADVANCED_FACE('',(#36),#224,.F.);
#234=ADVANCED_FACE('',(#37),#225,.F.);
#235=ADVANCED_FACE('',(#38),#226,.F.);
#236=ADVANCED_FACE('',(#39),#33,.F.);
#237=ADVANCED_FACE('',(#40),#227,.F.);
#238=ADVANCED_FACE('',(#41,#15),#28,.T.);
#239=ADVANCED_FACE('',(#42,#16,#17,#18,#19,#20),#29,.F.);
#240=ADVANCED_FACE('',(#43),#228,.T.);
#241=ADVANCED_FACE('',(#44,#21,#22,#23,#24,#25),#30,.T.);
#242=ADVANCED_FACE('',(#45),#229,.F.);
#243=ADVANCED_FACE('',(#46),#230,.T.);
#244=ADVANCED_FACE('',(#47,#26),#31,.T.);
#245=ADVANCED_FACE('',(#48,#27),#32,.F.);
#246=CLOSED_SHELL('',(#231,#232,#233,#234,#235,#236,#237,#238,#239,#240,
#241,#242,#243,#244,#245));
#247=DERIVED_UNIT_ELEMENT(#249,1.);
#248=DERIVED_UNIT_ELEMENT(#443,-3.);
#249=(
MASS_UNIT()
NAMED_UNIT(*)
SI_UNIT(.KILO.,.GRAM.)
);
#250=DERIVED_UNIT((#247,#248));
#251=MEASURE_REPRESENTATION_ITEM('density measure',
POSITIVE_RATIO_MEASURE(7850.),#250);
#252=PROPERTY_DEFINITION_REPRESENTATION(#257,#254);
#253=PROPERTY_DEFINITION_REPRESENTATION(#258,#255);
#254=REPRESENTATION('material name',(#256),#440);
#255=REPRESENTATION('density',(#251),#440);
#256=DESCRIPTIVE_REPRESENTATION_ITEM('\X2\94A2\X0\','\X2\94A2\X0\');
#257=PROPERTY_DEFINITION('material property','material name',#450);
#258=PROPERTY_DEFINITION('material property','density of part',#450);
#259=AXIS2_PLACEMENT_3D('',#374,#294,#295);
#260=AXIS2_PLACEMENT_3D('',#375,#296,#297);
#261=AXIS2_PLACEMENT_3D('',#377,#298,#299);
#262=AXIS2_PLACEMENT_3D('',#380,#301,#302);
#263=AXIS2_PLACEMENT_3D('',#381,#303,#304);
#264=AXIS2_PLACEMENT_3D('',#383,#305,#306);
#265=AXIS2_PLACEMENT_3D('',#386,#308,#309);
#266=AXIS2_PLACEMENT_3D('',#387,#310,#311);
#267=AXIS2_PLACEMENT_3D('',#389,#312,#313);
#268=AXIS2_PLACEMENT_3D('',#392,#315,#316);
#269=AXIS2_PLACEMENT_3D('',#393,#317,#318);
#270=AXIS2_PLACEMENT_3D('',#395,#319,#320);
#271=AXIS2_PLACEMENT_3D('',#398,#322,#323);
#272=AXIS2_PLACEMENT_3D('',#399,#324,#325);
#273=AXIS2_PLACEMENT_3D('',#401,#326,#327);
#274=AXIS2_PLACEMENT_3D('',#404,#329,#330);
#275=AXIS2_PLACEMENT_3D('',#405,#331,#332);
#276=AXIS2_PLACEMENT_3D('',#407,#333,#334);
#277=AXIS2_PLACEMENT_3D('',#410,#336,#337);
#278=AXIS2_PLACEMENT_3D('',#411,#338,#339);
#279=AXIS2_PLACEMENT_3D('',#414,#341,#342);
#280=AXIS2_PLACEMENT_3D('',#415,#343,#344);
#281=AXIS2_PLACEMENT_3D('',#417,#345,#346);
#282=AXIS2_PLACEMENT_3D('',#418,#347,#348);
#283=AXIS2_PLACEMENT_3D('',#420,#349,#350);
#284=AXIS2_PLACEMENT_3D('',#421,#351,#352);
#285=AXIS2_PLACEMENT_3D('',#423,#353,#354);
#286=AXIS2_PLACEMENT_3D('',#426,#356,#357);
#287=AXIS2_PLACEMENT_3D('',#427,#358,#359);
#288=AXIS2_PLACEMENT_3D('',#428,#360,#361);
#289=AXIS2_PLACEMENT_3D('',#431,#363,#364);
#290=AXIS2_PLACEMENT_3D('',#432,#365,#366);
#291=AXIS2_PLACEMENT_3D('',#435,#368,#369);
#292=AXIS2_PLACEMENT_3D('',#436,#370,#371);
#293=AXIS2_PLACEMENT_3D('',#437,#372,#373);
#294=DIRECTION('axis',(0.,0.,1.));
#295=DIRECTION('refdir',(1.,0.,0.));
#296=DIRECTION('center_axis',(0.,0.,-1.));
#297=DIRECTION('ref_axis',(-1.,0.,0.));
#298=DIRECTION('center_axis',(0.,0.,-1.));
#299=DIRECTION('ref_axis',(-1.,0.,0.));
#300=DIRECTION('',(0.,0.,-1.));
#301=DIRECTION('center_axis',(0.,0.,1.));
#302=DIRECTION('ref_axis',(-1.,0.,0.));
#303=DIRECTION('center_axis',(0.,0.,-1.));
#304=DIRECTION('ref_axis',(-1.,0.,0.));
#305=DIRECTION('center_axis',(0.,0.,-1.));
#306=DIRECTION('ref_axis',(-1.,0.,0.));
#307=DIRECTION('',(0.,0.,-1.));
#308=DIRECTION('center_axis',(0.,0.,1.));
#309=DIRECTION('ref_axis',(-1.,0.,0.));
#310=DIRECTION('center_axis',(0.,0.,-1.));
#311=DIRECTION('ref_axis',(-1.,0.,0.));
#312=DIRECTION('center_axis',(0.,0.,-1.));
#313=DIRECTION('ref_axis',(-1.,0.,0.));
#314=DIRECTION('',(0.,0.,-1.));
#315=DIRECTION('center_axis',(0.,0.,1.));
#316=DIRECTION('ref_axis',(-1.,0.,0.));
#317=DIRECTION('center_axis',(0.,0.,-1.));
#318=DIRECTION('ref_axis',(-1.,0.,0.));
#319=DIRECTION('center_axis',(0.,0.,-1.));
#320=DIRECTION('ref_axis',(-1.,0.,0.));
#321=DIRECTION('',(0.,0.,-1.));
#322=DIRECTION('center_axis',(0.,0.,1.));
#323=DIRECTION('ref_axis',(-1.,0.,0.));
#324=DIRECTION('center_axis',(0.,0.,1.));
#325=DIRECTION('ref_axis',(1.,0.,0.));
#326=DIRECTION('center_axis',(0.,0.,1.));
#327=DIRECTION('ref_axis',(1.,0.,0.));
#328=DIRECTION('',(0.,0.,1.));
#329=DIRECTION('center_axis',(0.,0.,-1.));
#330=DIRECTION('ref_axis',(1.,0.,0.));
#331=DIRECTION('center_axis',(0.,0.,1.));
#332=DIRECTION('ref_axis',(1.,0.,0.));
#333=DIRECTION('center_axis',(0.,0.,1.));
#334=DIRECTION('ref_axis',(1.,0.,0.));
#335=DIRECTION('',(0.707106781186548,8.65956056235494E-17,-0.707106781186547));
#336=DIRECTION('center_axis',(0.,0.,-1.));
#337=DIRECTION('ref_axis',(1.,0.,0.));
#338=DIRECTION('center_axis',(0.,0.,1.));
#339=DIRECTION('ref_axis',(1.,0.,0.));
#340=DIRECTION('',(0.,0.,-1.));
#341=DIRECTION('center_axis',(0.,0.,1.));
#342=DIRECTION('ref_axis',(1.,0.,0.));
#343=DIRECTION('center_axis',(0.,0.,1.));
#344=DIRECTION('ref_axis',(1.,0.,0.));
#345=DIRECTION('center_axis',(0.,0.,1.));
#346=DIRECTION('ref_axis',(1.,0.,0.));
#347=DIRECTION('center_axis',(0.,0.,1.));
#348=DIRECTION('ref_axis',(1.,0.,0.));
#349=DIRECTION('center_axis',(0.,0.,1.));
#350=DIRECTION('ref_axis',(1.,0.,0.));
#351=DIRECTION('center_axis',(0.,0.,1.));
#352=DIRECTION('ref_axis',(1.,0.,0.));
#353=DIRECTION('center_axis',(0.,0.,1.));
#354=DIRECTION('ref_axis',(1.,0.,0.));
#355=DIRECTION('',(0.,0.,-1.));
#356=DIRECTION('center_axis',(0.,0.,-1.));
#357=DIRECTION('ref_axis',(1.,0.,0.));
#358=DIRECTION('center_axis',(0.,0.,1.));
#359=DIRECTION('ref_axis',(1.,0.,0.));
#360=DIRECTION('center_axis',(0.,0.,1.));
#361=DIRECTION('ref_axis',(1.,0.,0.));
#362=DIRECTION('',(0.,0.,-1.));
#363=DIRECTION('center_axis',(0.,0.,-1.));
#364=DIRECTION('ref_axis',(1.,0.,0.));
#365=DIRECTION('center_axis',(0.,0.,1.));
#366=DIRECTION('ref_axis',(1.,0.,0.));
#367=DIRECTION('',(0.,0.,-1.));
#368=DIRECTION('center_axis',(0.,0.,1.));
#369=DIRECTION('ref_axis',(1.,0.,0.));
#370=DIRECTION('center_axis',(0.,0.,1.));
#371=DIRECTION('ref_axis',(1.,0.,0.));
#372=DIRECTION('center_axis',(0.,0.,1.));
#373=DIRECTION('ref_axis',(1.,0.,0.));
#374=CARTESIAN_POINT('',(0.,0.,0.));
#375=CARTESIAN_POINT('Origin',(23.7104990475326,4.26668241931095,35.));
#376=CARTESIAN_POINT('',(27.2104990475326,4.26668241931095,35.));
#377=CARTESIAN_POINT('Origin',(23.7104990475326,4.26668241931095,35.));
#378=CARTESIAN_POINT('',(27.2104990475326,4.26668241931095,32.));
#379=CARTESIAN_POINT('',(27.2104990475326,4.26668241931095,35.));
#380=CARTESIAN_POINT('Origin',(23.7104990475326,4.26668241931095,32.));
#381=CARTESIAN_POINT('Origin',(-22.3778210934287,5.97818502401507,35.));
#382=CARTESIAN_POINT('',(-18.8778210934287,5.97818502401507,35.));
#383=CARTESIAN_POINT('Origin',(-22.3778210934287,5.97818502401507,35.));
#384=CARTESIAN_POINT('',(-18.8778210934287,5.97818502401507,32.));
#385=CARTESIAN_POINT('',(-18.8778210934287,5.97818502401507,35.));
#386=CARTESIAN_POINT('Origin',(-22.3778210934287,5.97818502401507,32.));
#387=CARTESIAN_POINT('Origin',(3.2947179771333,22.1152095826541,35.));
#388=CARTESIAN_POINT('',(11.2947179771333,22.1152095826541,35.));
#389=CARTESIAN_POINT('Origin',(3.2947179771333,22.1152095826541,35.));
#390=CARTESIAN_POINT('',(11.2947179771333,22.1152095826541,32.));
#391=CARTESIAN_POINT('',(11.2947179771333,22.1152095826541,35.));
#392=CARTESIAN_POINT('Origin',(3.2947179771333,22.1152095826541,32.));
#393=CARTESIAN_POINT('Origin',(-0.495037790425865,-18.9608529302452,35.));
#394=CARTESIAN_POINT('',(13.0049622095741,-18.9608529302452,35.));
#395=CARTESIAN_POINT('Origin',(-0.495037790425865,-18.9608529302452,35.));
#396=CARTESIAN_POINT('',(13.0049622095741,-18.9608529302452,32.));
#397=CARTESIAN_POINT('',(13.0049622095741,-18.9608529302452,35.));
#398=CARTESIAN_POINT('Origin',(-0.495037790425865,-18.9608529302452,32.));
#399=CARTESIAN_POINT('Origin',(0.,0.,0.));
#400=CARTESIAN_POINT('',(-1.5,-1.83697019872103E-16,32.));
#401=CARTESIAN_POINT('Origin',(0.,0.,32.));
#402=CARTESIAN_POINT('',(-1.5,1.83697019872103E-16,35.));
#403=CARTESIAN_POINT('',(-1.5,-1.83697019872103E-16,0.));
#404=CARTESIAN_POINT('Origin',(0.,0.,35.));
#405=CARTESIAN_POINT('Origin',(0.,0.,9.));
#406=CARTESIAN_POINT('',(-47.,-5.75583995599256E-15,10.));
#407=CARTESIAN_POINT('Origin',(0.,0.,10.));
#408=CARTESIAN_POINT('',(-45.,5.51091059616309E-15,8.));
#409=CARTESIAN_POINT('',(-46.,-5.63337527607782E-15,9.));
#410=CARTESIAN_POINT('Origin',(0.,0.,8.));
#411=CARTESIAN_POINT('Origin',(0.,0.,0.));
#412=CARTESIAN_POINT('',(-45.,-5.51091059616309E-15,3.));
#413=CARTESIAN_POINT('',(-45.,-5.51091059616309E-15,0.));
#414=CARTESIAN_POINT('Origin',(0.,0.,3.));
#415=CARTESIAN_POINT('Origin',(0.,0.,10.));
#416=CARTESIAN_POINT('',(-48.,-5.8783046359073E-15,10.));
#417=CARTESIAN_POINT('Origin',(0.,0.,10.));
#418=CARTESIAN_POINT('Origin',(0.,0.,32.));
#419=CARTESIAN_POINT('',(-40.,-4.89858719658941E-15,32.));
#420=CARTESIAN_POINT('Origin',(0.,0.,32.));
#421=CARTESIAN_POINT('Origin',(0.,0.,0.));
#422=CARTESIAN_POINT('',(-43.,-5.26598123633362E-15,35.));
#423=CARTESIAN_POINT('Origin',(0.,0.,35.));
#424=CARTESIAN_POINT('',(-43.,5.26598123633362E-15,3.));
#425=CARTESIAN_POINT('',(-43.,-5.26598123633362E-15,0.));
#426=CARTESIAN_POINT('Origin',(0.,0.,3.));
#427=CARTESIAN_POINT('Origin',(0.,0.,35.));
#428=CARTESIAN_POINT('Origin',(0.,0.,0.));
#429=CARTESIAN_POINT('',(-40.,-4.89858719658941E-15,0.));
#430=CARTESIAN_POINT('',(-40.,-4.89858719658941E-15,0.));
#431=CARTESIAN_POINT('Origin',(0.,0.,0.));
#432=CARTESIAN_POINT('Origin',(0.,0.,0.));
#433=CARTESIAN_POINT('',(-48.,-5.8783046359073E-15,0.));
#434=CARTESIAN_POINT('',(-48.,-5.8783046359073E-15,0.));
#435=CARTESIAN_POINT('Origin',(0.,0.,0.));
#436=CARTESIAN_POINT('Origin',(0.,0.,3.));
#437=CARTESIAN_POINT('Origin',(0.,0.,0.));
#438=UNCERTAINTY_MEASURE_WITH_UNIT(LENGTH_MEASURE(0.01),#442,
'DISTANCE_ACCURACY_VALUE',
'Maximum model space distance between geometric entities at asserted c
onnectivities');
#439=UNCERTAINTY_MEASURE_WITH_UNIT(LENGTH_MEASURE(0.01),#442,
'DISTANCE_ACCURACY_VALUE',
'Maximum model space distance between geometric entities at asserted c
onnectivities');
#440=(
GEOMETRIC_REPRESENTATION_CONTEXT(3)
GLOBAL_UNCERTAINTY_ASSIGNED_CONTEXT((#438))
GLOBAL_UNIT_ASSIGNED_CONTEXT((#442,#444,#445))
REPRESENTATION_CONTEXT('','3D')
);
#441=(
GEOMETRIC_REPRESENTATION_CONTEXT(3)
GLOBAL_UNCERTAINTY_ASSIGNED_CONTEXT((#439))
GLOBAL_UNIT_ASSIGNED_CONTEXT((#442,#444,#445))
REPRESENTATION_CONTEXT('','3D')
);
#442=(
LENGTH_UNIT()
NAMED_UNIT(*)
SI_UNIT(.MILLI.,.METRE.)
);
#443=(
LENGTH_UNIT()
NAMED_UNIT(*)
SI_UNIT($,.METRE.)
);
#444=(
NAMED_UNIT(*)
PLANE_ANGLE_UNIT()
SI_UNIT($,.RADIAN.)
);
#445=(
NAMED_UNIT(*)
SI_UNIT($,.STERADIAN.)
SOLID_ANGLE_UNIT()
);
#446=SHAPE_DEFINITION_REPRESENTATION(#447,#448);
#447=PRODUCT_DEFINITION_SHAPE('',$,#450);
#448=SHAPE_REPRESENTATION('',(#259),#440);
#449=PRODUCT_DEFINITION_CONTEXT('part definition',#454,'design');
#450=PRODUCT_DEFINITION('A-components2','A-components2 v2',#451,#449);
#451=PRODUCT_DEFINITION_FORMATION('',$,#456);
#452=PRODUCT_RELATED_PRODUCT_CATEGORY('A-components2 v2',
'A-components2 v2',(#456));
#453=APPLICATION_PROTOCOL_DEFINITION('international standard',
'automotive_design',2009,#454);
#454=APPLICATION_CONTEXT(
'Core Data for Automotive Mechanical Design Process');
#455=PRODUCT_CONTEXT('part definition',#454,'mechanical');
#456=PRODUCT('A-components2','A-components2 v2',$,(#455));
#457=PRESENTATION_STYLE_ASSIGNMENT((#458));
#458=SURFACE_STYLE_USAGE(.BOTH.,#459);
#459=SURFACE_SIDE_STYLE('',(#460));
#460=SURFACE_STYLE_FILL_AREA(#461);
#461=FILL_AREA_STYLE('\X2\94A2\X0\ - \X2\7F0E5149\X0\',(#462));
#462=FILL_AREA_STYLE_COLOUR('\X2\94A2\X0\ - \X2\7F0E5149\X0\',#463);
#463=COLOUR_RGB('\X2\94A2\X0\ - \X2\7F0E5149\X0\',0.627450980392157,0.627450980392157,
0.627450980392157);
ENDSEC;
END-ISO-10303-21;
