ISO-10303-21;
HEADER;
/* Generated by software containing ST-Developer
 * from STEP Tools, Inc. (www.steptools.com) 
 */
/* OPTION: using custom renumber hook */

FILE_DESCRIPTION(
/* description */ ('STEP AP242',
'CAx-IF Rec.Pracs.---Representation and Presentation of Product Manufa
cturing Information (PMI)---4.0---2014-10-13',
'CAx-IF Rec.Pracs.---3D Tessellated Geometry---0.4---2014-09-14','2;1'),

/* implementation_level */ '2;1');

FILE_NAME(
/* name */ '65cc467f0508fa33d69e740f',
/* time_stamp */ '2024-02-14T04:50:07Z',
/* author */ (''),
/* organization */ (''),
/* preprocessor_version */ 'ST-DEVELOPER v19.4',
/* originating_system */ '  ',
/* authorisation */ '  ');

FILE_SCHEMA (('AP242_MANAGED_MODEL_BASED_3D_ENGINEERING_MIM_LF { 1 0 10303 442 1 1 4 }'));
ENDSEC;

DATA;
#10=SHAPE_REPRESENTATION_RELATIONSHIP('','',#183,#11);
#11=ADVANCED_BREP_SHAPE_REPRESENTATION('',(#181),#325);
#12=PLANE('',#209);
#13=PLANE('',#210);
#14=LINE('',#278,#22);
#15=LINE('',#282,#23);
#16=LINE('',#286,#24);
#17=LINE('',#292,#25);
#18=LINE('',#298,#26);
#19=LINE('',#304,#27);
#20=LINE('',#310,#28);
#21=LINE('',#316,#29);
#22=VECTOR('',#217,1.);
#23=VECTOR('',#220,1.);
#24=VECTOR('',#225,1.);
#25=VECTOR('',#232,1.);
#26=VECTOR('',#239,1.);
#27=VECTOR('',#246,1.);
#28=VECTOR('',#253,1.);
#29=VECTOR('',#260,1.);
#30=ORIENTED_EDGE('',*,*,#78,.T.);
#31=ORIENTED_EDGE('',*,*,#79,.F.);
#32=ORIENTED_EDGE('',*,*,#80,.F.);
#33=ORIENTED_EDGE('',*,*,#81,.T.);
#34=ORIENTED_EDGE('',*,*,#82,.T.);
#35=ORIENTED_EDGE('',*,*,#83,.F.);
#36=ORIENTED_EDGE('',*,*,#84,.F.);
#37=ORIENTED_EDGE('',*,*,#79,.T.);
#38=ORIENTED_EDGE('',*,*,#85,.F.);
#39=ORIENTED_EDGE('',*,*,#86,.F.);
#40=ORIENTED_EDGE('',*,*,#87,.T.);
#41=ORIENTED_EDGE('',*,*,#83,.T.);
#42=ORIENTED_EDGE('',*,*,#88,.T.);
#43=ORIENTED_EDGE('',*,*,#89,.F.);
#44=ORIENTED_EDGE('',*,*,#90,.F.);
#45=ORIENTED_EDGE('',*,*,#86,.T.);
#46=ORIENTED_EDGE('',*,*,#91,.T.);
#47=ORIENTED_EDGE('',*,*,#92,.F.);
#48=ORIENTED_EDGE('',*,*,#93,.F.);
#49=ORIENTED_EDGE('',*,*,#89,.T.);
#50=ORIENTED_EDGE('',*,*,#94,.T.);
#51=ORIENTED_EDGE('',*,*,#95,.F.);
#52=ORIENTED_EDGE('',*,*,#96,.F.);
#53=ORIENTED_EDGE('',*,*,#92,.T.);
#54=ORIENTED_EDGE('',*,*,#97,.F.);
#55=ORIENTED_EDGE('',*,*,#98,.F.);
#56=ORIENTED_EDGE('',*,*,#99,.T.);
#57=ORIENTED_EDGE('',*,*,#95,.T.);
#58=ORIENTED_EDGE('',*,*,#100,.T.);
#59=ORIENTED_EDGE('',*,*,#81,.F.);
#60=ORIENTED_EDGE('',*,*,#101,.F.);
#61=ORIENTED_EDGE('',*,*,#98,.T.);
#62=ORIENTED_EDGE('',*,*,#80,.T.);
#63=ORIENTED_EDGE('',*,*,#84,.T.);
#64=ORIENTED_EDGE('',*,*,#87,.F.);
#65=ORIENTED_EDGE('',*,*,#90,.T.);
#66=ORIENTED_EDGE('',*,*,#93,.T.);
#67=ORIENTED_EDGE('',*,*,#96,.T.);
#68=ORIENTED_EDGE('',*,*,#99,.F.);
#69=ORIENTED_EDGE('',*,*,#101,.T.);
#70=ORIENTED_EDGE('',*,*,#78,.F.);
#71=ORIENTED_EDGE('',*,*,#100,.F.);
#72=ORIENTED_EDGE('',*,*,#97,.T.);
#73=ORIENTED_EDGE('',*,*,#94,.F.);
#74=ORIENTED_EDGE('',*,*,#91,.F.);
#75=ORIENTED_EDGE('',*,*,#88,.F.);
#76=ORIENTED_EDGE('',*,*,#85,.T.);
#77=ORIENTED_EDGE('',*,*,#82,.F.);
#78=EDGE_CURVE('',#102,#103,#118,.T.);
#79=EDGE_CURVE('',#104,#103,#14,.T.);
#80=EDGE_CURVE('',#105,#104,#119,.T.);
#81=EDGE_CURVE('',#105,#102,#15,.T.);
#82=EDGE_CURVE('',#103,#106,#120,.T.);
#83=EDGE_CURVE('',#107,#106,#16,.T.);
#84=EDGE_CURVE('',#104,#107,#121,.T.);
#85=EDGE_CURVE('',#108,#106,#122,.T.);
#86=EDGE_CURVE('',#109,#108,#17,.T.);
#87=EDGE_CURVE('',#109,#107,#123,.T.);
#88=EDGE_CURVE('',#108,#110,#124,.T.);
#89=EDGE_CURVE('',#111,#110,#18,.T.);
#90=EDGE_CURVE('',#109,#111,#125,.T.);
#91=EDGE_CURVE('',#110,#112,#126,.T.);
#92=EDGE_CURVE('',#113,#112,#19,.T.);
#93=EDGE_CURVE('',#111,#113,#127,.T.);
#94=EDGE_CURVE('',#112,#114,#128,.T.);
#95=EDGE_CURVE('',#115,#114,#20,.T.);
#96=EDGE_CURVE('',#113,#115,#129,.T.);
#97=EDGE_CURVE('',#116,#114,#130,.T.);
#98=EDGE_CURVE('',#117,#116,#21,.T.);
#99=EDGE_CURVE('',#117,#115,#131,.T.);
#100=EDGE_CURVE('',#116,#102,#132,.T.);
#101=EDGE_CURVE('',#117,#105,#133,.T.);
#102=VERTEX_POINT('',#276);
#103=VERTEX_POINT('',#277);
#104=VERTEX_POINT('',#279);
#105=VERTEX_POINT('',#281);
#106=VERTEX_POINT('',#285);
#107=VERTEX_POINT('',#287);
#108=VERTEX_POINT('',#291);
#109=VERTEX_POINT('',#293);
#110=VERTEX_POINT('',#297);
#111=VERTEX_POINT('',#299);
#112=VERTEX_POINT('',#303);
#113=VERTEX_POINT('',#305);
#114=VERTEX_POINT('',#309);
#115=VERTEX_POINT('',#311);
#116=VERTEX_POINT('',#315);
#117=VERTEX_POINT('',#317);
#118=CIRCLE('',#186,0.05);
#119=CIRCLE('',#187,0.05);
#120=CIRCLE('',#189,0.006);
#121=CIRCLE('',#190,0.006);
#122=CIRCLE('',#192,0.0225);
#123=CIRCLE('',#193,0.0225);
#124=CIRCLE('',#195,0.006);
#125=CIRCLE('',#196,0.006);
#126=CIRCLE('',#198,0.05);
#127=CIRCLE('',#199,0.05);
#128=CIRCLE('',#201,0.006);
#129=CIRCLE('',#202,0.006);
#130=CIRCLE('',#204,0.0225);
#131=CIRCLE('',#205,0.0225);
#132=CIRCLE('',#207,0.006);
#133=CIRCLE('',#208,0.006);
#134=EDGE_LOOP('',(#30,#31,#32,#33));
#135=EDGE_LOOP('',(#34,#35,#36,#37));
#136=EDGE_LOOP('',(#38,#39,#40,#41));
#137=EDGE_LOOP('',(#42,#43,#44,#45));
#138=EDGE_LOOP('',(#46,#47,#48,#49));
#139=EDGE_LOOP('',(#50,#51,#52,#53));
#140=EDGE_LOOP('',(#54,#55,#56,#57));
#141=EDGE_LOOP('',(#58,#59,#60,#61));
#142=EDGE_LOOP('',(#62,#63,#64,#65,#66,#67,#68,#69));
#143=EDGE_LOOP('',(#70,#71,#72,#73,#74,#75,#76,#77));
#144=FACE_BOUND('',#134,.T.);
#145=FACE_BOUND('',#135,.T.);
#146=FACE_BOUND('',#136,.T.);
#147=FACE_BOUND('',#137,.T.);
#148=FACE_BOUND('',#138,.T.);
#149=FACE_BOUND('',#139,.T.);
#150=FACE_BOUND('',#140,.T.);
#151=FACE_BOUND('',#141,.T.);
#152=FACE_BOUND('',#142,.T.);
#153=FACE_BOUND('',#143,.T.);
#154=CYLINDRICAL_SURFACE('',#185,0.05);
#155=CYLINDRICAL_SURFACE('',#188,0.006);
#156=CYLINDRICAL_SURFACE('',#191,0.0225);
#157=CYLINDRICAL_SURFACE('',#194,0.006);
#158=CYLINDRICAL_SURFACE('',#197,0.05);
#159=CYLINDRICAL_SURFACE('',#200,0.006);
#160=CYLINDRICAL_SURFACE('',#203,0.0225);
#161=CYLINDRICAL_SURFACE('',#206,0.006);
#162=ADVANCED_FACE('',(#144),#154,.T.);
#163=ADVANCED_FACE('',(#145),#155,.T.);
#164=ADVANCED_FACE('',(#146),#156,.F.);
#165=ADVANCED_FACE('',(#147),#157,.T.);
#166=ADVANCED_FACE('',(#148),#158,.T.);
#167=ADVANCED_FACE('',(#149),#159,.T.);
#168=ADVANCED_FACE('',(#150),#160,.F.);
#169=ADVANCED_FACE('',(#151),#161,.T.);
#170=ADVANCED_FACE('',(#152),#12,.T.);
#171=ADVANCED_FACE('',(#153),#13,.F.);
#172=CLOSED_SHELL('',(#162,#163,#164,#165,#166,#167,#168,#169,#170,#171));
#173=STYLED_ITEM('',(#174),#181);
#174=PRESENTATION_STYLE_ASSIGNMENT((#175));
#175=SURFACE_STYLE_USAGE(.BOTH.,#176);
#176=SURFACE_SIDE_STYLE('',(#177));
#177=SURFACE_STYLE_FILL_AREA(#178);
#178=FILL_AREA_STYLE('',(#179));
#179=FILL_AREA_STYLE_COLOUR('',#180);
#180=COLOUR_RGB('',0.615686274509804,0.811764705882353,0.929411764705882);
#181=MANIFOLD_SOLID_BREP('Part 1',#172);
#182=SHAPE_DEFINITION_REPRESENTATION(#330,#183);
#183=SHAPE_REPRESENTATION('Part 1',(#184),#325);
#184=AXIS2_PLACEMENT_3D('',#273,#211,#212);
#185=AXIS2_PLACEMENT_3D('',#274,#213,#214);
#186=AXIS2_PLACEMENT_3D('',#275,#215,#216);
#187=AXIS2_PLACEMENT_3D('',#280,#218,#219);
#188=AXIS2_PLACEMENT_3D('',#283,#221,#222);
#189=AXIS2_PLACEMENT_3D('',#284,#223,#224);
#190=AXIS2_PLACEMENT_3D('',#288,#226,#227);
#191=AXIS2_PLACEMENT_3D('',#289,#228,#229);
#192=AXIS2_PLACEMENT_3D('',#290,#230,#231);
#193=AXIS2_PLACEMENT_3D('',#294,#233,#234);
#194=AXIS2_PLACEMENT_3D('',#295,#235,#236);
#195=AXIS2_PLACEMENT_3D('',#296,#237,#238);
#196=AXIS2_PLACEMENT_3D('',#300,#240,#241);
#197=AXIS2_PLACEMENT_3D('',#301,#242,#243);
#198=AXIS2_PLACEMENT_3D('',#302,#244,#245);
#199=AXIS2_PLACEMENT_3D('',#306,#247,#248);
#200=AXIS2_PLACEMENT_3D('',#307,#249,#250);
#201=AXIS2_PLACEMENT_3D('',#308,#251,#252);
#202=AXIS2_PLACEMENT_3D('',#312,#254,#255);
#203=AXIS2_PLACEMENT_3D('',#313,#256,#257);
#204=AXIS2_PLACEMENT_3D('',#314,#258,#259);
#205=AXIS2_PLACEMENT_3D('',#318,#261,#262);
#206=AXIS2_PLACEMENT_3D('',#319,#263,#264);
#207=AXIS2_PLACEMENT_3D('',#320,#265,#266);
#208=AXIS2_PLACEMENT_3D('',#321,#267,#268);
#209=AXIS2_PLACEMENT_3D('',#322,#269,#270);
#210=AXIS2_PLACEMENT_3D('',#323,#271,#272);
#211=DIRECTION('',(0.,0.,1.));
#212=DIRECTION('',(1.,0.,0.));
#213=DIRECTION('',(0.,0.,-1.));
#214=DIRECTION('',(-1.,0.,0.));
#215=DIRECTION('',(0.,0.,1.));
#216=DIRECTION('',(1.,0.,0.));
#217=DIRECTION('',(0.,0.,-1.));
#218=DIRECTION('',(0.,0.,1.));
#219=DIRECTION('',(1.,0.,0.));
#220=DIRECTION('',(0.,0.,-1.));
#221=DIRECTION('',(0.,0.,-1.));
#222=DIRECTION('',(-1.,0.,0.));
#223=DIRECTION('',(0.,0.,1.));
#224=DIRECTION('',(1.,0.,0.));
#225=DIRECTION('',(0.,0.,-1.));
#226=DIRECTION('',(0.,0.,1.));
#227=DIRECTION('',(1.,0.,0.));
#228=DIRECTION('',(0.,0.,-1.));
#229=DIRECTION('',(-1.,0.,0.));
#230=DIRECTION('',(0.,0.,1.));
#231=DIRECTION('',(1.,0.,0.));
#232=DIRECTION('',(0.,0.,-1.));
#233=DIRECTION('',(0.,0.,1.));
#234=DIRECTION('',(1.,0.,0.));
#235=DIRECTION('',(0.,0.,-1.));
#236=DIRECTION('',(-1.,0.,0.));
#237=DIRECTION('',(0.,0.,1.));
#238=DIRECTION('',(1.,0.,0.));
#239=DIRECTION('',(0.,0.,-1.));
#240=DIRECTION('',(0.,0.,1.));
#241=DIRECTION('',(1.,0.,0.));
#242=DIRECTION('',(0.,0.,-1.));
#243=DIRECTION('',(-1.,0.,0.));
#244=DIRECTION('',(0.,0.,1.));
#245=DIRECTION('',(1.,0.,0.));
#246=DIRECTION('',(0.,0.,-1.));
#247=DIRECTION('',(0.,0.,1.));
#248=DIRECTION('',(1.,0.,0.));
#249=DIRECTION('',(0.,0.,-1.));
#250=DIRECTION('',(-1.,0.,0.));
#251=DIRECTION('',(0.,0.,1.));
#252=DIRECTION('',(1.,0.,0.));
#253=DIRECTION('',(0.,0.,-1.));
#254=DIRECTION('',(0.,0.,1.));
#255=DIRECTION('',(1.,0.,0.));
#256=DIRECTION('',(0.,0.,-1.));
#257=DIRECTION('',(-1.,0.,0.));
#258=DIRECTION('',(0.,0.,1.));
#259=DIRECTION('',(1.,0.,0.));
#260=DIRECTION('',(0.,0.,-1.));
#261=DIRECTION('',(0.,0.,1.));
#262=DIRECTION('',(1.,0.,0.));
#263=DIRECTION('',(0.,0.,-1.));
#264=DIRECTION('',(-1.,0.,0.));
#265=DIRECTION('',(0.,0.,1.));
#266=DIRECTION('',(1.,0.,0.));
#267=DIRECTION('',(0.,0.,1.));
#268=DIRECTION('',(1.,0.,0.));
#269=DIRECTION('',(0.,0.,1.));
#270=DIRECTION('',(1.,0.,0.));
#271=DIRECTION('',(0.,0.,1.));
#272=DIRECTION('',(1.,0.,0.));
#273=CARTESIAN_POINT('',(0.,0.,0.));
#274=CARTESIAN_POINT('',(-0.0979659773876012,-0.0475,0.001));
#275=CARTESIAN_POINT('',(-0.0979659773876012,-0.0475,0.));
#276=CARTESIAN_POINT('',(-0.05566596423462,-0.0741591239026644,0.));
#277=CARTESIAN_POINT('',(-0.0556659642346199,-0.0208408760973356,0.));
#278=CARTESIAN_POINT('',(-0.0556659642346199,-0.0208408760973356,0.001));
#279=CARTESIAN_POINT('',(-0.0556659642346199,-0.0208408760973356,0.001));
#280=CARTESIAN_POINT('',(-0.0979659773876012,-0.0475,0.001));
#281=CARTESIAN_POINT('',(-0.05566596423462,-0.0741591239026644,0.001));
#282=CARTESIAN_POINT('',(-0.05566596423462,-0.0741591239026644,0.001));
#283=CARTESIAN_POINT('',(-0.0607419658129777,-0.0240399709656553,0.001));
#284=CARTESIAN_POINT('',(-0.0607419658129777,-0.0240399709656553,0.));
#285=CARTESIAN_POINT('',(-0.0639646678053521,-0.01897892444657,0.));
#286=CARTESIAN_POINT('',(-0.0639646678053521,-0.01897892444657,0.001));
#287=CARTESIAN_POINT('',(-0.0639646678053521,-0.01897892444657,0.001));
#288=CARTESIAN_POINT('',(-0.0607419658129777,-0.0240399709656553,0.001));
#289=CARTESIAN_POINT('',(-0.0760498002767563,3.29597460435593E-17,0.001));
#290=CARTESIAN_POINT('',(-0.0760498002767563,3.29597460435593E-17,0.));
#291=CARTESIAN_POINT('',(-0.0881349327481604,-0.01897892444657,0.));
#292=CARTESIAN_POINT('',(-0.0881349327481604,-0.01897892444657,0.001));
#293=CARTESIAN_POINT('',(-0.0881349327481604,-0.01897892444657,0.001));
#294=CARTESIAN_POINT('',(-0.0760498002767563,3.29597460435593E-17,0.001));
#295=CARTESIAN_POINT('',(-0.0913576347405348,-0.0240399709656553,0.001));
#296=CARTESIAN_POINT('',(-0.0913576347405348,-0.0240399709656553,0.));
#297=CARTESIAN_POINT('',(-0.0964336363188926,-0.0208408760973356,0.));
#298=CARTESIAN_POINT('',(-0.0964336363188926,-0.0208408760973356,0.001));
#299=CARTESIAN_POINT('',(-0.0964336363188926,-0.0208408760973356,0.001));
#300=CARTESIAN_POINT('',(-0.0913576347405348,-0.0240399709656553,0.001));
#301=CARTESIAN_POINT('',(-0.0541336231659114,-0.0475,0.001));
#302=CARTESIAN_POINT('',(-0.0541336231659114,-0.0475,0.));
#303=CARTESIAN_POINT('',(-0.0964336363188927,-0.0741591239026644,0.));
#304=CARTESIAN_POINT('',(-0.0964336363188927,-0.0741591239026644,0.001));
#305=CARTESIAN_POINT('',(-0.0964336363188927,-0.0741591239026644,0.001));
#306=CARTESIAN_POINT('',(-0.0541336231659114,-0.0475,0.001));
#307=CARTESIAN_POINT('',(-0.0913576347405349,-0.0709600290343447,0.001));
#308=CARTESIAN_POINT('',(-0.0913576347405349,-0.0709600290343447,0.));
#309=CARTESIAN_POINT('',(-0.0881349327481605,-0.07602107555343,0.));
#310=CARTESIAN_POINT('',(-0.0881349327481605,-0.07602107555343,0.001));
#311=CARTESIAN_POINT('',(-0.0881349327481605,-0.07602107555343,0.001));
#312=CARTESIAN_POINT('',(-0.0913576347405349,-0.0709600290343447,0.001));
#313=CARTESIAN_POINT('',(-0.0760498002767563,-0.095,0.001));
#314=CARTESIAN_POINT('',(-0.0760498002767563,-0.095,0.));
#315=CARTESIAN_POINT('',(-0.0639646678053521,-0.07602107555343,0.));
#316=CARTESIAN_POINT('',(-0.0639646678053521,-0.07602107555343,0.001));
#317=CARTESIAN_POINT('',(-0.0639646678053521,-0.07602107555343,0.001));
#318=CARTESIAN_POINT('',(-0.0760498002767563,-0.095,0.001));
#319=CARTESIAN_POINT('',(-0.0607419658129777,-0.0709600290343447,0.001));
#320=CARTESIAN_POINT('',(-0.0607419658129777,-0.0709600290343447,0.));
#321=CARTESIAN_POINT('',(-0.0607419658129777,-0.0709600290343447,0.001));
#322=CARTESIAN_POINT('',(-0.0760498002767563,-0.0475,0.001));
#323=CARTESIAN_POINT('',(-0.0760498002767563,-0.0475,0.));
#324=MECHANICAL_DESIGN_GEOMETRIC_PRESENTATION_REPRESENTATION('',(#173),
#325);
#325=(
GEOMETRIC_REPRESENTATION_CONTEXT(3)
GLOBAL_UNCERTAINTY_ASSIGNED_CONTEXT((#326))
GLOBAL_UNIT_ASSIGNED_CONTEXT((#329,#328,#327))
REPRESENTATION_CONTEXT('Part 1','TOP_LEVEL_ASSEMBLY_PART')
);
#326=UNCERTAINTY_MEASURE_WITH_UNIT(LENGTH_MEASURE(5.E-6),#329,
'DISTANCE_ACCURACY_VALUE','Maximum Tolerance applied to model');
#327=(
NAMED_UNIT(*)
SI_UNIT($,.STERADIAN.)
SOLID_ANGLE_UNIT()
);
#328=(
NAMED_UNIT(*)
PLANE_ANGLE_UNIT()
SI_UNIT($,.RADIAN.)
);
#329=(
LENGTH_UNIT()
NAMED_UNIT(*)
SI_UNIT($,.METRE.)
);
#330=PRODUCT_DEFINITION_SHAPE('','',#331);
#331=PRODUCT_DEFINITION('','',#333,#332);
#332=PRODUCT_DEFINITION_CONTEXT('',#339,'design');
#333=PRODUCT_DEFINITION_FORMATION_WITH_SPECIFIED_SOURCE('','',#335,
 .NOT_KNOWN.);
#334=PRODUCT_RELATED_PRODUCT_CATEGORY('','',(#335));
#335=PRODUCT('Part 1','Part 1','Part 1',(#337));
#336=PRODUCT_CATEGORY('','');
#337=PRODUCT_CONTEXT('',#339,'mechanical');
#338=APPLICATION_PROTOCOL_DEFINITION('international standard',
'ap242_managed_model_based_3d_engineering',2011,#339);
#339=APPLICATION_CONTEXT('managed model based 3d engineering');
ENDSEC;
END-ISO-10303-21;
