0
SECTION
2
HEADER
9
$INSUNITS
70
4
9
$ACADVER
1
AC1014
9
$HANDSEED
5
FFFF
0
ENDSEC
0
SECTION
2
TABLES
0
TABLE
2
VPORT
5
8
100
AcDbSymbolTable
0
ENDTAB
0
TABLE
2
LTYPE
5
5
100
AcDbSymbolTable
0
LTYPE
5
14
100
AcDbSymbolTableRecord
100
AcDbLinetypeTableRecord
2
BYBLOCK
70
0
0
LTYPE
5
15
100
AcDbSymbolTableRecord
100
AcDbLinetypeTableRecord
2
BYLAYER
70
0
0
ENDTAB
0
TABLE
2
LAYER
5
2
100
AcDbSymbolTable
70
2
0
LAYER
5
50
100
AcDbSymbolTableRecord
100
AcDbLayerTableRecord
2
0
70
0
6
CONTINUOUS
0
ENDTAB
0
TABLE
2
STYLE
5
3
100
AcDbSymbolTable
70
1
0
STYLE
5
11
100
AcDbSymbolTableRecord
100
AcDbTextStyleTableRecord
2
STANDARD
70
0
0
ENDTAB
0
TABLE
2
VIEW
5
6
100
AcDbSymbolTable
70
0
0
ENDTAB
0
TABLE
2
UCS
5
7
100
AcDbSymbolTable
70
0
0
ENDTAB
0
TABLE
2
APPID
5
9
100
AcDbSymbolTable
70
2
0
APPID
5
12
100
AcDbSymbolTableRecord
100
AcDbRegAppTableRecord
2
ACAD
70
0
0
ENDTAB
0
TABLE
2
DIMSTYLE
5
A
100
AcDbSymbolTable
70
1
0
ENDTAB
0
TABLE
2
BLOCK_RECORD
5
1
100
AcDbSymbolTable
70
1
0
BLOCK_RECORD
5
1F
100
AcDbSymbolTableRecord
100
AcDbBlockTableRecord
2
*MODEL_SPACE
0
BLOCK_RECORD
5
1B
100
AcDbSymbolTableRecord
100
AcDbBlockTableRecord
2
*PAPER_SPACE
0
ENDTAB
0
ENDSEC
0
SECTION
2
BLOCKS
0
BLOCK
5
20
100
AcDbEntity
100
AcDbBlockBegin
2
*MODEL_SPACE
0
ENDBLK
5
21
100
AcDbEntity
100
AcDbBlockEnd
0
BLOCK
5
1C
100
AcDbEntity
100
AcDbBlockBegin
2
*PAPER_SPACE
0
ENDBLK
5
1D
100
AcDbEntity
100
AcDbBlockEnd
0
ENDSEC
0
SECTION
2
ENTITIES
0
LINE
5
100
100
AcDbEntity
8
0
100
AcDbLine
10
-175.13476495444766
20
211.36386443376546
30
0
11
-181.99599127491962
21
211.36386443376546
31
0
0
SPLINE
5
101
100
AcDbEntity
8
0
100
AcDbSpline
70
4
71
5
72
19
73
13
74
0
42
0.000000001
43
0.0000000001
44
0.0000000001
40
0.14139112021697625
40
0.14139112021697625
40
0.14139112021697625
40
0.14139112021697625
40
0.14139112021697625
40
0.14139112021697625
40
0.20000000000000001
40
0.30000000000000004
40
0.40000000000000002
40
0.5
40
0.59999999999999998
40
0.69999999999999996
40
0.79999999999999993
40
0.85205273346033683
40
0.85205273346033683
40
0.85205273346033683
40
0.85205273346033683
40
0.85205273346033683
40
0.85205273346033683
41
1
41
1
41
1
41
1
41
1
41
1
41
1
41
1
41
1
41
1
41
1
41
1
41
1
10
-180.77729781791538
20
251.16386443376541
30
0
10
-180.40087839672481
20
250.50162475409448
30
0
10
-179.42104885996002
20
248.7100198849086
30
0
10
-177.99689560160064
20
245.79136541461989
30
0
10
-176.42874704374108
20
241.75003278566726
30
0
10
-175.19887844302954
20
236.59304177496659
30
0
10
-174.8769065490427
20
230.9854441536832
30
0
10
-175.61291594985823
20
225.3932460217369
30
0
10
-177.19458691865361
20
220.35064549906767
30
0
10
-179.00631270296316
20
216.43197577781518
30
0
10
-180.58001187851804
20
213.63042367995877
30
0
10
-181.62648819409966
20
211.94177979781657
30
0
10
-181.99599127491229
20
211.36386443377685
30
0
0
LINE
5
102
100
AcDbEntity
8
0
100
AcDbLine
10
-180.77729781791538
20
251.16386443376541
30
0
11
-175.13476495444763
21
251.16386443376541
31
0
0
LINE
5
103
100
AcDbEntity
8
0
100
AcDbLine
10
-175.13476495444763
20
251.16386443376541
30
0
11
-175.13476495444766
21
254.3638644337654
31
0
0
LINE
5
104
100
AcDbEntity
8
0
100
AcDbLine
10
-175.13476495444766
20
254.3638644337654
30
0
11
-182.72759654976429
21
254.3638644337654
31
0
0
SPLINE
5
105
100
AcDbEntity
8
0
100
AcDbSpline
70
4
71
5
72
12
73
6
74
0
42
0.000000001
43
0.0000000001
44
0.0000000001
40
0
40
0
40
0
40
0
40
0
40
0
40
0.084784612185934416
40
0.084784612185934416
40
0.084784612185934416
40
0.084784612185934416
40
0.084784612185934416
40
0.084784612185934416
41
1
41
1
41
1
41
1
41
1
41
1
10
-186.13476556539536
20
259.16386410593987
30
0
10
-185.39577083525893
20
258.20302634107099
30
0
10
-184.6854732467757
20
257.24260627860264
30
0
10
-184.00387217400922
20
256.28260390942404
30
0
10
-183.35113835479615
20
255.3230217187166
30
0
10
-182.72759654962076
20
254.36386443354462
30
0
0
LINE
5
106
100
AcDbEntity
8
0
100
AcDbLine
10
-186.13476556539536
20
259.16386410593987
30
0
11
-165.13476555049419
21
259.16386410593987
31
0
0
SPLINE
5
107
100
AcDbEntity
8
0
100
AcDbSpline
70
0
71
3
72
12
73
8
74
0
42
0.000000001
43
0.0000000001
44
0.0000000001
40
0
40
0
40
0
40
0
40
2.4759452321929962
40
2.4759452321929962
40
4.5246601881566004
40
4.5246601881566004
40
7.3558492104958724
40
7.3558492104958724
40
7.3558492104958724
40
7.3558492104958724
10
-167.13476498425007
20
203.16386371850967
30
0
10
-162.63676771219019
20
210.08358323873108
30
0
10
-159.57178114975025
20
216.8684315395866
30
0
10
-156.8819336125529
20
229.11355588213294
30
0
10
-156.79751203902865
20
234.50877421385877
30
0
10
-159.22723098925044
20
247.78422526707652
30
0
10
-162.49114157639755
20
254.51817801825109
30
0
10
-165.13476555049414
20
259.16386410593987
30
0
0
LINE
5
108
100
AcDbEntity
8
0
100
AcDbLine
10
-167.13476498425007
20
203.16386371850967
30
0
11
-188.13476529717445
21
203.16386371850967
31
0
0
SPLINE
5
109
100
AcDbEntity
8
0
100
AcDbSpline
70
4
71
5
72
12
73
6
74
0
42
0.000000001
43
0.0000000001
44
0.0000000001
40
0.90973326567873558
40
0.90973326567873558
40
0.90973326567873558
40
0.90973326567873558
40
0.90973326567873558
40
0.90973326567873558
40
1
40
1
40
1
40
1
40
1
40
1
41
1
41
1
41
1
41
1
41
1
41
1
10
-184.17996853531696
20
208.16386443376547
30
0
10
-184.90588190842197
20
207.1629175113431
30
0
10
-185.66463195569952
20
206.16244854445426
30
0
10
-186.45580457810502
20
205.16245150566365
30
0
10
-187.27918201600608
20
204.16292322536219
30
0
10
-188.13476529717445
20
203.16386371850967
30
0
0
LINE
5
110
100
AcDbEntity
8
0
100
AcDbLine
10
-184.17996853531696
20
208.16386443376547
30
0
11
-175.13476495444766
21
208.16386443376547
31
0
0
LINE
5
111
100
AcDbEntity
8
0
100
AcDbLine
10
-175.13476495444766
20
208.16386443376547
30
0
11
-175.13476495444766
21
211.36386443376546
31
0
0
LINE
5
112
100
AcDbEntity
8
0
100
AcDbLine
10
-133.13882513344296
20
245.56704376935954
30
0
11
-126.27759881297102
21
245.56704376935954
31
0
0
SPLINE
5
113
100
AcDbEntity
8
0
100
AcDbSpline
70
4
71
5
72
19
73
13
74
0
42
0.000000001
43
0.0000000001
44
0.0000000001
40
0.14139112021697625
40
0.14139112021697625
40
0.14139112021697625
40
0.14139112021697625
40
0.14139112021697625
40
0.14139112021697625
40
0.20000000000000001
40
0.30000000000000004
40
0.40000000000000002
40
0.5
40
0.59999999999999998
40
0.69999999999999996
40
0.79999999999999993
40
0.85205273346033683
40
0.85205273346033683
40
0.85205273346033683
40
0.85205273346033683
40
0.85205273346033683
40
0.85205273346033683
41
1
41
1
41
1
41
1
41
1
41
1
41
1
41
1
41
1
41
1
41
1
41
1
41
1
10
-127.4962922699752
20
205.76704376935953
30
0
10
-127.87271169116582
20
206.42928344903049
30
0
10
-128.8525412279306
20
208.2208883182164
30
0
10
-130.27669448628998
20
211.13954278850511
30
0
10
-131.84484304414951
20
215.18087541745768
30
0
10
-133.07471164486111
20
220.33786642815838
30
0
10
-133.39668353884792
20
225.94546404944174
30
0
10
-132.66067413803239
20
231.53766218138804
30
0
10
-131.07900316923701
20
236.58026270405728
30
0
10
-129.26727738492747
20
240.49893242530976
30
0
10
-127.69357820937257
20
243.3004845231662
30
0
10
-126.64710189379099
20
244.98912840530838
30
0
10
-126.27759881297833
20
245.56704376934812
30
0
0
LINE
5
114
100
AcDbEntity
8
0
100
AcDbLine
10
-127.4962922699752
20
205.76704376935953
30
0
11
-133.13882513344294
21
205.7670437693595
31
0
0
LINE
5
115
100
AcDbEntity
8
0
100
AcDbLine
10
-133.13882513344294
20
205.7670437693595
30
0
11
-133.13882513344294
21
202.56704376935954
31
0
0
LINE
5
116
100
AcDbEntity
8
0
100
AcDbLine
10
-133.13882513344294
20
202.56704376935954
30
0
11
-125.54599353812633
21
202.56704376935954
31
0
0
SPLINE
5
117
100
AcDbEntity
8
0
100
AcDbSpline
70
4
71
5
72
12
73
6
74
0
42
0.000000001
43
0.0000000001
44
0.0000000001
40
0
40
0
40
0
40
0
40
0
40
0
40
0.084784612185934416
40
0.084784612185934416
40
0.084784612185934416
40
0.084784612185934416
40
0.084784612185934416
40
0.084784612185934416
41
1
41
1
41
1
41
1
41
1
41
1
10
-122.13882452249528
20
197.76704409718513
30
0
10
-122.87781925263168
20
198.72788186205398
30
0
10
-123.5881168411149
20
199.68830192452231
30
0
10
-124.26971791388138
20
200.6483042937009
30
0
10
-124.92245173309448
20
201.6078864844084
30
0
10
-125.54599353826985
20
202.56704376958032
30
0
0
LINE
5
118
100
AcDbEntity
8
0
100
AcDbLine
10
-122.13882452249528
20
197.76704409718513
30
0
11
-143.13882453739646
21
197.76704409718513
31
0
0
SPLINE
5
119
100
AcDbEntity
8
0
100
AcDbSpline
70
0
71
3
72
12
73
8
74
0
42
0.000000001
43
0.0000000001
44
0.0000000001
40
0
40
0
40
0
40
0
40
2.4759452321929962
40
2.4759452321929962
40
4.5246601881566004
40
4.5246601881566004
40
7.3558492104958724
40
7.3558492104958724
40
7.3558492104958724
40
7.3558492104958724
10
-141.13882510364056
20
253.76704448461533
30
0
10
-145.63682237570046
20
246.84732496439392
30
0
10
-148.70180893814037
20
240.06247666353835
30
0
10
-151.39165647533775
20
227.81735232099203
30
0
10
-151.47607804886201
20
222.4221339892662
30
0
10
-149.04635909864021
20
209.14668293604845
30
0
10
-145.78244851149304
20
202.41273018487388
30
0
10
-143.13882453739643
20
197.76704409718508
30
0
0
LINE
5
120
100
AcDbEntity
8
0
100
AcDbLine
10
-141.13882510364056
20
253.76704448461533
30
0
11
-120.13882479071619
21
253.76704448461533
31
0
0
SPLINE
5
121
100
AcDbEntity
8
0
100
AcDbSpline
70
4
71
5
72
12
73
6
74
0
42
0.000000001
43
0.0000000001
44
0.0000000001
40
0.90973326567873558
40
0.90973326567873558
40
0.90973326567873558
40
0.90973326567873558
40
0.90973326567873558
40
0.90973326567873558
40
1
40
1
40
1
40
1
40
1
40
1
41
1
41
1
41
1
41
1
41
1
41
1
10
-124.09362155257367
20
248.7670437693595
30
0
10
-123.36770817946868
20
249.76799069178188
30
0
10
-122.60895813219109
20
250.76845965867074
30
0
10
-121.81778550978561
20
251.76845669746132
30
0
10
-120.99440807188455
20
252.76798497776275
30
0
10
-120.13882479071619
20
253.76704448461533
30
0
0
LINE
5
122
100
AcDbEntity
8
0
100
AcDbLine
10
-124.09362155257367
20
248.7670437693595
30
0
11
-133.13882513344296
21
248.7670437693595
31
0
0
LINE
5
123
100
AcDbEntity
8
0
100
AcDbLine
10
-133.13882513344296
20
248.7670437693595
30
0
11
-133.13882513344296
21
245.56704376935954
31
0
0
LWPOLYLINE
5
124
100
AcDbEntity
8
0
100
AcDbPolyline
90
32
70
1
43
0.0
10
-116.7688593179864
20
226.24683532714843
10
-123.73631489781229
20
226.24683532714843
42
-0.17132345072127872
10
-113.86439604879244
20
250.9795687777065
10
-108.67411181175767
20
245.78928454067167
10
-106.41137011196072
20
248.05202624046865
10
-111.66107237261289
20
253.30172850112081
42
-0.17527518092014716
10
-86.868920898437509
20
264.5103417051746
10
-86.868920898437494
20
256.14677374669736
10
-83.668920898437477
20
256.14677374669736
10
-83.668920898437463
20
264.63051794602723
42
-0.18094827503610086
10
-57.437325175708374
20
254.74117274967455
10
-64.126471684914264
20
248.05202624046859
10
-61.863729985117303
20
245.78928454067167
10
-55.113867663075887
20
252.5391468627131
42
-0.18501464003622473
10
-43.801643505252699
20
226.24683532714843
10
-53.768982478888567
20
226.24683532714843
10
-53.76898247888856
20
223.04683532714844
10
-43.800347088787852
20
223.04683532714844
42
-0.18507610663418153
10
-55.097893792434895
20
196.73854992094277
10
-61.863729985117317
20
203.5043861136252
10
-64.126471684914264
20
201.24164441382823
10
-57.420053515849233
20
194.53522624476321
42
-0.18109641352568751
10
-83.668920898437506
20
184.63076823801919
10
-83.668920898437477
20
193.14689690759957
10
-86.868920898437494
20
193.14689690759951
10
-86.868920898437494
20
184.75094447887182
42
-0.17542271538905113
10
-111.67748297222239
20
195.97553155356661
10
-106.41137011196072
20
201.24164441382828
10
-108.67411181175768
20
203.5043861136252
10
-113.8795088591838
20
198.29898906619906
42
-0.17138431372443655
10
-123.73761131427713
20
223.04683532714844
10
-116.7688593179864
20
223.04683532714844
0
LWPOLYLINE
5
125
100
AcDbEntity
8
0
100
AcDbPolyline
90
4
70
1
43
0.0
10
-90.44906512269371
20
226.22176224454665
10
-103.44906512269372
20
226.22176224454665
10
-103.44906512269372
20
223.02176224454666
10
-90.44906512269371
20
223.02176224454666
0
LWPOLYLINE
5
126
100
AcDbEntity
8
0
100
AcDbPolyline
90
4
70
1
43
0.0
10
-67.449065122693696
20
223.02176224454666
10
-67.449065122693696
20
226.22176224454665
10
-80.44906512269371
20
226.22176224454665
10
-80.44906512269371
20
223.02176224454666
0
LWPOLYLINE
5
127
100
AcDbEntity
8
0
100
AcDbPolyline
90
4
70
1
43
0.0
10
-87.049065122693719
20
219.6468352526351
10
-87.049065122693719
20
206.6468350589351
10
-83.849065122693702
20
206.64683505893507
10
-83.849065122693702
20
219.64683525263507
0
LWPOLYLINE
5
128
100
AcDbEntity
8
0
100
AcDbPolyline
90
4
70
1
43
0.0
10
-87.049065122693719
20
242.64683559536934
10
-87.049065122693719
20
229.64683540165424
10
-83.849065122693702
20
229.64683540165424
10
-83.849065122693702
20
242.64683559536934
0
LWPOLYLINE
5
129
100
AcDbEntity
8
0
100
AcDbPolyline
90
36
70
1
43
0.0
10
-22.452453613294196
20
217.49511108397954
10
-32.452453613281229
20
217.49511108397954
10
-32.452453613281229
20
226.29511108397952
10
-22.452453613294196
20
226.29511108397958
10
-22.452453613294196
20
229.49511108397957
10
-32.452453613281229
20
229.49511108397957
10
-32.452453613281229
20
238.29511108397955
10
-22.452453613294196
20
238.29511108397955
10
-22.452453613294196
20
241.49511108397957
10
-32.452453613281229
20
241.49511108397957
10
-32.452453613281229
20
257.89511108398438
10
-19.452453613281225
20
257.89511108398438
10
-19.452453613281229
20
247.89511108398438
10
-9.4524536132812287
20
247.89511108398438
10
-9.4524536132812287
20
257.89511108398438
10
3.5475463867187695
20
257.89511108398438
10
3.5475463867187718
20
241.49511108397957
10
-6.4524536132937582
20
241.49511108397957
10
-6.4524536132937538
20
238.29511108397955
10
3.5475463867187718
20
238.29511108397955
10
3.547546386718774
20
229.49511108397957
10
-6.4524536132937582
20
229.49511108397957
10
-6.4524536132937538
20
226.29511108397958
10
3.547546386718774
20
226.29511108397958
10
3.5475463867187762
20
217.49511108397957
10
-6.4524536132937582
20
217.49511108397954
10
-6.4524536132937538
20
214.29511108397952
10
3.5475463867187762
20
214.29511108397952
10
3.5475463867187784
20
197.89511108398438
10
-9.4524536132812287
20
197.89511108398438
10
-9.4524536132812287
20
207.89511108398438
10
-19.452453613281229
20
207.89511108398438
10
-19.452453613281229
20
197.89511108398438
10
-32.452453613281229
20
197.89511108398438
10
-32.452453613281229
20
214.29511108397952
10
-22.452453613294196
20
214.29511108397952
0
LWPOLYLINE
5
130
100
AcDbEntity
8
0
100
AcDbPolyline
90
36
70
1
43
0.0
10
50.297552490239205
20
234.94818115233076
10
50.297552490239205
20
224.94818115234375
10
41.497552490239201
20
224.94818115234375
10
41.497552490239201
20
234.94818115233076
10
38.297552490239198
20
234.94818115233076
10
38.297552490239198
20
224.94818115234375
10
29.497552490239197
20
224.94818115234375
10
29.497552490239201
20
234.94818115233076
10
26.297552490239195
20
234.94818115233076
10
26.297552490239198
20
224.94818115234375
10
9.897552490234391
20
224.94818115234375
10
9.897552490234391
20
237.94818115234375
10
19.897552490234393
20
237.94818115234375
10
19.897552490234386
20
247.94818115234375
10
9.8975524902343874
20
247.94818115234375
10
9.8975524902343857
20
260.94818115234375
10
26.297552490239191
20
260.94818115234375
10
26.297552490239195
20
250.94818115233122
10
29.497552490239194
20
250.94818115233122
10
29.49755249023919
20
260.94818115234375
10
38.297552490239198
20
260.94818115234375
10
38.297552490239198
20
250.94818115233122
10
41.497552490239194
20
250.94818115233122
10
41.497552490239194
20
260.94818115234375
10
50.297552490239198
20
260.94818115234375
10
50.297552490239198
20
250.94818115233122
10
53.497552490239208
20
250.94818115233122
10
53.497552490239201
20
260.94818115234375
10
69.897552490234389
20
260.94818115234375
10
69.897552490234403
20
247.94818115234375
10
59.897552490234403
20
247.94818115234375
10
59.897552490234403
20
237.94818115234375
10
69.897552490234403
20
237.94818115234375
10
69.897552490234403
20
224.94818115234375
10
53.497552490239215
20
224.94818115234375
10
53.497552490239208
20
234.94818115233076
0
LINE
5
131
100
AcDbEntity
8
0
100
AcDbLine
10
22.097552788257623
20
203.02848748862738
30
0
11
22.097552788257623
21
209.88971380909931
31
0
0
SPLINE
5
132
100
AcDbEntity
8
0
100
AcDbSpline
70
4
71
5
72
19
73
13
74
0
42
0.000000001
43
0.0000000001
44
0.0000000001
40
0.14139112021697625
40
0.14139112021697625
40
0.14139112021697625
40
0.14139112021697625
40
0.14139112021697625
40
0.14139112021697625
40
0.20000000000000001
40
0.30000000000000004
40
0.40000000000000002
40
0.5
40
0.59999999999999998
40
0.69999999999999996
40
0.79999999999999993
40
0.85205273346033683
40
0.85205273346033683
40
0.85205273346033683
40
0.85205273346033683
40
0.85205273346033683
40
0.85205273346033683
41
1
41
1
41
1
41
1
41
1
41
1
41
1
41
1
41
1
41
1
41
1
41
1
41
1
10
61.897552788257627
20
208.67102035209513
30
0
10
61.235313108586666
20
208.29460093090449
30
0
10
59.443708239400799
20
207.31477139413971
30
0
10
56.525053769112077
20
205.89061813578036
30
0
10
52.483721140159496
20
204.3224695779208
30
0
10
47.326730129458795
20
203.09260097720923
30
0
10
41.719132508175399
20
202.77062908322239
30
0
10
36.126934376229102
20
203.50663848403795
30
0
10
31.084333853559883
20
205.08830945283333
30
0
10
27.165664132307377
20
206.90003523714284
30
0
10
24.364112034450962
20
208.47373441269775
30
0
10
22.675468152308778
20
209.52021072827935
30
0
10
22.097552788269056
20
209.88971380909197
30
0
0
LINE
5
133
100
AcDbEntity
8
0
100
AcDbLine
10
61.897552788257627
20
208.67102035209513
30
0
11
61.897552788257642
21
203.02848748862738
31
0
0
LINE
5
134
100
AcDbEntity
8
0
100
AcDbLine
10
61.897552788257642
20
203.02848748862738
30
0
11
65.09755278825763
21
203.02848748862738
31
0
0
LINE
5
135
100
AcDbEntity
8
0
100
AcDbLine
10
65.09755278825763
20
203.02848748862738
30
0
11
65.09755278825763
21
210.621319083944
31
0
0
SPLINE
5
136
100
AcDbEntity
8
0
100
AcDbSpline
70
4
71
5
72
12
73
6
74
0
42
0.000000001
43
0.0000000001
44
0.0000000001
40
0
40
0
40
0
40
0
40
0
40
0
40
0.084784612185934416
40
0.084784612185934416
40
0.084784612185934416
40
0.084784612185934416
40
0.084784612185934416
40
0.084784612185934416
41
1
41
1
41
1
41
1
41
1
41
1
10
69.897552460432053
20
214.02848809957504
30
0
10
68.936714695563182
20
213.28949336943862
30
0
10
67.976294633094852
20
212.57919578095539
30
0
10
67.016292263916242
20
211.89759470818893
30
0
10
66.056710073208791
20
211.24486088897584
30
0
10
65.097552788036822
20
210.62131908380047
30
0
0
LINE
5
137
100
AcDbEntity
8
0
100
AcDbLine
10
69.897552460432053
20
214.02848809957504
30
0
11
69.897552460432053
21
193.02848808467388
31
0
0
SPLINE
5
138
100
AcDbEntity
8
0
100
AcDbSpline
70
0
71
3
72
12
73
8
74
0
42
0.000000001
43
0.0000000001
44
0.0000000001
40
0
40
0
40
0
40
0
40
2.4759452321929962
40
2.4759452321929962
40
4.5246601881566004
40
4.5246601881566004
40
7.3558492104958724
40
7.3558492104958724
40
7.3558492104958724
40
7.3558492104958724
10
13.897552073001865
20
195.02848751842976
30
0
10
20.817271593223264
20
190.53049024636982
30
0
10
27.602119894078797
20
187.46550368392997
30
0
10
39.847244236625123
20
184.77565614673262
30
0
10
45.242462568350973
20
184.69123457320833
30
0
10
58.517913621568724
20
187.12095352343013
30
0
10
65.251866372743294
20
190.38486411057727
30
0
10
69.897552460432053
20
193.02848808467388
30
0
0
LINE
5
139
100
AcDbEntity
8
0
100
AcDbLine
10
13.897552073001865
20
195.02848751842976
30
0
11
13.897552073001867
21
216.02848783135414
31
0
0
SPLINE
5
140
100
AcDbEntity
8
0
100
AcDbSpline
70
4
71
5
72
12
73
6
74
0
42
0.000000001
43
0.0000000001
44
0.0000000001
40
0.90973326567873558
40
0.90973326567873558
40
0.90973326567873558
40
0.90973326567873558
40
0.90973326567873558
40
0.90973326567873558
40
1
40
1
40
1
40
1
40
1
40
1
41
1
41
1
41
1
41
1
41
1
41
1
10
18.897552788257673
20
212.07369106949668
30
0
10
17.896605865835291
20
212.79960444260166
30
0
10
16.896136898946445
20
213.55835448987926
30
0
10
15.896139860155841
20
214.34952711228473
30
0
10
14.896611579854394
20
215.17290455018579
30
0
10
13.897552073001865
20
216.02848783135414
30
0
0
LINE
5
141
100
AcDbEntity
8
0
100
AcDbLine
10
18.897552788257673
20
212.07369106949668
30
0
11
18.897552788257666
21
203.02848748862738
31
0
0
LINE
5
142
100
AcDbEntity
8
0
100
AcDbLine
10
18.897552788257666
20
203.02848748862738
30
0
11
22.097552788257623
21
203.02848748862738
31
0
0
LWPOLYLINE
5
143
100
AcDbEntity
8
0
100
AcDbPolyline
90
36
70
1
43
0.0
10
86.24755859373704
20
220.74776611327644
10
76.24755859375
20
220.74776611327644
10
76.247558593750014
20
229.54776611327642
10
86.247558593737054
20
229.54776611327645
10
86.24755859373704
20
232.74776611327644
10
76.24755859375
20
232.74776611327644
10
76.247558593750014
20
241.54776611327645
10
86.247558593737054
20
241.54776611327645
10
86.24755859373704
20
244.74776611327644
10
76.24755859375
20
244.74776611327644
10
76.247558593750014
20
261.14776611328125
10
89.24755859375
20
261.14776611328125
10
89.24755859375
20
251.14776611328125
10
99.24755859375
20
251.14776611328125
10
99.24755859375
20
261.14776611328125
10
112.24755859375001
20
261.14776611328125
10
112.24755859375001
20
244.74776611327644
10
102.24755859373749
20
244.74776611327644
10
102.24755859373747
20
241.54776611327645
10
112.24755859375
20
241.54776611327645
10
112.24755859375001
20
232.74776611327644
10
102.24755859373747
20
232.74776611327644
10
102.24755859373747
20
229.54776611327645
10
112.24755859375
20
229.54776611327645
10
112.24755859375001
20
220.74776611327647
10
102.24755859373747
20
220.74776611327644
10
102.24755859373747
20
217.54776611327642
10
112.24755859375
20
217.54776611327642
10
112.24755859375001
20
201.14776611328125
10
99.24755859375
20
201.14776611328125
10
99.24755859375
20
211.14776611328125
10
89.24755859375
20
211.14776611328125
10
89.24755859375
20
201.14776611328125
10
76.247558593750014
20
201.14776611328125
10
76.247558593750014
20
217.54776611327642
10
86.247558593737054
20
217.54776611327642
0
LWPOLYLINE
5
144
100
AcDbEntity
8
0
100
AcDbPolyline
90
36
70
1
43
0.0
10
158.99753417969237
20
238.15493774412766
10
158.99753417969237
20
228.15493774414062
10
150.19753417969235
20
228.15493774414062
10
150.19753417969235
20
238.15493774412766
10
146.99753417969237
20
238.15493774412766
10
146.99753417969237
20
228.15493774414062
10
138.19753417969235
20
228.15493774414062
10
138.19753417969235
20
238.15493774412766
10
134.99753417969234
20
238.15493774412766
10
134.99753417969234
20
228.15493774414062
10
118.59753417968754
20
228.15493774414062
10
118.59753417968754
20
241.15493774414062
10
128.59753417968756
20
241.15493774414062
10
128.59753417968756
20
251.15493774414062
10
118.59753417968754
20
251.15493774414062
10
118.59753417968754
20
264.15493774414062
10
134.99753417969234
20
264.15493774414062
10
134.99753417969234
20
254.15493774412809
10
138.19753417969235
20
254.15493774412809
10
138.19753417969235
20
264.15493774414062
10
146.99753417969237
20
264.15493774414062
10
146.99753417969237
20
254.15493774412809
10
150.19753417969235
20
254.15493774412809
10
150.19753417969235
20
264.15493774414062
10
158.99753417969237
20
264.15493774414062
10
158.99753417969234
20
254.15493774412809
10
162.19753417969233
20
254.15493774412809
10
162.19753417969235
20
264.15493774414062
10
178.59753417968759
20
264.15493774414062
10
178.59753417968756
20
251.15493774414062
10
168.59753417968756
20
251.15493774414062
10
168.59753417968756
20
241.15493774414062
10
178.59753417968756
20
241.15493774414062
10
178.59753417968756
20
228.15493774414062
10
162.19753417969233
20
228.15493774414062
10
162.19753417969235
20
238.15493774412766
0
LWPOLYLINE
5
145
100
AcDbEntity
8
0
100
AcDbPolyline
90
36
70
1
43
0.0
10
158.99753417969237
20
195.80493164061204
10
158.99753417969237
20
185.804931640625
10
150.19753417969235
20
185.804931640625
10
150.19753417969235
20
195.80493164061204
10
146.99753417969237
20
195.80493164061204
10
146.99753417969237
20
185.804931640625
10
138.19753417969235
20
185.804931640625
10
138.19753417969235
20
195.80493164061204
10
134.99753417969234
20
195.80493164061204
10
134.99753417969234
20
185.804931640625
10
118.59753417968754
20
185.804931640625
10
118.59753417968754
20
198.804931640625
10
128.59753417968756
20
198.804931640625
10
128.59753417968756
20
208.804931640625
10
118.59753417968754
20
208.804931640625
10
118.59753417968754
20
221.804931640625
10
134.99753417969234
20
221.804931640625
10
134.99753417969234
20
211.80493164061247
10
138.19753417969235
20
211.80493164061247
10
138.19753417969235
20
221.804931640625
10
146.99753417969237
20
221.804931640625
10
146.99753417969237
20
211.80493164061247
10
150.19753417969235
20
211.80493164061247
10
150.19753417969235
20
221.804931640625
10
158.99753417969237
20
221.804931640625
10
158.99753417969234
20
211.80493164061247
10
162.19753417969233
20
211.80493164061247
10
162.19753417969235
20
221.804931640625
10
178.59753417968759
20
221.804931640625
10
178.59753417968756
20
208.804931640625
10
168.59753417968756
20
208.804931640625
10
168.59753417968756
20
198.804931640625
10
178.59753417968756
20
198.804931640625
10
178.59753417968756
20
185.804931640625
10
162.19753417969233
20
185.804931640625
10
162.19753417969235
20
195.80493164061204
0
LWPOLYLINE
5
146
100
AcDbEntity
8
0
100
AcDbPolyline
90
36
70
1
43
0.0
10
225.34754028320799
20
238.15493774412766
10
225.34754028320799
20
228.15493774414062
10
216.54754028320798
20
228.15493774414062
10
216.54754028320795
20
238.15493774412766
10
213.34754028320793
20
238.15493774412766
10
213.34754028320793
20
228.15493774414062
10
204.54754028320798
20
228.15493774414062
10
204.54754028320795
20
238.15493774412766
10
201.34754028320796
20
238.15493774412766
10
201.34754028320796
20
228.15493774414062
10
184.94754028320315
20
228.15493774414062
10
184.94754028320315
20
241.15493774414062
10
194.94754028320315
20
241.15493774414062
10
194.94754028320315
20
251.15493774414062
10
184.94754028320315
20
251.15493774414062
10
184.94754028320315
20
264.15493774414062
10
201.34754028320796
20
264.15493774414062
10
201.34754028320796
20
254.15493774412809
10
204.54754028320795
20
254.15493774412809
10
204.54754028320795
20
264.15493774414062
10
213.34754028320793
20
264.15493774414062
10
213.34754028320793
20
254.15493774412809
10
216.54754028320795
20
254.15493774412809
10
216.54754028320795
20
264.15493774414062
10
225.34754028320793
20
264.15493774414062
10
225.34754028320799
20
254.15493774412809
10
228.54754028320798
20
254.15493774412809
10
228.54754028320798
20
264.15493774414062
10
244.94754028320318
20
264.15493774414062
10
244.94754028320315
20
251.15493774414062
10
234.94754028320315
20
251.15493774414062
10
234.94754028320315
20
241.15493774414062
10
244.94754028320315
20
241.15493774414062
10
244.94754028320315
20
228.15493774414062
10
228.54754028320795
20
228.15493774414062
10
228.54754028320798
20
238.15493774412766
0
LINE
5
147
100
AcDbEntity
8
0
100
AcDbLine
10
193.14754058122639
20
207.0586998909711
30
0
11
193.14754058122639
21
213.91992621144306
31
0
0
SPLINE
5
148
100
AcDbEntity
8
0
100
AcDbSpline
70
4
71
5
72
19
73
13
74
0
42
0.000000001
43
0.0000000001
44
0.0000000001
40
0.14139112021697625
40
0.14139112021697625
40
0.14139112021697625
40
0.14139112021697625
40
0.14139112021697625
40
0.14139112021697625
40
0.20000000000000001
40
0.30000000000000004
40
0.40000000000000002
40
0.5
40
0.59999999999999998
40
0.69999999999999996
40
0.79999999999999993
40
0.85205273346033683
40
0.85205273346033683
40
0.85205273346033683
40
0.85205273346033683
40
0.85205273346033683
40
0.85205273346033683
41
1
41
1
41
1
41
1
41
1
41
1
41
1
41
1
41
1
41
1
41
1
41
1
41
1
10
232.94754058122635
20
212.70123275443888
30
0
10
232.28530090155542
20
212.32481333324824
30
0
10
230.49369603236954
20
211.34498379648346
30
0
10
227.57504156208083
20
209.92083053812408
30
0
10
223.53370893312825
20
208.35268198026455
30
0
10
218.37671792242756
20
207.12281337955295
30
0
10
212.76912030114414
20
206.80084148556614
30
0
10
207.17692216919784
20
207.53685088638167
30
0
10
202.1343216465286
20
209.11852185517705
30
0
10
198.21565192527612
20
210.93024763948659
30
0
10
195.4140998274197
20
212.50394681504147
30
0
10
193.72545594527753
20
213.5504231306231
30
0
10
193.14754058123779
20
213.91992621143572
30
0
0
LINE
5
149
100
AcDbEntity
8
0
100
AcDbLine
10
232.94754058122635
20
212.70123275443888
30
0
11
232.94754058122635
21
207.0586998909711
31
0
0
LINE
5
150
100
AcDbEntity
8
0
100
AcDbLine
10
232.94754058122635
20
207.0586998909711
30
0
11
236.14754058122634
21
207.0586998909711
31
0
0
LINE
5
151
100
AcDbEntity
8
0
100
AcDbLine
10
236.14754058122634
20
207.0586998909711
30
0
11
236.14754058122634
21
214.65153148628772
31
0
0
SPLINE
5
152
100
AcDbEntity
8
0
100
AcDbSpline
70
4
71
5
72
12
73
6
74
0
42
0.000000001
43
0.0000000001
44
0.0000000001
40
0
40
0
40
0
40
0
40
0
40
0
40
0.084784612185934416
40
0.084784612185934416
40
0.084784612185934416
40
0.084784612185934416
40
0.084784612185934416
40
0.084784612185934416
41
1
41
1
41
1
41
1
41
1
41
1
10
240.9475402534008
20
218.05870050191879
30
0
10
239.9867024885319
20
217.31970577178234
30
0
10
239.02628242606363
20
216.60940818329914
30
0
10
238.06628005688498
20
215.92780711053265
30
0
10
237.10669786617754
20
215.27507329131959
30
0
10
236.14754058100556
20
214.65153148614419
30
0
0
LINE
5
153
100
AcDbEntity
8
0
100
AcDbLine
10
240.9475402534008
20
218.05870050191879
30
0
11
240.9475402534008
21
197.05870048701763
31
0
0
SPLINE
5
154
100
AcDbEntity
8
0
100
AcDbSpline
70
0
71
3
72
12
73
8
74
0
42
0.000000001
43
0.0000000001
44
0.0000000001
40
0
40
0
40
0
40
0
40
2.4759452321929962
40
2.4759452321929962
40
4.5246601881566004
40
4.5246601881566004
40
7.3558492104958724
40
7.3558492104958724
40
7.3558492104958724
40
7.3558492104958724
10
184.94753986597061
20
199.05869992077351
30
0
10
191.86725938619202
20
194.56070264871357
30
0
10
198.65210768704753
20
191.49571608627369
30
0
10
210.89723202959388
20
188.80586854907634
30
0
10
216.29245036131974
20
188.72144697555206
30
0
10
229.56790141453746
20
191.15116592577385
30
0
10
236.30185416571203
20
194.41507651292099
30
0
10
240.9475402534008
20
197.05870048701763
30
0
0
LINE
5
155
100
AcDbEntity
8
0
100
AcDbLine
10
184.94753986597061
20
199.05869992077351
30
0
11
184.94753986597061
21
220.05870023369789
31
0
0
SPLINE
5
156
100
AcDbEntity
8
0
100
AcDbSpline
70
4
71
5
72
12
73
6
74
0
42
0.000000001
43
0.0000000001
44
0.0000000001
40
0.90973326567873558
40
0.90973326567873558
40
0.90973326567873558
40
0.90973326567873558
40
0.90973326567873558
40
0.90973326567873558
40
1
40
1
40
1
40
1
40
1
40
1
41
1
41
1
41
1
41
1
41
1
41
1
10
189.94754058122641
20
216.1039034718404
30
0
10
188.94659365880403
20
216.82981684494538
30
0
10
187.9461246919152
20
217.58856689222299
30
0
10
186.94612765312459
20
218.37973951462845
30
0
10
185.94659937282316
20
219.20311695252951
30
0
10
184.94753986597061
20
220.05870023369789
30
0
0
LINE
5
157
100
AcDbEntity
8
0
100
AcDbLine
10
189.94754058122641
20
216.1039034718404
30
0
11
189.94754058122641
21
207.0586998909711
31
0
0
LINE
5
158
100
AcDbEntity
8
0
100
AcDbLine
10
189.94754058122641
20
207.0586998909711
30
0
11
193.14754058122639
21
207.0586998909711
31
0
0
LINE
5
159
100
AcDbEntity
8
0
100
AcDbLine
10
263.50579901039612
20
216.67734099626543
30
0
11
256.64457268992413
21
216.67734099626543
31
0
0
SPLINE
5
160
100
AcDbEntity
8
0
100
AcDbSpline
70
4
71
5
72
19
73
13
74
0
42
0.000000001
43
0.0000000001
44
0.0000000001
40
0.14139112021697625
40
0.14139112021697625
40
0.14139112021697625
40
0.14139112021697625
40
0.14139112021697625
40
0.14139112021697625
40
0.20000000000000001
40
0.30000000000000004
40
0.40000000000000002
40
0.5
40
0.59999999999999998
40
0.69999999999999996
40
0.79999999999999993
40
0.85205273346033683
40
0.85205273346033683
40
0.85205273346033683
40
0.85205273346033683
40
0.85205273346033683
40
0.85205273346033683
41
1
41
1
41
1
41
1
41
1
41
1
41
1
41
1
41
1
41
1
41
1
41
1
41
1
10
257.86326614692831
20
256.47734099626541
30
0
10
258.23968556811894
20
255.81510131659445
30
0
10
259.21951510488373
20
254.0234964474086
30
0
10
260.64366836324314
20
251.10484197711986
30
0
10
262.21181692110264
20
247.06350934816726
30
0
10
263.44168552181424
20
241.90651833746657
30
0
10
263.76365741580105
20
236.29892071618318
30
0
10
263.02764801498552
20
230.70672258423687
30
0
10
261.44597704619014
20
225.66412206156767
30
0
10
259.63425126188059
20
221.74545234031515
30
0
10
258.06055208632574
20
218.94390024245877
30
0
10
257.01407577074411
20
217.25525636031654
30
0
10
256.64457268993146
20
216.67734099627683
30
0
0
LINE
5
161
100
AcDbEntity
8
0
100
AcDbLine
10
257.86326614692831
20
256.47734099626541
30
0
11
263.50579901039612
21
256.47734099626541
31
0
0
LINE
5
162
100
AcDbEntity
8
0
100
AcDbLine
10
263.50579901039612
20
256.47734099626541
30
0
11
263.50579901039612
21
259.6773409962654
31
0
0
LINE
5
163
100
AcDbEntity
8
0
100
AcDbLine
10
263.50579901039612
20
259.6773409962654
30
0
11
255.91296741507946
21
259.6773409962654
31
0
0
SPLINE
5
164
100
AcDbEntity
8
0
100
AcDbSpline
70
4
71
5
72
12
73
6
74
0
42
0.000000001
43
0.0000000001
44
0.0000000001
40
0
40
0
40
0
40
0
40
0
40
0
40
0.084784612185934416
40
0.084784612185934416
40
0.084784612185934416
40
0.084784612185934416
40
0.084784612185934416
40
0.084784612185934416
41
1
41
1
41
1
41
1
41
1
41
1
10
252.50579839944839
20
264.47734066843987
30
0
10
253.24479312958485
20
263.51650290357094
30
0
10
253.95509071806805
20
262.55608284110264
30
0
10
254.63669179083453
20
261.59608047192404
30
0
10
255.2894256100476
20
260.63649828121657
30
0
10
255.91296741522299
20
259.67734099604462
30
0
0
LINE
5
165
100
AcDbEntity
8
0
100
AcDbLine
10
252.50579839944839
20
264.47734066843987
30
0
11
273.50579841434956
21
264.47734066843987
31
0
0
SPLINE
5
166
100
AcDbEntity
8
0
100
AcDbSpline
70
0
71
3
72
12
73
8
74
0
42
0.000000001
43
0.0000000001
44
0.0000000001
40
0
40
0
40
0
40
0
40
2.4759452321929962
40
2.4759452321929962
40
4.5246601881566004
40
4.5246601881566004
40
7.3558492104958724
40
7.3558492104958724
40
7.3558492104958724
40
7.3558492104958724
10
271.50579898059368
20
208.47734028100967
30
0
10
276.00379625265356
20
215.39705980123105
30
0
10
279.06878281509353
20
222.18190810208657
30
0
10
281.75863035229088
20
234.42703244463291
30
0
10
281.84305192581513
20
239.82225077635874
30
0
10
279.41333297559333
20
253.09770182957649
30
0
10
276.14942238844617
20
259.83165458075109
30
0
10
273.50579841434961
20
264.47734066843987
30
0
0
LINE
5
167
100
AcDbEntity
8
0
100
AcDbLine
10
271.50579898059368
20
208.47734028100967
30
0
11
250.5057986676693
21
208.47734028100967
31
0
0
SPLINE
5
168
100
AcDbEntity
8
0
100
AcDbSpline
70
4
71
5
72
12
73
6
74
0
42
0.000000001
43
0.0000000001
44
0.0000000001
40
0.90973326567873558
40
0.90973326567873558
40
0.90973326567873558
40
0.90973326567873558
40
0.90973326567873558
40
0.90973326567873558
40
1
40
1
40
1
40
1
40
1
40
1
41
1
41
1
41
1
41
1
41
1
41
1
10
254.46059542952679
20
213.47734099626547
30
0
10
253.7346820564218
20
212.4763940738431
30
0
10
252.9759320091442
20
211.47592510695426
30
0
10
252.18475938673873
20
210.47592806816365
30
0
10
251.36138194883767
20
209.47639978786216
30
0
10
250.5057986676693
20
208.47734028100967
30
0
0
LINE
5
169
100
AcDbEntity
8
0
100
AcDbLine
10
254.46059542952679
20
213.47734099626547
30
0
11
263.50579901039612
21
213.47734099626547
31
0
0
LINE
5
170
100
AcDbEntity
8
0
100
AcDbLine
10
263.50579901039612
20
213.47734099626547
30
0
11
263.50579901039612
21
216.67734099626543
31
0
0
LWPOLYLINE
5
171
100
AcDbEntity
8
0
100
AcDbPolyline
90
32
70
1
43
0.0
10
248.83950195312505
20
343.55364935704893
10
248.83950195312505
20
350.52110493687479
42
-0.1713234507212785
10
273.57223540368307
20
340.64918608785496
10
268.38195116664826
20
335.45890185082015
10
270.64469286644521
20
333.19616015102321
10
275.89439512709743
20
338.44586241167531
42
-0.17527518092014693
10
287.10300833115122
20
313.65371093750002
10
278.73944037267398
20
313.65371093750002
10
278.73944037267398
20
310.45371093749998
10
287.22318457200385
20
310.45371093749998
42
-0.18094827503610122
10
277.33383937565111
20
284.22211521477084
10
270.64469286644521
20
290.91126172397674
10
268.38195116664826
20
288.64852002417979
10
275.13181348868966
20
281.89865770213834
42
-0.18501464003622473
10
248.83950195312505
20
270.58643354431518
10
248.83950195312505
20
280.55377251795107
10
245.63950195312503
20
280.55377251795107
10
245.63950195312503
20
270.58513712785032
42
-0.18507610663418164
10
219.33121654691939
20
281.88268383149739
10
226.09705273960179
20
288.64852002417985
10
223.83431103980485
20
290.91126172397679
10
217.1278928707398
20
284.20484355491175
42
-0.18109641352568728
10
207.22343486399581
20
310.45371093749998
10
215.73956353357616
20
310.45371093749998
10
215.73956353357613
20
313.65371093750002
10
207.34361110484841
20
313.65371093749997
42
-0.17542271538905102
10
218.5681981795432
20
338.46227301128488
10
223.83431103980487
20
333.19616015102321
10
226.09705273960185
20
335.45890185082015
10
220.8916556921757
20
340.66429889824633
42
-0.17138431372443666
10
245.63950195312509
20
350.5224013533396
10
245.63950195312503
20
343.55364935704893
0
LWPOLYLINE
5
172
100
AcDbEntity
8
0
100
AcDbPolyline
90
4
70
1
43
0.0
10
248.81442887052327
20
317.2338551617562
10
248.81442887052327
20
330.2338551617562
10
245.61442887052326
20
330.2338551617562
10
245.61442887052326
20
317.2338551617562
0
LWPOLYLINE
5
173
100
AcDbEntity
8
0
100
AcDbPolyline
90
4
70
1
43
0.0
10
245.61442887052326
20
294.2338551617562
10
248.81442887052327
20
294.2338551617562
10
248.81442887052327
20
307.2338551617562
10
245.61442887052326
20
307.2338551617562
0
LWPOLYLINE
5
174
100
AcDbEntity
8
0
100
AcDbPolyline
90
4
70
1
43
0.0
10
242.23950187861169
20
313.83385516175622
10
229.23950168491172
20
313.83385516175622
10
229.23950168491166
20
310.63385516175623
10
242.23950187861166
20
310.63385516175623
0
LWPOLYLINE
5
175
100
AcDbEntity
8
0
100
AcDbPolyline
90
4
70
1
43
0.0
10
265.23950222134596
20
313.83385516175622
10
252.23950202763086
20
313.83385516175622
10
252.23950202763086
20
310.63385516175623
10
265.23950222134596
20
310.63385516175623
0
LWPOLYLINE
5
176
100
AcDbEntity
8
0
100
AcDbPolyline
90
32
70
1
43
0.0
10
158.98496093749995
20
277.40377862146664
10
158.98496093749995
20
270.43632304164083
42
-0.17132345072127839
10
134.25222748694193
20
280.30824189066061
10
139.44251172397674
20
285.49852612769547
10
137.17977002417976
20
287.76126782749236
10
131.93006776352757
20
282.51156556684015
42
-0.17527518092014727
10
120.72145455947377
20
307.3037170410156
10
129.08502251795102
20
307.3037170410156
10
129.08502251795102
20
310.50371704101559
10
120.60127831862115
20
310.50371704101559
42
-0.18094827503610111
10
130.49062351497383
20
336.73531276374479
10
137.17977002417976
20
330.04616625453883
10
139.44251172397671
20
332.30890795433584
10
132.69264940193531
20
339.05877027637723
42
-0.18501464003622459
10
158.98496093749992
20
350.37099443420038
10
158.98496093749995
20
340.40365546056449
10
162.18496093749994
20
340.40365546056455
10
162.18496093749997
20
350.37229085066531
42
-0.18507610663418153
10
188.49324634370561
20
339.07474414701824
10
181.72741015102318
20
332.30890795433584
10
183.99015185082015
20
330.04616625453883
10
190.69657001988517
20
336.75258442360388
42
-0.18109641352568751
10
200.60102802662919
20
310.50371704101559
10
192.08489935704887
20
310.50371704101559
10
192.08489935704887
20
307.3037170410156
10
200.48085178577657
20
307.3037170410156
42
-0.17542271538905091
10
189.25626471108177
20
282.49515496723075
10
183.9901518508201
20
287.76126782749236
10
181.72741015102318
20
285.49852612769541
10
186.93280719844932
20
280.2931290802693
42
-0.17138431372443644
10
162.18496093749994
20
270.43502662517596
10
162.18496093749994
20
277.4037786214667
0
LWPOLYLINE
5
177
100
AcDbEntity
8
0
100
AcDbPolyline
90
4
70
1
43
0.0
10
159.01003402010173
20
303.72357281675937
10
159.01003402010173
20
290.72357281675937
10
162.21003402010172
20
290.72357281675937
10
162.21003402010172
20
303.72357281675937
0
LWPOLYLINE
5
178
100
AcDbEntity
8
0
100
AcDbPolyline
90
4
70
1
43
0.0
10
162.21003402010172
20
326.72357281675943
10
159.01003402010173
20
326.72357281675943
10
159.0100340201017
20
313.72357281675943
10
162.21003402010169
20
313.72357281675937
0
LWPOLYLINE
5
179
100
AcDbEntity
8
0
100
AcDbPolyline
90
4
70
1
43
0.0
10
165.58496101201331
20
307.12357281675941
10
178.58496120571331
20
307.12357281675941
10
178.58496120571331
20
310.32357281675939
10
165.58496101201331
20
310.32357281675939
0
LWPOLYLINE
5
180
100
AcDbEntity
8
0
100
AcDbPolyline
90
4
70
1
43
0.0
10
142.58496066927904
20
307.12357281675941
10
155.58496086299414
20
307.12357281675941
10
155.58496086299414
20
310.32357281675939
10
142.58496066927904
20
310.32357281675939
0
LWPOLYLINE
5
181
100
AcDbEntity
8
0
100
AcDbPolyline
90
32
70
1
43
0.0
10
72.611547851562477
20
274.25378472498232
10
72.611547851562491
20
267.28632914515646
42
-0.1713234507212785
10
47.878814401004448
20
277.15824799417629
10
53.06909863803925
20
282.3485322312111
10
50.806356938242288
20
284.61127393100799
10
45.556654677590124
20
279.36157167035583
42
-0.17527518092014727
10
34.348041473536306
20
304.15372314453128
10
42.711609432013553
20
304.15372314453128
10
42.711609432013546
20
307.35372314453127
10
34.227865232683683
20
307.35372314453127
42
-0.18094827503610111
10
44.117210429036376
20
333.58531886726041
10
50.806356938242288
20
326.89617235805451
10
53.069098638039236
20
329.15891405785146
10
46.319236315997834
20
335.9087763798928
42
-0.18501464003622484
10
72.611547851562477
20
347.22100053771607
10
72.611547851562477
20
337.25366156408018
10
75.811547851562466
20
337.25366156408018
10
75.811547851562466
20
347.22229695418093
42
-0.18507610663418153
10
102.11983325776814
20
335.92475025053386
10
95.353997065085707
20
329.15891405785146
10
97.616738764882669
20
326.89617235805451
10
104.32315693394773
20
333.60259052711956
42
-0.18109641352568739
10
114.22761494069172
20
307.35372314453127
10
105.71148627111141
20
307.35372314453127
10
105.71148627111143
20
304.15372314453128
10
114.10743869983911
20
304.15372314453128
42
-0.17542271538905102
10
102.8828516251443
20
279.34516107074637
10
97.616738764882655
20
284.61127393100804
10
95.353997065085707
20
282.34853223121104
10
100.55939411251182
20
277.14313518378492
42
-0.17138431372443644
10
75.811547851562466
20
267.28503272869159
10
75.81154785156248
20
274.25378472498232
0
LWPOLYLINE
5
182
100
AcDbEntity
8
0
100
AcDbPolyline
90
4
70
1
43
0.0
10
72.636620934164242
20
300.57357892027505
10
72.636620934164242
20
287.57357892027505
10
75.836620934164245
20
287.57357892027505
10
75.836620934164245
20
300.57357892027505
0
LWPOLYLINE
5
183
100
AcDbEntity
8
0
100
AcDbPolyline
90
4
70
1
43
0.0
10
75.83662093416423
20
323.57357892027505
10
72.636620934164227
20
323.57357892027505
10
72.636620934164227
20
310.57357892027505
10
75.836620934164245
20
310.57357892027505
0
LWPOLYLINE
5
184
100
AcDbEntity
8
0
100
AcDbPolyline
90
4
70
1
43
0.0
10
79.211547926075824
20
303.97357892027503
10
92.211548119775827
20
303.97357892027503
10
92.211548119775841
20
307.17357892027502
10
79.211547926075838
20
307.17357892027502
0
LWPOLYLINE
5
185
100
AcDbEntity
8
0
100
AcDbPolyline
90
4
70
1
43
0.0
10
56.21154758334157
20
303.97357892027503
10
69.211547777056666
20
303.97357892027503
10
69.211547777056666
20
307.17357892027502
10
56.21154758334157
20
307.17357892027502
0
LWPOLYLINE
5
186
100
AcDbEntity
8
0
100
AcDbPolyline
90
32
70
1
43
0.0
10
-13.76183471679691
20
271.10377556970889
10
-13.761834716796905
20
264.13631998988302
42
-0.17132345072127839
10
-38.494568167354934
20
274.0082388389028
10
-33.304283930320139
20
279.19852307593766
10
-35.567025630117101
20
281.46126477573455
10
-40.816727890769265
20
276.21156251508239
42
-0.17527518092014727
10
-52.025341094823077
20
301.00371398925779
10
-43.661773136345836
20
301.00371398925779
10
-43.661773136345843
20
304.20371398925784
10
-52.14551733567567
20
304.20371398925778
42
-0.18094827503610098
10
-42.256172139322999
20
330.43530971198692
10
-35.567025630117101
20
323.74616320278102
10
-33.304283930320153
20
326.00890490257797
10
-40.054146252361591
20
332.75876722461936
42
-0.18501464003622495
10
-13.761834716796919
20
344.07099138244263
10
-13.761834716796917
20
334.10365240880674
10
-10.561834716796916
20
334.10365240880674
10
-10.561834716796902
20
344.0722877989075
42
-0.18507610663418175
10
15.746450689408775
20
332.77474109526042
10
8.9806144967263144
20
326.00890490257797
10
11.243356196523276
20
323.74616320278102
10
17.949774365588318
20
330.45258137184612
42
-0.18109641352568762
10
27.854232372332348
20
304.20371398925784
10
19.338103702752008
20
304.20371398925784
10
19.338103702752022
20
301.00371398925779
10
27.734056131479726
20
301.00371398925785
42
-0.17542271538905102
10
16.509469056784926
20
276.19515191547293
10
11.243356196523264
20
281.46126477573461
10
8.9806144967263215
20
279.1985230759376
10
14.186011544152448
20
273.99312602851148
42
-0.17138431372443644
10
-10.561834716796914
20
264.13502357341815
10
-10.561834716796909
20
271.10377556970889
0
LWPOLYLINE
5
187
100
AcDbEntity
8
0
100
AcDbPolyline
90
4
70
1
43
0.0
10
-13.736761634195149
20
297.42356976500156
10
-13.736761634195148
20
284.42356976500156
10
-10.536761634195145
20
284.42356976500156
10
-10.536761634195146
20
297.42356976500156
0
LWPOLYLINE
5
188
100
AcDbEntity
8
0
100
AcDbPolyline
90
4
70
1
43
0.0
10
-10.536761634195154
20
320.42356976500162
10
-13.736761634195155
20
320.42356976500162
10
-13.736761634195151
20
307.42356976500156
10
-10.536761634195152
20
307.42356976500156
0
LWPOLYLINE
5
189
100
AcDbEntity
8
0
100
AcDbPolyline
90
4
70
1
43
0.0
10
-7.1618346422835613
20
300.82356976500159
10
5.8381655514164423
20
300.82356976500159
10
5.8381655514164423
20
304.02356976500158
10
-7.1618346422835604
20
304.02356976500158
0
LWPOLYLINE
5
190
100
AcDbEntity
8
0
100
AcDbPolyline
90
4
70
1
43
0.0
10
-30.161834985017819
20
300.82356976500159
10
-17.16183479130272
20
300.82356976500159
10
-17.161834791302724
20
304.02356976500158
10
-30.161834985017819
20
304.02356976500158
0
LWPOLYLINE
5
191
100
AcDbEntity
8
0
100
AcDbPolyline
90
32
70
1
43
0.0
10
-131.57025091954893
20
312.13872680664065
10
-138.53770649937479
20
312.13872680664065
42
-0.1713234507212785
10
-128.66578765035499
20
336.87146025719869
10
-123.47550341332017
20
331.68117602016389
10
-121.21276171352322
20
333.94391771996084
10
-126.46246397417539
20
339.19361998061299
42
-0.17527518092014693
10
-101.67031250000001
20
350.40223318466678
10
-101.67031249999999
20
342.03866522618961
10
-98.470312499999991
20
342.03866522618955
10
-98.470312499999977
20
350.52240942551941
42
-0.18094827503610086
10
-72.238716777270881
20
340.63306422916673
10
-78.927863286476764
20
333.94391771996084
10
-76.665121586679817
20
331.68117602016389
10
-69.915259264638394
20
338.43103834220528
42
-0.18501464003622473
10
-58.603035106815199
20
312.13872680664065
10
-68.570374080451074
20
312.13872680664065
10
-68.57037408045106
20
308.93872680664066
10
-58.601738690350359
20
308.93872680664066
42
-0.18507610663418153
10
-69.899285393997403
20
282.63044140043496
10
-76.665121586679817
20
289.39627759311742
10
-78.927863286476764
20
287.13353589332041
10
-72.221445117411747
20
280.42711772425542
42
-0.18109641352568751
10
-98.470312500000006
20
270.52265971751137
10
-98.470312499999991
20
279.03878838709176
10
-101.67031249999999
20
279.0387883870917
10
-101.67031249999999
20
270.642835958364
42
-0.17542271538905102
10
-126.47887457378488
20
281.8674230330588
10
-121.21276171352321
20
287.13353589332047
10
-123.47550341332017
20
289.39627759311742
10
-128.6809004607463
20
284.19088054569124
42
-0.17138431372443666
10
-138.53900291583963
20
308.93872680664066
10
-131.5702509195489
20
308.93872680664066
0
LWPOLYLINE
5
192
100
AcDbEntity
8
0
100
AcDbPolyline
90
4
70
1
43
0.0
10
-105.25045672425621
20
312.11365372403884
10
-118.25045672425622
20
312.11365372403884
10
-118.2504567242562
20
308.91365372403885
10
-105.2504567242562
20
308.91365372403885
0
LWPOLYLINE
5
193
100
AcDbEntity
8
0
100
AcDbPolyline
90
4
70
1
43
0.0
10
-82.25045672425621
20
308.91365372403885
10
-82.25045672425621
20
312.11365372403884
10
-95.25045672425621
20
312.11365372403884
10
-95.25045672425621
20
308.91365372403885
0
LWPOLYLINE
5
194
100
AcDbEntity
8
0
100
AcDbPolyline
90
4
70
1
43
0.0
10
-101.85045672425622
20
305.53872673212732
10
-101.85045672425622
20
292.53872653842728
10
-98.650456724256216
20
292.53872653842728
10
-98.650456724256216
20
305.53872673212726
0
LWPOLYLINE
5
195
100
AcDbEntity
8
0
100
AcDbPolyline
90
4
70
1
43
0.0
10
-101.85045672425622
20
328.53872707486153
10
-101.85045672425622
20
315.53872688114643
10
-98.650456724256216
20
315.53872688114643
10
-98.650456724256216
20
328.53872707486153
0
LINE
5
196
100
AcDbEntity
8
0
100
AcDbLine
10
-156.69235296547419
20
347.80421875715257
30
0
11
-149.83112664500226
21
347.80421875715257
31
0
0
SPLINE
5
197
100
AcDbEntity
8
0
100
AcDbSpline
70
4
71
5
72
19
73
13
74
0
42
0.000000001
43
0.0000000001
44
0.0000000001
40
0.14139112021697625
40
0.14139112021697625
40
0.14139112021697625
40
0.14139112021697625
40
0.14139112021697625
40
0.14139112021697625
40
0.20000000000000001
40
0.30000000000000004
40
0.40000000000000002
40
0.5
40
0.59999999999999998
40
0.69999999999999996
40
0.79999999999999993
40
0.85205273346033683
40
0.85205273346033683
40
0.85205273346033683
40
0.85205273346033683
40
0.85205273346033683
40
0.85205273346033683
41
1
41
1
41
1
41
1
41
1
41
1
41
1
41
1
41
1
41
1
41
1
41
1
41
1
10
-151.04982010200646
20
308.00421875715256
30
0
10
-151.42623952319707
20
308.66645843682352
30
0
10
-152.40606905996185
20
310.45806330600942
30
0
10
-153.83022231832123
20
313.37671777629811
30
0
10
-155.39837087618079
20
317.41805040525071
30
0
10
-156.62823947689233
20
322.57504141595132
30
0
10
-156.95021137087917
20
328.18263903723476
30
0
10
-156.21420197006364
20
333.77483716918107
30
0
10
-154.63253100126823
20
338.81743769185027
30
0
10
-152.82080521695872
20
342.73610741310279
30
0
10
-151.24710604140381
20
345.53765951095926
30
0
10
-150.20062972582224
20
347.22630339310143
30
0
10
-149.83112664500959
20
347.80421875714114
30
0
0
LINE
5
198
100
AcDbEntity
8
0
100
AcDbLine
10
-151.04982010200646
20
308.00421875715256
30
0
11
-156.69235296547419
21
308.0042187571525
31
0
0
LINE
5
199
100
AcDbEntity
8
0
100
AcDbLine
10
-156.69235296547419
20
308.0042187571525
30
0
11
-156.69235296547419
21
304.80421875715257
31
0
0
LINE
5
200
100
AcDbEntity
8
0
100
AcDbLine
10
-156.69235296547419
20
304.80421875715257
30
0
11
-149.09952137015756
21
304.80421875715257
31
0
0
SPLINE
5
201
100
AcDbEntity
8
0
100
AcDbSpline
70
4
71
5
72
12
73
6
74
0
42
0.000000001
43
0.0000000001
44
0.0000000001
40
0
40
0
40
0
40
0
40
0
40
0
40
0.084784612185934416
40
0.084784612185934416
40
0.084784612185934416
40
0.084784612185934416
40
0.084784612185934416
40
0.084784612185934416
41
1
41
1
41
1
41
1
41
1
41
1
10
-145.69235235452655
20
300.0042190849781
30
0
10
-146.43134708466295
20
300.96505684984697
30
0
10
-147.14164467314617
20
301.92547691231533
30
0
10
-147.82324574591263
20
302.88547928149393
30
0
10
-148.47597956512573
20
303.84506147220139
30
0
10
-149.09952137030109
20
304.80421875737335
30
0
0
LINE
5
202
100
AcDbEntity
8
0
100
AcDbLine
10
-145.69235235452655
20
300.0042190849781
30
0
11
-166.69235236942771
21
300.0042190849781
31
0
0
SPLINE
5
203
100
AcDbEntity
8
0
100
AcDbSpline
70
0
71
3
72
12
73
8
74
0
42
0.000000001
43
0.0000000001
44
0.0000000001
40
0
40
0
40
0
40
0
40
2.4759452321929962
40
2.4759452321929962
40
4.5246601881566004
40
4.5246601881566004
40
7.3558492104958724
40
7.3558492104958724
40
7.3558492104958724
40
7.3558492104958724
10
-164.69235293567181
20
356.00421947240829
30
0
10
-169.19035020773174
20
349.08449995218689
30
0
10
-172.2553367701716
20
342.29965165133137
30
0
10
-174.945184307369
20
330.05452730878505
30
0
10
-175.02960588089323
20
324.65930897705914
30
0
10
-172.59988693067143
20
311.38385792384145
30
0
10
-169.33597634352429
20
304.64990517266688
30
0
10
-166.69235236942768
20
300.0042190849781
30
0
0
LINE
5
204
100
AcDbEntity
8
0
100
AcDbLine
10
-164.69235293567181
20
356.00421947240829
30
0
11
-143.69235262274742
21
356.00421947240829
31
0
0
SPLINE
5
205
100
AcDbEntity
8
0
100
AcDbSpline
70
4
71
5
72
12
73
6
74
0
42
0.000000001
43
0.0000000001
44
0.0000000001
40
0.90973326567873558
40
0.90973326567873558
40
0.90973326567873558
40
0.90973326567873558
40
0.90973326567873558
40
0.90973326567873558
40
1
40
1
40
1
40
1
40
1
40
1
41
1
41
1
41
1
41
1
41
1
41
1
10
-147.64714938460492
20
351.0042187571525
30
0
10
-146.92123601149993
20
352.00516567957493
30
0
10
-146.16248596422236
20
353.0056346464637
30
0
10
-145.37131334181686
20
354.00563168525434
30
0
10
-144.5479359039158
20
355.00515996555578
30
0
10
-143.69235262274745
20
356.00421947240829
30
0
0
LINE
5
206
100
AcDbEntity
8
0
100
AcDbLine
10
-147.64714938460492
20
351.0042187571525
30
0
11
-156.69235296547421
21
351.0042187571525
31
0
0
LINE
5
207
100
AcDbEntity
8
0
100
AcDbLine
10
-156.69235296547421
20
351.0042187571525
30
0
11
-156.69235296547419
21
347.80421875715257
31
0
0
LINE
5
208
100
AcDbEntity
8
0
100
AcDbLine
10
-145.84999419450764
20
275.68673773109919
30
0
11
-145.84999419450764
21
268.82551141062726
31
0
0
SPLINE
5
209
100
AcDbEntity
8
0
100
AcDbSpline
70
4
71
5
72
19
73
13
74
0
42
0.000000001
43
0.0000000001
44
0.0000000001
40
0.14139112021697625
40
0.14139112021697625
40
0.14139112021697625
40
0.14139112021697625
40
0.14139112021697625
40
0.14139112021697625
40
0.20000000000000001
40
0.30000000000000004
40
0.40000000000000002
40
0.5
40
0.59999999999999998
40
0.69999999999999996
40
0.79999999999999993
40
0.85205273346033683
40
0.85205273346033683
40
0.85205273346033683
40
0.85205273346033683
40
0.85205273346033683
40
0.85205273346033683
41
1
41
1
41
1
41
1
41
1
41
1
41
1
41
1
41
1
41
1
41
1
41
1
41
1
10
-185.64999419450766
20
270.04420486763144
30
0
10
-184.98775451483667
20
270.42062428882207
30
0
10
-183.19614964565079
20
271.40045382558685
30
0
10
-180.27749517536208
20
272.8246070839462
30
0
10
-176.2361625464095
20
274.39275564180576
30
0
10
-171.07917153570881
20
275.6226242425173
30
0
10
-165.47157391442539
20
275.94459613650417
30
0
10
-159.87937578247912
20
275.20858673568858
30
0
10
-154.83677525980988
20
273.62691576689321
30
0
10
-150.9181055385574
20
271.81518998258366
30
0
10
-148.11655344070095
20
270.24149080702881
30
0
10
-146.42790955855878
20
269.19501449144718
30
0
10
-145.84999419451907
20
268.82551141063453
30
0
0
LINE
5
210
100
AcDbEntity
8
0
100
AcDbLine
10
-185.64999419450766
20
270.04420486763144
30
0
11
-185.64999419450766
21
275.68673773109919
31
0
0
LINE
5
211
100
AcDbEntity
8
0
100
AcDbLine
10
-185.64999419450766
20
275.68673773109919
30
0
11
-188.84999419450764
21
275.68673773109919
31
0
0
LINE
5
212
100
AcDbEntity
8
0
100
AcDbLine
10
-188.84999419450764
20
275.68673773109919
30
0
11
-188.84999419450764
21
268.09390613578256
31
0
0
SPLINE
5
213
100
AcDbEntity
8
0
100
AcDbSpline
70
4
71
5
72
12
73
6
74
0
42
0.000000001
43
0.0000000001
44
0.0000000001
40
0
40
0
40
0
40
0
40
0
40
0
40
0.084784612185934416
40
0.084784612185934416
40
0.084784612185934416
40
0.084784612185934416
40
0.084784612185934416
40
0.084784612185934416
41
1
41
1
41
1
41
1
41
1
41
1
10
-193.64999386668205
20
264.68673712015152
30
0
10
-192.68915610181318
20
265.42573185028795
30
0
10
-191.72873603934488
20
266.13602943877117
30
0
10
-190.76873367016623
20
266.81763051153763
30
0
10
-189.80915147945879
20
267.47036433075073
30
0
10
-188.84999419428681
20
268.09390613592609
30
0
0
LINE
5
214
100
AcDbEntity
8
0
100
AcDbLine
10
-193.64999386668205
20
264.68673712015152
30
0
11
-193.64999386668205
21
285.68673713505268
31
0
0
SPLINE
5
215
100
AcDbEntity
8
0
100
AcDbSpline
70
0
71
3
72
12
73
8
74
0
42
0.000000001
43
0.0000000001
44
0.0000000001
40
0
40
0
40
0
40
0
40
2.4759452321929962
40
2.4759452321929962
40
4.5246601881566004
40
4.5246601881566004
40
7.3558492104958724
40
7.3558492104958724
40
7.3558492104958724
40
7.3558492104958724
10
-137.64999347925186
20
283.68673770129681
30
0
10
-144.56971299947327
20
288.18473497335668
30
0
10
-151.35456130032881
20
291.2497215357966
30
0
10
-163.59968564287513
20
293.939569072994
30
0
10
-168.99490397460099
20
294.0239906465182
30
0
10
-182.27035502781874
20
291.5942716962964
30
0
10
-189.00430777899331
20
288.33036110914929
30
0
10
-193.64999386668205
20
285.68673713505268
30
0
0
LINE
5
216
100
AcDbEntity
8
0
100
AcDbLine
10
-137.64999347925186
20
283.68673770129681
30
0
11
-137.64999347925186
21
262.68673738837242
31
0
0
SPLINE
5
217
100
AcDbEntity
8
0
100
AcDbSpline
70
4
71
5
72
12
73
6
74
0
42
0.000000001
43
0.0000000001
44
0.0000000001
40
0.90973326567873558
40
0.90973326567873558
40
0.90973326567873558
40
0.90973326567873558
40
0.90973326567873558
40
0.90973326567873558
40
1
40
1
40
1
40
1
40
1
40
1
41
1
41
1
41
1
41
1
41
1
41
1
10
-142.64999419450766
20
266.64153415022986
30
0
10
-141.64904727208528
20
265.9156207771249
30
0
10
-140.64857830519645
20
265.15687072984736
30
0
10
-139.64858126640587
20
264.3656981074418
30
0
10
-138.64905298610441
20
263.54232066954074
30
0
10
-137.64999347925186
20
262.68673738837242
30
0
0
LINE
5
218
100
AcDbEntity
8
0
100
AcDbLine
10
-142.64999419450766
20
266.64153415022986
30
0
11
-142.64999419450766
21
275.68673773109919
31
0
0
LINE
5
219
100
AcDbEntity
8
0
100
AcDbLine
10
-142.64999419450766
20
275.68673773109919
30
0
11
-145.84999419450764
21
275.68673773109919
31
0
0
LINE
5
220
100
AcDbEntity
8
0
100
AcDbLine
10
-140.17464019060139
20
368.42877264320856
30
0
11
-140.17464019060139
21
361.56754632273658
31
0
0
SPLINE
5
221
100
AcDbEntity
8
0
100
AcDbSpline
70
4
71
5
72
19
73
13
74
0
42
0.000000001
43
0.0000000001
44
0.0000000001
40
0.14139112021697625
40
0.14139112021697625
40
0.14139112021697625
40
0.14139112021697625
40
0.14139112021697625
40
0.14139112021697625
40
0.20000000000000001
40
0.30000000000000004
40
0.40000000000000002
40
0.5
40
0.59999999999999998
40
0.69999999999999996
40
0.79999999999999993
40
0.85205273346033683
40
0.85205273346033683
40
0.85205273346033683
40
0.85205273346033683
40
0.85205273346033683
40
0.85205273346033683
41
1
41
1
41
1
41
1
41
1
41
1
41
1
41
1
41
1
41
1
41
1
41
1
41
1
10
-179.97464019060141
20
362.78623977974075
30
0
10
-179.31240051093042
20
363.16265920093144
30
0
10
-177.52079564174454
20
364.14248873769623
30
0
10
-174.60214117145583
20
365.56664199605558
30
0
10
-170.56080854250325
20
367.13479055391508
30
0
10
-165.40381753180256
20
368.36465915462668
30
0
10
-159.79621991051917
20
368.68663104861349
30
0
10
-154.20402177857287
20
367.95062164779802
30
0
10
-149.16142125590363
20
366.36895067900252
30
0
10
-145.24275153465115
20
364.55722489469309
30
0
10
-142.4411994367947
20
362.98352571913819
30
0
10
-140.75255555465253
20
361.93704940355656
30
0
10
-140.17464019061282
20
361.56754632274391
30
0
0
LINE
5
222
100
AcDbEntity
8
0
100
AcDbLine
10
-179.97464019060141
20
362.78623977974075
30
0
11
-179.97464019060141
21
368.42877264320856
31
0
0
LINE
5
223
100
AcDbEntity
8
0
100
AcDbLine
10
-179.97464019060141
20
368.42877264320856
30
0
11
-183.17464019060139
21
368.42877264320856
31
0
0
LINE
5
224
100
AcDbEntity
8
0
100
AcDbLine
10
-183.17464019060139
20
368.42877264320856
30
0
11
-183.17464019060139
21
360.83594104789194
31
0
0
SPLINE
5
225
100
AcDbEntity
8
0
100
AcDbSpline
70
4
71
5
72
12
73
6
74
0
42
0.000000001
43
0.0000000001
44
0.0000000001
40
0
40
0
40
0
40
0
40
0
40
0
40
0.084784612185934416
40
0.084784612185934416
40
0.084784612185934416
40
0.084784612185934416
40
0.084784612185934416
40
0.084784612185934416
41
1
41
1
41
1
41
1
41
1
41
1
10
-187.9746398627758
20
357.42877203226089
30
0
10
-187.01380209790693
20
358.16776676239726
30
0
10
-186.05338203543863
20
358.87806435088055
30
0
10
-185.09337966625998
20
359.559665423647
30
0
10
-184.13379747555254
20
360.2123992428601
30
0
10
-183.17464019038056
20
360.83594104803547
30
0
0
LINE
5
226
100
AcDbEntity
8
0
100
AcDbLine
10
-187.9746398627758
20
357.42877203226089
30
0
11
-187.9746398627758
21
378.42877204716206
31
0
0
SPLINE
5
227
100
AcDbEntity
8
0
100
AcDbSpline
70
0
71
3
72
12
73
8
74
0
42
0.000000001
43
0.0000000001
44
0.0000000001
40
0
40
0
40
0
40
0
40
2.4759452321929962
40
2.4759452321929962
40
4.5246601881566004
40
4.5246601881566004
40
7.3558492104958724
40
7.3558492104958724
40
7.3558492104958724
40
7.3558492104958724
10
-131.97463947534561
20
376.42877261340618
30
0
10
-138.89435899556702
20
380.92676988546606
30
0
10
-145.67920729642256
20
383.99175644790597
30
0
10
-157.92433163896888
20
386.68160398510332
30
0
10
-163.31954997069474
20
386.76602555862758
30
0
10
-176.59500102391249
20
384.33630660840578
30
0
10
-183.32895377508706
20
381.07239602125867
30
0
10
-187.9746398627758
20
378.42877204716206
30
0
0
LINE
5
228
100
AcDbEntity
8
0
100
AcDbLine
10
-131.97463947534561
20
376.42877261340618
30
0
11
-131.97463947534561
21
355.4287723004818
31
0
0
SPLINE
5
229
100
AcDbEntity
8
0
100
AcDbSpline
70
4
71
5
72
12
73
6
74
0
42
0.000000001
43
0.0000000001
44
0.0000000001
40
0.90973326567873558
40
0.90973326567873558
40
0.90973326567873558
40
0.90973326567873558
40
0.90973326567873558
40
0.90973326567873558
40
1
40
1
40
1
40
1
40
1
40
1
41
1
41
1
41
1
41
1
41
1
41
1
10
-136.97464019060141
20
359.38356906233923
30
0
10
-135.97369326817903
20
358.65765568923422
30
0
10
-134.9732243012902
20
357.89890564195667
30
0
10
-133.97322726249962
20
357.10773301955112
30
0
10
-132.97369898219816
20
356.28435558165017
30
0
10
-131.97463947534561
20
355.4287723004818
30
0
0
LINE
5
230
100
AcDbEntity
8
0
100
AcDbLine
10
-136.97464019060141
20
359.38356906233923
30
0
11
-136.97464019060141
21
368.42877264320856
31
0
0
LINE
5
231
100
AcDbEntity
8
0
100
AcDbLine
10
-136.97464019060141
20
368.42877264320856
30
0
11
-140.17464019060139
21
368.42877264320856
31
0
0
LINE
5
232
100
AcDbEntity
8
0
100
AcDbLine
10
-145.65459014177324
20
401.15320654213434
30
0
11
-145.65459014177324
21
394.29198022166241
31
0
0
SPLINE
5
233
100
AcDbEntity
8
0
100
AcDbSpline
70
4
71
5
72
19
73
13
74
0
42
0.000000001
43
0.0000000001
44
0.0000000001
40
0.14139112021697625
40
0.14139112021697625
40
0.14139112021697625
40
0.14139112021697625
40
0.14139112021697625
40
0.14139112021697625
40
0.20000000000000001
40
0.30000000000000004
40
0.40000000000000002
40
0.5
40
0.59999999999999998
40
0.69999999999999996
40
0.79999999999999993
40
0.85205273346033683
40
0.85205273346033683
40
0.85205273346033683
40
0.85205273346033683
40
0.85205273346033683
40
0.85205273346033683
41
1
41
1
41
1
41
1
41
1
41
1
41
1
41
1
41
1
41
1
41
1
41
1
41
1
10
-185.45459014177322
20
395.51067367866659
30
0
10
-184.79235046210226
20
395.88709309985722
30
0
10
-183.00074559291642
20
396.86692263662195
30
0
10
-180.08209112262767
20
398.29107589498136
30
0
10
-176.04075849367513
20
399.85922445284086
30
0
10
-170.88376748297441
20
401.08909305355246
30
0
10
-165.27616986169102
20
401.41106494753927
30
0
10
-159.68397172974471
20
400.6750555467238
30
0
10
-154.64137120707551
20
399.09338457792842
30
0
10
-150.72270148582299
20
397.28165879361882
30
0
10
-147.92114938796658
20
395.70795961806397
30
0
10
-146.23250550582441
20
394.6614833024824
30
0
10
-145.65459014178467
20
394.29198022166975
30
0
0
LINE
5
234
100
AcDbEntity
8
0
100
AcDbLine
10
-185.45459014177322
20
395.51067367866659
30
0
11
-185.45459014177322
21
401.15320654213434
31
0
0
LINE
5
235
100
AcDbEntity
8
0
100
AcDbLine
10
-185.45459014177322
20
401.15320654213434
30
0
11
-188.65459014177321
21
401.15320654213434
31
0
0
LINE
5
236
100
AcDbEntity
8
0
100
AcDbLine
10
-188.65459014177321
20
401.15320654213434
30
0
11
-188.65459014177321
21
393.56037494681772
31
0
0
SPLINE
5
237
100
AcDbEntity
8
0
100
AcDbSpline
70
4
71
5
72
12
73
6
74
0
42
0.000000001
43
0.0000000001
44
0.0000000001
40
0
40
0
40
0
40
0
40
0
40
0
40
0.084784612185934416
40
0.084784612185934416
40
0.084784612185934416
40
0.084784612185934416
40
0.084784612185934416
40
0.084784612185934416
41
1
41
1
41
1
41
1
41
1
41
1
10
-193.45458981394768
20
390.15320593118668
30
0
10
-192.49375204907878
20
390.89220066132305
30
0
10
-191.53333198661048
20
391.60249824980633
30
0
10
-190.57332961743185
20
392.28409932257279
30
0
10
-189.61374742672439
20
392.93683314178588
30
0
10
-188.65459014155243
20
393.56037494696125
30
0
0
LINE
5
238
100
AcDbEntity
8
0
100
AcDbLine
10
-193.45458981394768
20
390.15320593118668
30
0
11
-193.45458981394768
21
411.15320594608784
31
0
0
SPLINE
5
239
100
AcDbEntity
8
0
100
AcDbSpline
70
0
71
3
72
12
73
8
74
0
42
0.000000001
43
0.0000000001
44
0.0000000001
40
0
40
0
40
0
40
0
40
2.4759452321929962
40
2.4759452321929962
40
4.5246601881566004
40
4.5246601881566004
40
7.3558492104958724
40
7.3558492104958724
40
7.3558492104958724
40
7.3558492104958724
10
-137.45458942651749
20
409.15320651233196
30
0
10
-144.37430894673889
20
413.6512037843919
30
0
10
-151.15915724759441
20
416.71619034683175
30
0
10
-163.40428159014073
20
419.4060378840291
30
0
10
-168.79949992186658
20
419.49045945755336
30
0
10
-182.07495097508433
20
417.06074050733156
30
0
10
-188.8089037262589
20
413.79682992018445
30
0
10
-193.45458981394768
20
411.15320594608784
30
0
0
LINE
5
240
100
AcDbEntity
8
0
100
AcDbLine
10
-137.45458942651749
20
409.15320651233196
30
0
11
-137.45458942651749
21
388.15320619940758
31
0
0
SPLINE
5
241
100
AcDbEntity
8
0
100
AcDbSpline
70
4
71
5
72
12
73
6
74
0
42
0.000000001
43
0.0000000001
44
0.0000000001
40
0.90973326567873558
40
0.90973326567873558
40
0.90973326567873558
40
0.90973326567873558
40
0.90973326567873558
40
0.90973326567873558
40
1
40
1
40
1
40
1
40
1
40
1
41
1
41
1
41
1
41
1
41
1
41
1
10
-142.45459014177331
20
392.10800296126507
30
0
10
-141.45364321935091
20
391.38208958816006
30
0
10
-140.45317425246208
20
390.62333954088245
30
0
10
-139.45317721367147
20
389.83216691847701
30
0
10
-138.45364893337
20
389.00878948057596
30
0
10
-137.45458942651749
20
388.15320619940758
30
0
0
LINE
5
242
100
AcDbEntity
8
0
100
AcDbLine
10
-142.45459014177331
20
392.10800296126507
30
0
11
-142.45459014177331
21
401.15320654213434
31
0
0
LINE
5
243
100
AcDbEntity
8
0
100
AcDbLine
10
-142.45459014177331
20
401.15320654213434
30
0
11
-145.65459014177324
21
401.15320654213434
31
0
0
LINE
5
244
100
AcDbEntity
8
0
100
AcDbLine
10
-77.824634087085741
20
359.89712591469294
30
0
11
-77.824634087085741
21
353.03589959422095
31
0
0
SPLINE
5
245
100
AcDbEntity
8
0
100
AcDbSpline
70
4
71
5
72
19
73
13
74
0
42
0.000000001
43
0.0000000001
44
0.0000000001
40
0.14139112021697625
40
0.14139112021697625
40
0.14139112021697625
40
0.14139112021697625
40
0.14139112021697625
40
0.14139112021697625
40
0.20000000000000001
40
0.30000000000000004
40
0.40000000000000002
40
0.5
40
0.59999999999999998
40
0.69999999999999996
40
0.79999999999999993
40
0.85205273346033683
40
0.85205273346033683
40
0.85205273346033683
40
0.85205273346033683
40
0.85205273346033683
40
0.85205273346033683
41
1
41
1
41
1
41
1
41
1
41
1
41
1
41
1
41
1
41
1
41
1
41
1
41
1
10
-117.62463408708572
20
354.25459305122513
30
0
10
-116.96239440741478
20
354.63101247241582
30
0
10
-115.1707895382289
20
355.6108420091806
30
0
10
-112.25213506794019
20
357.03499526753995
30
0
10
-108.21080243898761
20
358.60314382539946
30
0
10
-103.05381142828691
20
359.83301242611105
30
0
10
-97.446213807003517
20
360.15498432009787
30
0
10
-91.854015675057212
20
359.41897491928239
30
0
10
-86.811415152387994
20
357.8373039504869
30
0
10
-82.892745431135495
20
356.02557816617747
30
0
10
-80.09119333327908
20
354.45187899062256
30
0
10
-78.402549451136892
20
353.40540267504093
30
0
10
-77.824634087097166
20
353.03589959422828
30
0
0
LINE
5
246
100
AcDbEntity
8
0
100
AcDbLine
10
-117.62463408708572
20
354.25459305122513
30
0
11
-117.62463408708575
21
359.89712591469294
31
0
0
LINE
5
247
100
AcDbEntity
8
0
100
AcDbLine
10
-117.62463408708575
20
359.89712591469294
30
0
11
-120.82463408708574
21
359.89712591469294
31
0
0
LINE
5
248
100
AcDbEntity
8
0
100
AcDbLine
10
-120.82463408708574
20
359.89712591469294
30
0
11
-120.82463408708574
21
352.30429431937631
31
0
0
SPLINE
5
249
100
AcDbEntity
8
0
100
AcDbSpline
70
4
71
5
72
12
73
6
74
0
42
0.000000001
43
0.0000000001
44
0.0000000001
40
0
40
0
40
0
40
0
40
0
40
0
40
0.084784612185934416
40
0.084784612185934416
40
0.084784612185934416
40
0.084784612185934416
40
0.084784612185934416
40
0.084784612185934416
41
1
41
1
41
1
41
1
41
1
41
1
10
-125.62463375926016
20
348.89712530374527
30
0
10
-124.66379599439129
20
349.63612003388164
30
0
10
-123.70337593192296
20
350.34641762236492
30
0
10
-122.74337356274435
20
351.02801869513138
30
0
10
-121.7837913720369
20
351.68075251434448
30
0
10
-120.82463408686493
20
352.30429431951984
30
0
0
LINE
5
250
100
AcDbEntity
8
0
100
AcDbLine
10
-125.62463375926016
20
348.89712530374527
30
0
11
-125.62463375926016
21
369.89712531864643
31
0
0
SPLINE
5
251
100
AcDbEntity
8
0
100
AcDbSpline
70
0
71
3
72
12
73
8
74
0
42
0.000000001
43
0.0000000001
44
0.0000000001
40
0
40
0
40
0
40
0
40
2.4759452321929962
40
2.4759452321929962
40
4.5246601881566004
40
4.5246601881566004
40
7.3558492104958724
40
7.3558492104958724
40
7.3558492104958724
40
7.3558492104958724
10
-69.624633371829972
20
367.89712588489056
30
0
10
-76.544352892051378
20
372.39512315695043
30
0
10
-83.329201192906908
20
375.46010971939035
30
0
10
-95.574325535453241
20
378.1499572565877
30
0
10
-100.9695438671791
20
378.23437883011195
30
0
10
-114.24499492039683
20
375.80465987989015
30
0
10
-120.9789476715714
20
372.54074929274304
30
0
10
-125.62463375926016
20
369.89712531864643
30
0
0
LINE
5
252
100
AcDbEntity
8
0
100
AcDbLine
10
-69.624633371829972
20
367.89712588489056
30
0
11
-69.624633371829972
21
346.89712557196617
31
0
0
SPLINE
5
253
100
AcDbEntity
8
0
100
AcDbSpline
70
4
71
5
72
12
73
6
74
0
42
0.000000001
43
0.0000000001
44
0.0000000001
40
0.90973326567873558
40
0.90973326567873558
40
0.90973326567873558
40
0.90973326567873558
40
0.90973326567873558
40
0.90973326567873558
40
1
40
1
40
1
40
1
40
1
40
1
41
1
41
1
41
1
41
1
41
1
41
1
10
-74.624634087085781
20
350.85192233382361
30
0
10
-73.623687164663409
20
350.12600896071859
30
0
10
-72.623218197774563
20
349.36725891344105
30
0
10
-71.623221158983952
20
348.57608629103549
30
0
10
-70.623692878682505
20
347.75270885313455
30
0
10
-69.624633371829972
20
346.89712557196617
30
0
0
LINE
5
254
100
AcDbEntity
8
0
100
AcDbLine
10
-74.624634087085781
20
350.85192233382361
30
0
11
-74.624634087085781
21
359.89712591469294
31
0
0
LINE
5
255
100
AcDbEntity
8
0
100
AcDbLine
10
-74.624634087085781
20
359.89712591469294
30
0
11
-77.824634087085741
21
359.89712591469294
31
0
0
LINE
5
256
100
AcDbEntity
8
0
100
AcDbLine
10
-79.861316215991977
20
395.0656821280719
30
0
11
-79.861316215991977
21
388.20445580759997
31
0
0
SPLINE
5
257
100
AcDbEntity
8
0
100
AcDbSpline
70
4
71
5
72
19
73
13
74
0
42
0.000000001
43
0.0000000001
44
0.0000000001
40
0.14139112021697625
40
0.14139112021697625
40
0.14139112021697625
40
0.14139112021697625
40
0.14139112021697625
40
0.14139112021697625
40
0.20000000000000001
40
0.30000000000000004
40
0.40000000000000002
40
0.5
40
0.59999999999999998
40
0.69999999999999996
40
0.79999999999999993
40
0.85205273346033683
40
0.85205273346033683
40
0.85205273346033683
40
0.85205273346033683
40
0.85205273346033683
40
0.85205273346033683
41
1
41
1
41
1
41
1
41
1
41
1
41
1
41
1
41
1
41
1
41
1
41
1
41
1
10
-119.66131621599197
20
389.42314926460415
30
0
10
-118.99907653632101
20
389.79956868579478
30
0
10
-117.20747166713515
20
390.77939822255956
30
0
10
-114.28881719684642
20
392.20355148091892
30
0
10
-110.24748456789385
20
393.77170003877842
30
0
10
-105.09049355719314
20
395.00156863949002
30
0
10
-99.482895935909767
20
395.32354053347683
30
0
10
-93.890697803963462
20
394.58753113266135
30
0
10
-88.848097281294244
20
393.00586016386592
30
0
10
-84.929427560041745
20
391.19413437955643
30
0
10
-82.12787546218533
20
389.62043520400152
30
0
10
-80.439231580043128
20
388.57395888841995
30
0
10
-79.861316216003416
20
388.20445580760725
30
0
0
LINE
5
258
100
AcDbEntity
8
0
100
AcDbLine
10
-119.66131621599197
20
389.42314926460415
30
0
11
-119.661316215992
21
395.0656821280719
31
0
0
LINE
5
259
100
AcDbEntity
8
0
100
AcDbLine
10
-119.661316215992
20
395.0656821280719
30
0
11
-122.86131621599198
21
395.0656821280719
31
0
0
LINE
5
260
100
AcDbEntity
8
0
100
AcDbLine
10
-122.86131621599198
20
395.0656821280719
30
0
11
-122.86131621599198
21
387.47285053275527
31
0
0
SPLINE
5
261
100
AcDbEntity
8
0
100
AcDbSpline
70
4
71
5
72
12
73
6
74
0
42
0.000000001
43
0.0000000001
44
0.0000000001
40
0
40
0
40
0
40
0
40
0
40
0
40
0.084784612185934416
40
0.084784612185934416
40
0.084784612185934416
40
0.084784612185934416
40
0.084784612185934416
40
0.084784612185934416
41
1
41
1
41
1
41
1
41
1
41
1
10
-127.66131588816641
20
384.06568151712418
30
0
10
-126.70047812329754
20
384.8046762472606
30
0
10
-125.74005806082923
20
385.51497383574383
30
0
10
-124.7800556916506
20
386.19657490851034
30
0
10
-123.82047350094314
20
386.84930872772338
30
0
10
-122.86131621577118
20
387.4728505328988
30
0
0
LINE
5
262
100
AcDbEntity
8
0
100
AcDbLine
10
-127.66131588816641
20
384.06568151712418
30
0
11
-127.66131588816641
21
405.06568153202534
31
0
0
SPLINE
5
263
100
AcDbEntity
8
0
100
AcDbSpline
70
0
71
3
72
12
73
8
74
0
42
0.000000001
43
0.0000000001
44
0.0000000001
40
0
40
0
40
0
40
0
40
2.4759452321929962
40
2.4759452321929962
40
4.5246601881566004
40
4.5246601881566004
40
7.3558492104958724
40
7.3558492104958724
40
7.3558492104958724
40
7.3558492104958724
10
-71.661315500736222
20
403.06568209826946
30
0
10
-78.581035020957614
20
407.5636793703294
30
0
10
-85.365883321813158
20
410.62866593276931
30
0
10
-97.611007664359477
20
413.31851346996666
30
0
10
-103.00622599608533
20
413.40293504349091
30
0
10
-116.28167704930308
20
410.97321609326912
30
0
10
-123.01562980047765
20
407.70930550612201
30
0
10
-127.66131588816641
20
405.06568153202534
30
0
0
LINE
5
264
100
AcDbEntity
8
0
100
AcDbLine
10
-71.661315500736222
20
403.06568209826946
30
0
11
-71.661315500736222
21
382.06568178534508
31
0
0
SPLINE
5
265
100
AcDbEntity
8
0
100
AcDbSpline
70
4
71
5
72
12
73
6
74
0
42
0.000000001
43
0.0000000001
44
0.0000000001
40
0.90973326567873558
40
0.90973326567873558
40
0.90973326567873558
40
0.90973326567873558
40
0.90973326567873558
40
0.90973326567873558
40
1
40
1
40
1
40
1
40
1
40
1
41
1
41
1
41
1
41
1
41
1
41
1
10
-76.661316215992031
20
386.02047854720252
30
0
10
-75.660369293569659
20
385.29456517409756
30
0
10
-74.659900326680798
20
384.53581512682001
30
0
10
-73.659903287890202
20
383.74464250441451
30
0
10
-72.660375007588755
20
382.92126506651351
30
0
10
-71.661315500736222
20
382.06568178534508
30
0
0
LINE
5
266
100
AcDbEntity
8
0
100
AcDbLine
10
-76.661316215992031
20
386.02047854720252
30
0
11
-76.661316215992031
21
395.0656821280719
31
0
0
LINE
5
267
100
AcDbEntity
8
0
100
AcDbLine
10
-76.661316215992031
20
395.0656821280719
30
0
11
-79.861316215991977
21
395.0656821280719
31
0
0
LINE
5
268
100
AcDbEntity
8
0
100
AcDbLine
10
-75.775646674633009
20
425.97924737632269
30
0
11
-75.775646674633009
21
432.84047369679462
31
0
0
SPLINE
5
269
100
AcDbEntity
8
0
100
AcDbSpline
70
4
71
5
72
19
73
13
74
0
42
0.000000001
43
0.0000000001
44
0.0000000001
40
0.14139112021697625
40
0.14139112021697625
40
0.14139112021697625
40
0.14139112021697625
40
0.14139112021697625
40
0.14139112021697625
40
0.20000000000000001
40
0.30000000000000004
40
0.40000000000000002
40
0.5
40
0.59999999999999998
40
0.69999999999999996
40
0.79999999999999993
40
0.85205273346033683
40
0.85205273346033683
40
0.85205273346033683
40
0.85205273346033683
40
0.85205273346033683
40
0.85205273346033683
41
1
41
1
41
1
41
1
41
1
41
1
41
1
41
1
41
1
41
1
41
1
41
1
41
1
10
-35.975646674633012
20
431.62178023979044
30
0
10
-36.637886354303966
20
431.24536081859981
30
0
10
-38.42949122348984
20
430.26553128183508
30
0
10
-41.348145693778555
20
428.84137802347567
30
0
10
-45.389478322731136
20
427.27322946561617
30
0
10
-50.546469333431844
20
426.04336086490457
30
0
10
-56.154066954715233
20
425.72138897091776
30
0
10
-61.746265086661523
20
426.45739837173323
30
0
10
-66.788865609330742
20
428.03906934052861
30
0
10
-70.707535330583255
20
429.85079512483821
30
0
10
-73.50908742843967
20
431.42449430039306
30
0
10
-75.197731310581858
20
432.47097061597464
30
0
10
-75.775646674621569
20
432.84047369678729
30
0
0
LINE
5
270
100
AcDbEntity
8
0
100
AcDbLine
10
-35.975646674633012
20
431.62178023979044
30
0
11
-35.975646674632998
21
425.97924737632269
31
0
0
LINE
5
271
100
AcDbEntity
8
0
100
AcDbLine
10
-35.975646674632998
20
425.97924737632269
30
0
11
-32.775646674633009
21
425.97924737632269
31
0
0
LINE
5
272
100
AcDbEntity
8
0
100
AcDbLine
10
-32.775646674633009
20
425.97924737632269
30
0
11
-32.775646674633009
21
433.57207897163931
31
0
0
SPLINE
5
273
100
AcDbEntity
8
0
100
AcDbSpline
70
4
71
5
72
12
73
6
74
0
42
0.000000001
43
0.0000000001
44
0.0000000001
40
0
40
0
40
0
40
0
40
0
40
0
40
0.084784612185934416
40
0.084784612185934416
40
0.084784612185934416
40
0.084784612185934416
40
0.084784612185934416
40
0.084784612185934416
41
1
41
1
41
1
41
1
41
1
41
1
10
-27.975647002458576
20
436.97924798727036
30
0
10
-28.93648476732745
20
436.24025325713399
30
0
10
-29.896904829795773
20
435.5299556686507
30
0
10
-30.85690719897439
20
434.84835459588425
30
0
10
-31.816489389681845
20
434.19562077667115
30
0
10
-32.775646674853817
20
433.57207897149578
30
0
0
LINE
5
274
100
AcDbEntity
8
0
100
AcDbLine
10
-27.975647002458576
20
436.97924798727036
30
0
11
-27.975647002458576
21
415.97924797236919
31
0
0
SPLINE
5
275
100
AcDbEntity
8
0
100
AcDbSpline
70
0
71
3
72
12
73
8
74
0
42
0.000000001
43
0.0000000001
44
0.0000000001
40
0
40
0
40
0
40
0
40
2.4759452321929962
40
2.4759452321929962
40
4.5246601881566004
40
4.5246601881566004
40
7.3558492104958724
40
7.3558492104958724
40
7.3558492104958724
40
7.3558492104958724
10
-83.975647389888763
20
417.97924740612507
30
0
10
-77.055927869667357
20
413.48125013406514
30
0
10
-70.271079568811828
20
410.41626357162528
30
0
10
-58.025955226265502
20
407.72641603442793
30
0
10
-52.630736894539666
20
407.64199446090367
30
0
10
-39.355285841321916
20
410.07171341112547
30
0
10
-32.621333090147346
20
413.33562399827258
30
0
10
-27.975647002458576
20
415.97924797236919
30
0
0
LINE
5
276
100
AcDbEntity
8
0
100
AcDbLine
10
-83.975647389888763
20
417.97924740612507
30
0
11
-83.975647389888763
21
438.97924771904945
31
0
0
SPLINE
5
277
100
AcDbEntity
8
0
100
AcDbSpline
70
4
71
5
72
12
73
6
74
0
42
0.000000001
43
0.0000000001
44
0.0000000001
40
0.90973326567873558
40
0.90973326567873558
40
0.90973326567873558
40
0.90973326567873558
40
0.90973326567873558
40
0.90973326567873558
40
1
40
1
40
1
40
1
40
1
40
1
41
1
41
1
41
1
41
1
41
1
41
1
10
-78.975646674632969
20
435.02445095719202
30
0
10
-79.976593597055341
20
435.75036433029703
30
0
10
-80.977062563944187
20
436.50911437757458
30
0
10
-81.977059602734798
20
437.30028699998007
30
0
10
-82.976587883036231
20
438.12366443788108
30
0
10
-83.975647389888763
20
438.97924771904945
30
0
0
LINE
5
278
100
AcDbEntity
8
0
100
AcDbLine
10
-78.975646674632969
20
435.02445095719202
30
0
11
-78.975646674632969
21
425.97924737632269
31
0
0
LINE
5
279
100
AcDbEntity
8
0
100
AcDbLine
10
-78.975646674632969
20
425.97924737632269
30
0
11
-75.775646674633009
21
425.97924737632269
31
0
0
LINE
5
280
100
AcDbEntity
8
0
100
AcDbLine
10
-48.211058899760175
20
350.56386138200764
30
0
11
-55.072285220232118
21
350.56386138200764
31
0
0
SPLINE
5
281
100
AcDbEntity
8
0
100
AcDbSpline
70
4
71
5
72
19
73
13
74
0
42
0.000000001
43
0.0000000001
44
0.0000000001
40
0.14139112021697625
40
0.14139112021697625
40
0.14139112021697625
40
0.14139112021697625
40
0.14139112021697625
40
0.14139112021697625
40
0.20000000000000001
40
0.30000000000000004
40
0.40000000000000002
40
0.5
40
0.59999999999999998
40
0.69999999999999996
40
0.79999999999999993
40
0.85205273346033683
40
0.85205273346033683
40
0.85205273346033683
40
0.85205273346033683
40
0.85205273346033683
40
0.85205273346033683
41
1
41
1
41
1
41
1
41
1
41
1
41
1
41
1
41
1
41
1
41
1
41
1
41
1
10
-53.853591763227925
20
390.3638613820076
30
0
10
-53.477172342037306
20
389.70162170233664
30
0
10
-52.497342805272531
20
387.91001683315079
30
0
10
-51.073189546913149
20
384.99136236286205
30
0
10
-49.505040989053612
20
380.95002973390945
30
0
10
-48.275172388342042
20
375.79303872320878
30
0
10
-47.953200494355215
20
370.18544110192545
30
0
10
-48.689209895170748
20
364.59324296997914
30
0
10
-50.270880863966134
20
359.55064244730988
30
0
10
-52.082606648275664
20
355.63197272605743
30
0
10
-53.656305823830564
20
352.83042062820095
30
0
10
-54.70278213941215
20
351.14177674605878
30
0
10
-55.072285220224813
20
350.56386138201907
30
0
0
LINE
5
282
100
AcDbEntity
8
0
100
AcDbLine
10
-53.853591763227925
20
390.3638613820076
30
0
11
-48.211058899760175
21
390.3638613820076
31
0
0
LINE
5
283
100
AcDbEntity
8
0
100
AcDbLine
10
-48.211058899760175
20
390.3638613820076
30
0
11
-48.211058899760168
21
393.56386138200764
31
0
0
LINE
5
284
100
AcDbEntity
8
0
100
AcDbLine
10
-48.211058899760168
20
393.56386138200764
30
0
11
-55.8038904950768
21
393.56386138200764
31
0
0
SPLINE
5
285
100
AcDbEntity
8
0
100
AcDbSpline
70
4
71
5
72
12
73
6
74
0
42
0.000000001
43
0.0000000001
44
0.0000000001
40
0
40
0
40
0
40
0
40
0
40
0
40
0.084784612185934416
40
0.084784612185934416
40
0.084784612185934416
40
0.084784612185934416
40
0.084784612185934416
40
0.084784612185934416
41
1
41
1
41
1
41
1
41
1
41
1
10
-59.211059510707841
20
398.36386105418205
30
0
10
-58.472064780571429
20
397.40302328931318
30
0
10
-57.761767192088207
20
396.44260322684488
30
0
10
-57.080166119321738
20
395.48260085766623
30
0
10
-56.427432300108649
20
394.52301866695876
30
0
10
-55.80389049493327
20
393.56386138178686
30
0
0
LINE
5
286
100
AcDbEntity
8
0
100
AcDbLine
10
-59.211059510707841
20
398.36386105418205
30
0
11
-38.211059495806666
21
398.36386105418205
31
0
0
SPLINE
5
287
100
AcDbEntity
8
0
100
AcDbSpline
70
0
71
3
72
12
73
8
74
0
42
0.000000001
43
0.0000000001
44
0.0000000001
40
0
40
0
40
0
40
0
40
2.4759452321929962
40
2.4759452321929962
40
4.5246601881566004
40
4.5246601881566004
40
7.3558492104958724
40
7.3558492104958724
40
7.3558492104958724
40
7.3558492104958724
10
-40.211058929562576
20
342.36386066675186
30
0
10
-35.713061657502678
20
349.28358018697327
30
0
10
-32.648075095062772
20
356.06842848782884
30
0
10
-29.958227557865396
20
368.3135528303751
30
0
10
-29.873805984341153
20
373.70877116210096
30
0
10
-32.303524934562944
20
386.98422221531871
30
0
10
-35.56743552171006
20
393.71817496649328
30
0
10
-38.211059495806666
20
398.36386105418205
30
0
0
LINE
5
288
100
AcDbEntity
8
0
100
AcDbLine
10
-40.211058929562576
20
342.36386066675186
30
0
11
-61.211059242486961
21
342.36386066675186
31
0
0
SPLINE
5
289
100
AcDbEntity
8
0
100
AcDbSpline
70
4
71
5
72
12
73
6
74
0
42
0.000000001
43
0.0000000001
44
0.0000000001
40
0.90973326567873558
40
0.90973326567873558
40
0.90973326567873558
40
0.90973326567873558
40
0.90973326567873558
40
0.90973326567873558
40
1
40
1
40
1
40
1
40
1
40
1
41
1
41
1
41
1
41
1
41
1
41
1
10
-57.256262480629481
20
347.36386138200771
30
0
10
-57.982175853734468
20
346.36291445958528
30
0
10
-58.740925901012048
20
345.36244549269645
30
0
10
-59.532098523417538
20
344.36244845390581
30
0
10
-60.355475961318589
20
343.36292017360444
30
0
10
-61.211059242486954
20
342.36386066675186
30
0
0
LINE
5
290
100
AcDbEntity
8
0
100
AcDbLine
10
-57.256262480629481
20
347.36386138200771
30
0
11
-48.211058899760182
21
347.36386138200771
31
0
0
LINE
5
291
100
AcDbEntity
8
0
100
AcDbLine
10
-48.211058899760182
20
347.36386138200771
30
0
11
-48.211058899760175
21
350.56386138200764
31
0
0
LINE
5
292
100
AcDbEntity
8
0
100
AcDbLine
10
-4.1928677439688888
20
363.58822564780701
30
0
11
-4.1928677439688897
21
370.44945196827894
31
0
0
SPLINE
5
293
100
AcDbEntity
8
0
100
AcDbSpline
70
4
71
5
72
19
73
13
74
0
42
0.000000001
43
0.0000000001
44
0.0000000001
40
0.14139112021697625
40
0.14139112021697625
40
0.14139112021697625
40
0.14139112021697625
40
0.14139112021697625
40
0.14139112021697625
40
0.20000000000000001
40
0.30000000000000004
40
0.40000000000000002
40
0.5
40
0.59999999999999998
40
0.69999999999999996
40
0.79999999999999993
40
0.85205273346033683
40
0.85205273346033683
40
0.85205273346033683
40
0.85205273346033683
40
0.85205273346033683
40
0.85205273346033683
41
1
41
1
41
1
41
1
41
1
41
1
41
1
41
1
41
1
41
1
41
1
41
1
41
1
10
35.607132256031107
20
369.23075851127476
30
0
10
34.944892576360154
20
368.85433909008412
30
0
10
33.153287707174279
20
367.87450955331934
30
0
10
30.234633236885561
20
366.45035629495999
30
0
10
26.193300607932983
20
364.88220773710049
30
0
10
21.036309597232279
20
363.65233913638889
30
0
10
15.428711975948888
20
363.33036724240208
30
0
10
9.8365138440025905
20
364.06637664321755
30
0
10
4.7939133213333696
20
365.64804761201299
30
0
10
0.87524360008086832
20
367.45977339632248
30
0
10
-1.9263084977755551
20
369.03347257187738
30
0
10
-3.614952379917733
20
370.07994888745895
30
0
10
-4.192867743957458
20
370.44945196827166
30
0
0
LINE
5
294
100
AcDbEntity
8
0
100
AcDbLine
10
35.607132256031107
20
369.23075851127476
30
0
11
35.607132256031122
21
363.58822564780701
31
0
0
LINE
5
295
100
AcDbEntity
8
0
100
AcDbLine
10
35.607132256031122
20
363.58822564780701
30
0
11
38.80713225603111
21
363.58822564780701
31
0
0
LINE
5
296
100
AcDbEntity
8
0
100
AcDbLine
10
38.80713225603111
20
363.58822564780701
30
0
11
38.80713225603111
21
371.18105724312363
31
0
0
SPLINE
5
297
100
AcDbEntity
8
0
100
AcDbSpline
70
4
71
5
72
12
73
6
74
0
42
0.000000001
43
0.0000000001
44
0.0000000001
40
0
40
0
40
0
40
0
40
0
40
0
40
0.084784612185934416
40
0.084784612185934416
40
0.084784612185934416
40
0.084784612185934416
40
0.084784612185934416
40
0.084784612185934416
41
1
41
1
41
1
41
1
41
1
41
1
10
43.607131928205547
20
374.58822625875473
30
0
10
42.646294163336677
20
373.8492315286183
30
0
10
41.685874100868347
20
373.13893394013508
30
0
10
40.725871731689729
20
372.45733286736856
30
0
10
39.766289540982271
20
371.80459904815552
30
0
10
38.807132255810302
20
371.1810572429801
30
0
0
LINE
5
298
100
AcDbEntity
8
0
100
AcDbLine
10
43.607131928205547
20
374.58822625875473
30
0
11
43.607131928205547
21
353.58822624385357
31
0
0
SPLINE
5
299
100
AcDbEntity
8
0
100
AcDbSpline
70
0
71
3
72
12
73
8
74
0
42
0.000000001
43
0.0000000001
44
0.0000000001
40
0
40
0
40
0
40
0
40
2.4759452321929962
40
2.4759452321929962
40
4.5246601881566004
40
4.5246601881566004
40
7.3558492104958724
40
7.3558492104958724
40
7.3558492104958724
40
7.3558492104958724
10
-12.392868459224648
20
355.58822567760944
30
0
10
-5.4731489390032495
20
351.09022840554951
30
0
10
1.3116993618522832
20
348.0252418431096
30
0
10
13.556823704398614
20
345.33539430591225
30
0
10
18.95204203612446
20
345.25097273238799
30
0
10
32.227493089342204
20
347.68069168260979
30
0
10
38.961445840516774
20
350.9446022697569
30
0
10
43.607131928205547
20
353.58822624385357
30
0
0
LINE
5
300
100
AcDbEntity
8
0
100
AcDbLine
10
-12.392868459224648
20
355.58822567760944
30
0
11
-12.392868459224646
21
376.58822599053383
31
0
0
SPLINE
5
301
100
AcDbEntity
8
0
100
AcDbSpline
70
4
71
5
72
12
73
6
74
0
42
0.000000001
43
0.0000000001
44
0.0000000001
40
0.90973326567873558
40
0.90973326567873558
40
0.90973326567873558
40
0.90973326567873558
40
0.90973326567873558
40
0.90973326567873558
40
1
40
1
40
1
40
1
40
1
40
1
41
1
41
1
41
1
41
1
41
1
41
1
10
-7.3928677439688384
20
372.63342922867639
30
0
10
-8.3938146663912239
20
373.35934260178135
30
0
10
-9.3942836332800681
20
374.11809264905889
30
0
10
-10.394280672070671
20
374.90926527146439
30
0
10
-11.393808952372119
20
375.73264270936539
30
0
10
-12.392868459224648
20
376.58822599053383
30
0
0
LINE
5
302
100
AcDbEntity
8
0
100
AcDbLine
10
-7.3928677439688384
20
372.63342922867639
30
0
11
-7.3928677439688482
21
363.58822564780701
31
0
0
LINE
5
303
100
AcDbEntity
8
0
100
AcDbLine
10
-7.3928677439688482
20
363.58822564780701
30
0
11
-4.1928677439688888
21
363.58822564780701
31
0
0
LINE
5
304
100
AcDbEntity
8
0
100
AcDbLine
10
-13.425655829906422
20
396.67829827964295
30
0
11
-13.425655829906425
21
403.53952460011493
31
0
0
SPLINE
5
305
100
AcDbEntity
8
0
100
AcDbSpline
70
4
71
5
72
19
73
13
74
0
42
0.000000001
43
0.0000000001
44
0.0000000001
40
0.14139112021697625
40
0.14139112021697625
40
0.14139112021697625
40
0.14139112021697625
40
0.14139112021697625
40
0.14139112021697625
40
0.20000000000000001
40
0.30000000000000004
40
0.40000000000000002
40
0.5
40
0.59999999999999998
40
0.69999999999999996
40
0.79999999999999993
40
0.85205273346033683
40
0.85205273346033683
40
0.85205273346033683
40
0.85205273346033683
40
0.85205273346033683
40
0.85205273346033683
41
1
41
1
41
1
41
1
41
1
41
1
41
1
41
1
41
1
41
1
41
1
41
1
41
1
10
26.374344170093565
20
402.32083114311075
30
0
10
25.712104490422618
20
401.94441172192006
30
0
10
23.920499621236743
20
400.96458218515534
30
0
10
21.001845150948022
20
399.54042892679593
30
0
10
16.96051252199544
20
397.97228036893642
30
0
10
11.803521511294743
20
396.74241176822483
30
0
10
6.1959238900113531
20
396.42043987423801
30
0
10
0.60372575806505568
20
397.15644927505355
30
0
10
-4.4388747646041633
20
398.73812024384893
30
0
10
-8.3575444858566641
20
400.54984602815853
30
0
10
-11.159096583713088
20
402.12354520371332
30
0
10
-12.847740465855267
20
403.17002151929495
30
0
10
-13.425655829894991
20
403.5395246001076
30
0
0
LINE
5
306
100
AcDbEntity
8
0
100
AcDbLine
10
26.374344170093565
20
402.32083114311075
30
0
11
26.374344170093586
21
396.67829827964295
31
0
0
LINE
5
307
100
AcDbEntity
8
0
100
AcDbLine
10
26.374344170093586
20
396.67829827964295
30
0
11
29.574344170093568
21
396.67829827964295
31
0
0
LINE
5
308
100
AcDbEntity
8
0
100
AcDbLine
10
29.574344170093568
20
396.67829827964295
30
0
11
29.574344170093568
21
404.27112987495957
31
0
0
SPLINE
5
309
100
AcDbEntity
8
0
100
AcDbSpline
70
4
71
5
72
12
73
6
74
0
42
0.000000001
43
0.0000000001
44
0.0000000001
40
0
40
0
40
0
40
0
40
0
40
0
40
0.084784612185934416
40
0.084784612185934416
40
0.084784612185934416
40
0.084784612185934416
40
0.084784612185934416
40
0.084784612185934416
41
1
41
1
41
1
41
1
41
1
41
1
10
34.374343842268004
20
407.67829889059067
30
0
10
33.413506077399127
20
406.93930416045424
30
0
10
32.453086014930804
20
406.22900657197101
30
0
10
31.49308364575219
20
405.5474054992045
30
0
10
30.533501455044735
20
404.89467167999146
30
0
10
29.574344169872763
20
404.2711298748161
30
0
0
LINE
5
310
100
AcDbEntity
8
0
100
AcDbLine
10
34.374343842268004
20
407.67829889059067
30
0
11
34.374343842268004
21
386.67829887568951
31
0
0
SPLINE
5
311
100
AcDbEntity
8
0
100
AcDbSpline
70
0
71
3
72
12
73
8
74
0
42
0.000000001
43
0.0000000001
44
0.0000000001
40
0
40
0
40
0
40
0
40
2.4759452321929962
40
2.4759452321929962
40
4.5246601881566004
40
4.5246601881566004
40
7.3558492104958724
40
7.3558492104958724
40
7.3558492104958724
40
7.3558492104958724
10
-21.62565654516218
20
388.67829830944538
30
0
10
-14.705937024940781
20
384.18030103738545
30
0
10
-7.9210887240852497
20
381.11531447494554
30
0
10
4.3240356184610782
20
378.42546693774818
30
0
10
9.7192539501869231
20
378.34104536422393
30
0
10
22.994705003404672
20
380.77076431444573
30
0
10
29.728657754579238
20
384.03467490159289
30
0
10
34.374343842268004
20
386.67829887568951
30
0
0
LINE
5
312
100
AcDbEntity
8
0
100
AcDbLine
10
-21.62565654516218
20
388.67829830944538
30
0
11
-21.625656545162176
21
409.67829862236977
31
0
0
SPLINE
5
313
100
AcDbEntity
8
0
100
AcDbSpline
70
4
71
5
72
12
73
6
74
0
42
0.000000001
43
0.0000000001
44
0.0000000001
40
0.90973326567873558
40
0.90973326567873558
40
0.90973326567873558
40
0.90973326567873558
40
0.90973326567873558
40
0.90973326567873558
40
1
40
1
40
1
40
1
40
1
40
1
41
1
41
1
41
1
41
1
41
1
41
1
10
-16.625655829906371
20
405.72350186051233
30
0
10
-17.626602752328754
20
406.44941523361729
30
0
10
-18.627071719217597
20
407.20816528089483
30
0
10
-19.6270687580082
20
407.99933790330039
30
0
10
-20.626597038309651
20
408.82271534120139
30
0
10
-21.62565654516218
20
409.67829862236977
30
0
0
LINE
5
314
100
AcDbEntity
8
0
100
AcDbLine
10
-16.625655829906371
20
405.72350186051233
30
0
11
-16.625655829906378
21
396.67829827964295
31
0
0
LINE
5
315
100
AcDbEntity
8
0
100
AcDbLine
10
-16.625655829906378
20
396.67829827964295
30
0
11
-13.425655829906422
21
396.67829827964295
31
0
0
LINE
5
316
100
AcDbEntity
8
0
100
AcDbLine
10
97.757122504711134
20
358.67840643227106
30
0
11
97.757122504711134
21
351.81718011179908
31
0
0
SPLINE
5
317
100
AcDbEntity
8
0
100
AcDbSpline
70
4
71
5
72
19
73
13
74
0
42
0.000000001
43
0.0000000001
44
0.0000000001
40
0.14139112021697625
40
0.14139112021697625
40
0.14139112021697625
40
0.14139112021697625
40
0.14139112021697625
40
0.14139112021697625
40
0.20000000000000001
40
0.30000000000000004
40
0.40000000000000002
40
0.5
40
0.59999999999999998
40
0.69999999999999996
40
0.79999999999999993
40
0.85205273346033683
40
0.85205273346033683
40
0.85205273346033683
40
0.85205273346033683
40
0.85205273346033683
40
0.85205273346033683
41
1
41
1
41
1
41
1
41
1
41
1
41
1
41
1
41
1
41
1
41
1
41
1
41
1
10
57.957122504711137
20
353.03587356880325
30
0
10
58.619362184382098
20
353.41229298999394
30
0
10
60.410967053567965
20
354.39212252675873
30
0
10
63.329621523856687
20
355.81627578511808
30
0
10
67.370954152809276
20
357.38442434297758
30
0
10
72.527945163509969
20
358.61429294368918
30
0
10
78.135542784793358
20
358.93626483767599
30
0
10
83.727740916739663
20
358.20025543686052
30
0
10
88.770341439408881
20
356.61858446806502
30
0
10
92.68901116066138
20
354.80685868375559
30
0
10
95.490563258517795
20
353.23315950820069
30
0
10
97.179207140659969
20
352.18668319261906
30
0
10
97.757122504699709
20
351.81718011180641
30
0
0
LINE
5
318
100
AcDbEntity
8
0
100
AcDbLine
10
57.957122504711137
20
353.03587356880325
30
0
11
57.957122504711123
21
358.67840643227106
31
0
0
LINE
5
319
100
AcDbEntity
8
0
100
AcDbLine
10
57.957122504711123
20
358.67840643227106
30
0
11
54.757122504711134
21
358.67840643227106
31
0
0
LINE
5
320
100
AcDbEntity
8
0
100
AcDbLine
10
54.757122504711134
20
358.67840643227106
30
0
11
54.757122504711134
21
351.08557483695444
31
0
0
SPLINE
5
321
100
AcDbEntity
8
0
100
AcDbSpline
70
4
71
5
72
12
73
6
74
0
42
0.000000001
43
0.0000000001
44
0.0000000001
40
0
40
0
40
0
40
0
40
0
40
0
40
0.084784612185934416
40
0.084784612185934416
40
0.084784612185934416
40
0.084784612185934416
40
0.084784612185934416
40
0.084784612185934416
41
1
41
1
41
1
41
1
41
1
41
1
10
49.957122832536704
20
347.67840582132339
30
0
10
50.917960597405582
20
348.41740055145976
30
0
10
51.878380659873912
20
349.12769813994305
30
0
10
52.838383029052522
20
349.8092992127095
30
0
10
53.797965219759973
20
350.4620330319226
30
0
10
54.757122504931949
20
351.08557483709797
30
0
0
LINE
5
322
100
AcDbEntity
8
0
100
AcDbLine
10
49.957122832536704
20
347.67840582132339
30
0
11
49.957122832536704
21
368.67840583622456
31
0
0
SPLINE
5
323
100
AcDbEntity
8
0
100
AcDbSpline
70
0
71
3
72
12
73
8
74
0
42
0.000000001
43
0.0000000001
44
0.0000000001
40
0
40
0
40
0
40
0
40
2.4759452321929962
40
2.4759452321929962
40
4.5246601881566004
40
4.5246601881566004
40
7.3558492104958724
40
7.3558492104958724
40
7.3558492104958724
40
7.3558492104958724
10
105.95712321996689
20
366.67840640246868
30
0
10
99.037403699745497
20
371.17640367452856
30
0
10
92.252555398889967
20
374.24139023696847
30
0
10
80.007431056343634
20
376.93123777416582
30
0
10
74.612212724617791
20
377.01565934769008
30
0
10
61.336761671400033
20
374.58594039746828
30
0
10
54.602808920225471
20
371.32202981032117
30
0
10
49.957122832536704
20
368.67840583622456
30
0
0
LINE
5
324
100
AcDbEntity
8
0
100
AcDbLine
10
105.95712321996689
20
366.67840640246868
30
0
11
105.95712321996689
21
345.6784060895443
31
0
0
SPLINE
5
325
100
AcDbEntity
8
0
100
AcDbSpline
70
4
71
5
72
12
73
6
74
0
42
0.000000001
43
0.0000000001
44
0.0000000001
40
0.90973326567873558
40
0.90973326567873558
40
0.90973326567873558
40
0.90973326567873558
40
0.90973326567873558
40
0.90973326567873558
40
1
40
1
40
1
40
1
40
1
40
1
41
1
41
1
41
1
41
1
41
1
41
1
10
100.95712250471108
20
349.63320285140173
30
0
10
101.95806942713347
20
348.90728947829672
30
0
10
102.9585383940223
20
348.14853943101917
30
0
10
103.95853543281291
20
347.35736680861362
30
0
10
104.95806371311437
20
346.53398937071267
30
0
10
105.95712321996689
20
345.6784060895443
30
0
0
LINE
5
326
100
AcDbEntity
8
0
100
AcDbLine
10
100.95712250471108
20
349.63320285140173
30
0
11
100.95712250471108
21
358.67840643227106
31
0
0
LINE
5
327
100
AcDbEntity
8
0
100
AcDbLine
10
100.95712250471108
20
358.67840643227106
30
0
11
97.757122504711134
21
358.67840643227106
31
0
0
LINE
5
328
100
AcDbEntity
8
0
100
AcDbLine
10
92.909679877758009
20
391.85181494057184
30
0
11
92.909679877758009
21
384.99058862009986
31
0
0
SPLINE
5
329
100
AcDbEntity
8
0
100
AcDbSpline
70
4
71
5
72
19
73
13
74
0
42
0.000000001
43
0.0000000001
44
0.0000000001
40
0.14139112021697625
40
0.14139112021697625
40
0.14139112021697625
40
0.14139112021697625
40
0.14139112021697625
40
0.14139112021697625
40
0.20000000000000001
40
0.30000000000000004
40
0.40000000000000002
40
0.5
40
0.59999999999999998
40
0.69999999999999996
40
0.79999999999999993
40
0.85205273346033683
40
0.85205273346033683
40
0.85205273346033683
40
0.85205273346033683
40
0.85205273346033683
40
0.85205273346033683
41
1
41
1
41
1
41
1
41
1
41
1
41
1
41
1
41
1
41
1
41
1
41
1
41
1
10
53.109679877758026
20
386.20928207710404
30
0
10
53.77191955742898
20
386.58570149829472
30
0
10
55.563524426614848
20
387.56553103505951
30
0
10
58.482178896903569
20
388.98968429341886
30
0
10
62.523511525856151
20
390.55783285127836
30
0
10
67.680502536556844
20
391.78770145198996
30
0
10
73.288100157840233
20
392.10967334597677
30
0
10
78.880298289786538
20
391.3736639451613
30
0
10
83.922898812455756
20
389.7919929763658
30
0
10
87.841568533708255
20
387.98026719205637
30
0
10
90.64312063156467
20
386.40656801650147
30
0
10
92.331764513706844
20
385.36009170091984
30
0
10
92.909679877746584
20
384.99058862010719
30
0
0
LINE
5
330
100
AcDbEntity
8
0
100
AcDbLine
10
53.109679877758026
20
386.20928207710404
30
0
11
53.109679877758005
21
391.85181494057184
31
0
0
LINE
5
331
100
AcDbEntity
8
0
100
AcDbLine
10
53.109679877758005
20
391.85181494057184
30
0
11
49.909679877758023
21
391.85181494057184
31
0
0
LINE
5
332
100
AcDbEntity
8
0
100
AcDbLine
10
49.909679877758023
20
391.85181494057184
30
0
11
49.909679877758023
21
384.25898334525522
31
0
0
SPLINE
5
333
100
AcDbEntity
8
0
100
AcDbSpline
70
4
71
5
72
12
73
6
74
0
42
0.000000001
43
0.0000000001
44
0.0000000001
40
0
40
0
40
0
40
0
40
0
40
0
40
0.084784612185934416
40
0.084784612185934416
40
0.084784612185934416
40
0.084784612185934416
40
0.084784612185934416
40
0.084784612185934416
41
1
41
1
41
1
41
1
41
1
41
1
10
45.109680205583587
20
380.85181432962418
30
0
10
46.070517970452457
20
381.59080905976055
30
0
10
47.030938032920787
20
382.30110664824383
30
0
10
47.990940402099405
20
382.98270772101029
30
0
10
48.950522592806855
20
383.63544154022338
30
0
10
49.909679877978832
20
384.25898334539875
30
0
0
LINE
5
334
100
AcDbEntity
8
0
100
AcDbLine
10
45.109680205583587
20
380.85181432962418
30
0
11
45.109680205583587
21
401.85181434452534
31
0
0
SPLINE
5
335
100
AcDbEntity
8
0
100
AcDbSpline
70
0
71
3
72
12
73
8
74
0
42
0.000000001
43
0.0000000001
44
0.0000000001
40
0
40
0
40
0
40
0
40
2.4759452321929962
40
2.4759452321929962
40
4.5246601881566004
40
4.5246601881566004
40
7.3558492104958724
40
7.3558492104958724
40
7.3558492104958724
40
7.3558492104958724
10
101.10968059301378
20
399.85181491076946
30
0
10
94.189961072792386
20
404.34981218282934
30
0
10
87.405112771936842
20
407.41479874526925
30
0
10
75.159988429390509
20
410.1046462824666
30
0
10
69.764770097664666
20
410.18906785599086
30
0
10
56.489319044446916
20
407.75934890576906
30
0
10
49.75536629327236
20
404.49543831862195
30
0
10
45.109680205583587
20
401.85181434452534
30
0
0
LINE
5
336
100
AcDbEntity
8
0
100
AcDbLine
10
101.10968059301378
20
399.85181491076946
30
0
11
101.10968059301378
21
378.85181459784508
31
0
0
SPLINE
5
337
100
AcDbEntity
8
0
100
AcDbSpline
70
4
71
5
72
12
73
6
74
0
42
0.000000001
43
0.0000000001
44
0.0000000001
40
0.90973326567873558
40
0.90973326567873558
40
0.90973326567873558
40
0.90973326567873558
40
0.90973326567873558
40
0.90973326567873558
40
1
40
1
40
1
40
1
40
1
40
1
41
1
41
1
41
1
41
1
41
1
41
1
10
96.109679877757955
20
382.80661135970252
30
0
10
97.110626800180341
20
382.0806979865975
30
0
10
98.111095767069187
20
381.32194793931995
30
0
10
99.111092805859784
20
380.5307753169144
30
0
10
100.11062108616125
20
379.70739787901346
30
0
10
101.10968059301378
20
378.85181459784508
30
0
0
LINE
5
338
100
AcDbEntity
8
0
100
AcDbLine
10
96.109679877757955
20
382.80661135970252
30
0
11
96.109679877757955
21
391.85181494057184
31
0
0
LINE
5
339
100
AcDbEntity
8
0
100
AcDbLine
10
96.109679877757955
20
391.85181494057184
30
0
11
92.909679877758009
21
391.85181494057184
31
0
0
LINE
5
340
100
AcDbEntity
8
0
100
AcDbLine
10
86.947948920726759
20
424.88066931068909
30
0
11
86.947948920726759
21
418.01944299021716
31
0
0
SPLINE
5
341
100
AcDbEntity
8
0
100
AcDbSpline
70
4
71
5
72
19
73
13
74
0
42
0.000000001
43
0.0000000001
44
0.0000000001
40
0.14139112021697625
40
0.14139112021697625
40
0.14139112021697625
40
0.14139112021697625
40
0.14139112021697625
40
0.14139112021697625
40
0.20000000000000001
40
0.30000000000000004
40
0.40000000000000002
40
0.5
40
0.59999999999999998
40
0.69999999999999996
40
0.79999999999999993
40
0.85205273346033683
40
0.85205273346033683
40
0.85205273346033683
40
0.85205273346033683
40
0.85205273346033683
40
0.85205273346033683
41
1
41
1
41
1
41
1
41
1
41
1
41
1
41
1
41
1
41
1
41
1
41
1
41
1
10
47.147948920726762
20
419.23813644722134
30
0
10
47.810188600397716
20
419.61455586841197
30
0
10
49.60179346958359
20
420.59438540517675
30
0
10
52.520447939872312
20
422.01853866353611
30
0
10
56.561780568824894
20
423.58668722139561
30
0
10
61.718771579525587
20
424.8165558221072
30
0
10
67.326369200808983
20
425.13852771609402
30
0
10
72.918567332755288
20
424.40251831527854
30
0
10
77.961167855424506
20
422.82084734648311
30
0
10
81.879837576677005
20
421.00912156217362
30
0
10
84.68138967453342
20
419.43542238661871
30
0
10
86.370033556675608
20
418.38894607103714
30
0
10
86.947948920715334
20
418.01944299022443
30
0
0
LINE
5
342
100
AcDbEntity
8
0
100
AcDbLine
10
47.147948920726762
20
419.23813644722134
30
0
11
47.147948920726748
21
424.88066931068909
31
0
0
LINE
5
343
100
AcDbEntity
8
0
100
AcDbLine
10
47.147948920726748
20
424.88066931068909
30
0
11
43.947948920726759
21
424.88066931068909
31
0
0
LINE
5
344
100
AcDbEntity
8
0
100
AcDbLine
10
43.947948920726759
20
424.88066931068909
30
0
11
43.947948920726759
21
417.28783771537246
31
0
0
SPLINE
5
345
100
AcDbEntity
8
0
100
AcDbSpline
70
4
71
5
72
12
73
6
74
0
42
0.000000001
43
0.0000000001
44
0.0000000001
40
0
40
0
40
0
40
0
40
0
40
0
40
0.084784612185934416
40
0.084784612185934416
40
0.084784612185934416
40
0.084784612185934416
40
0.084784612185934416
40
0.084784612185934416
41
1
41
1
41
1
41
1
41
1
41
1
10
39.147949248552329
20
413.88066869974136
30
0
10
40.108787013421207
20
414.61966342987779
30
0
10
41.069207075889523
20
415.32996101836102
30
0
10
42.029209445068147
20
416.01156209112753
30
0
10
42.988791635775598
20
416.66429591034057
30
0
10
43.947948920947567
20
417.28783771551599
30
0
0
LINE
5
346
100
AcDbEntity
8
0
100
AcDbLine
10
39.147949248552329
20
413.88066869974136
30
0
11
39.147949248552322
21
434.88066871464252
31
0
0
SPLINE
5
347
100
AcDbEntity
8
0
100
AcDbSpline
70
0
71
3
72
12
73
8
74
0
42
0.000000001
43
0.0000000001
44
0.0000000001
40
0
40
0
40
0
40
0
40
2.4759452321929962
40
2.4759452321929962
40
4.5246601881566004
40
4.5246601881566004
40
7.3558492104958724
40
7.3558492104958724
40
7.3558492104958724
40
7.3558492104958724
10
95.147949635982513
20
432.88066928088665
30
0
10
88.228230115761122
20
437.37866655294658
30
0
10
81.443381814905592
20
440.4436531153865
30
0
10
69.198257472359259
20
443.13350065258385
30
0
10
63.803039140633409
20
443.2179222261081
30
0
10
50.527588087415658
20
440.7882032758863
30
0
10
43.793635336241088
20
437.52429268873919
30
0
10
39.147949248552322
20
434.88066871464252
30
0
0
LINE
5
348
100
AcDbEntity
8
0
100
AcDbLine
10
95.147949635982513
20
432.88066928088665
30
0
11
95.147949635982513
21
411.88066896796227
31
0
0
SPLINE
5
349
100
AcDbEntity
8
0
100
AcDbSpline
70
4
71
5
72
12
73
6
74
0
42
0.000000001
43
0.0000000001
44
0.0000000001
40
0.90973326567873558
40
0.90973326567873558
40
0.90973326567873558
40
0.90973326567873558
40
0.90973326567873558
40
0.90973326567873558
40
1
40
1
40
1
40
1
40
1
40
1
41
1
41
1
41
1
41
1
41
1
41
1
10
90.147948920726719
20
415.8354657298197
30
0
10
91.148895843149091
20
415.10955235671474
30
0
10
92.149364810037923
20
414.3508023094372
30
0
10
93.149361848828534
20
413.5596296870317
30
0
10
94.148890129129995
20
412.7362522491307
30
0
10
95.147949635982513
20
411.88066896796227
30
0
0
LINE
5
350
100
AcDbEntity
8
0
100
AcDbLine
10
90.147948920726719
20
415.8354657298197
30
0
11
90.147948920726719
21
424.88066931068909
31
0
0
LINE
5
351
100
AcDbEntity
8
0
100
AcDbLine
10
90.147948920726719
20
424.88066931068909
30
0
11
86.947948920726759
21
424.88066931068909
31
0
0
LINE
5
352
100
AcDbEntity
8
0
100
AcDbLine
10
181.82941864728923
20
360.19502325356018
30
0
11
181.82941864728923
21
353.33379693308819
31
0
0
SPLINE
5
353
100
AcDbEntity
8
0
100
AcDbSpline
70
4
71
5
72
19
73
13
74
0
42
0.000000001
43
0.0000000001
44
0.0000000001
40
0.14139112021697625
40
0.14139112021697625
40
0.14139112021697625
40
0.14139112021697625
40
0.14139112021697625
40
0.14139112021697625
40
0.20000000000000001
40
0.30000000000000004
40
0.40000000000000002
40
0.5
40
0.59999999999999998
40
0.69999999999999996
40
0.79999999999999993
40
0.85205273346033683
40
0.85205273346033683
40
0.85205273346033683
40
0.85205273346033683
40
0.85205273346033683
40
0.85205273346033683
41
1
41
1
41
1
41
1
41
1
41
1
41
1
41
1
41
1
41
1
41
1
41
1
41
1
10
142.02941864728925
20
354.55249039009237
30
0
10
142.69165832696021
20
354.92890981128306
30
0
10
144.48326319614608
20
355.90873934804779
30
0
10
147.4019176664348
20
357.3328926064072
30
0
10
151.44325029538737
20
358.9010411642667
30
0
10
156.60024130608809
20
360.1309097649783
30
0
10
162.20783892737148
20
360.45288165896511
30
0
10
167.80003705931776
20
359.71687225814958
30
0
10
172.84263758198699
20
358.1352012893542
30
0
10
176.76130730323951
20
356.3234755050446
30
0
10
179.56285940109592
20
354.7497763294898
30
0
10
181.25150328323809
20
353.70330001390818
30
0
10
181.82941864727781
20
353.33379693309553
30
0
0
LINE
5
354
100
AcDbEntity
8
0
100
AcDbLine
10
142.02941864728925
20
354.55249039009237
30
0
11
142.02941864728925
21
360.19502325356018
31
0
0
LINE
5
355
100
AcDbEntity
8
0
100
AcDbLine
10
142.02941864728925
20
360.19502325356018
30
0
11
138.82941864728926
21
360.19502325356018
31
0
0
LINE
5
356
100
AcDbEntity
8
0
100
AcDbLine
10
138.82941864728926
20
360.19502325356018
30
0
11
138.82941864728926
21
352.60219165824356
31
0
0
SPLINE
5
357
100
AcDbEntity
8
0
100
AcDbSpline
70
4
71
5
72
12
73
6
74
0
42
0.000000001
43
0.0000000001
44
0.0000000001
40
0
40
0
40
0
40
0
40
0
40
0
40
0.084784612185934416
40
0.084784612185934416
40
0.084784612185934416
40
0.084784612185934416
40
0.084784612185934416
40
0.084784612185934416
41
1
41
1
41
1
41
1
41
1
41
1
10
134.02941897511482
20
349.19502264261246
30
0
10
134.99025673998369
20
349.93401737274888
30
0
10
135.95067680245199
20
350.64431496123211
30
0
10
136.91067917163065
20
351.32591603399862
30
0
10
137.87026136233808
20
351.97864985321166
30
0
10
138.82941864751007
20
352.60219165838703
30
0
0
LINE
5
358
100
AcDbEntity
8
0
100
AcDbLine
10
134.02941897511482
20
349.19502264261246
30
0
11
134.02941897511482
21
370.19502265751362
31
0
0
SPLINE
5
359
100
AcDbEntity
8
0
100
AcDbSpline
70
0
71
3
72
12
73
8
74
0
42
0.000000001
43
0.0000000001
44
0.0000000001
40
0
40
0
40
0
40
0
40
2.4759452321929962
40
2.4759452321929962
40
4.5246601881566004
40
4.5246601881566004
40
7.3558492104958724
40
7.3558492104958724
40
7.3558492104958724
40
7.3558492104958724
10
190.02941936254501
20
368.19502322375774
30
0
10
183.10969984232361
20
372.69302049581768
30
0
10
176.32485154146806
20
375.75800705825759
30
0
10
164.07972719892174
20
378.44785459545494
30
0
10
158.68450886719589
20
378.53227616897919
30
0
10
145.40905781397814
20
376.1025572187574
30
0
10
138.67510506280357
20
372.83864663161023
30
0
10
134.02941897511482
20
370.19502265751362
30
0
0
LINE
5
360
100
AcDbEntity
8
0
100
AcDbLine
10
190.02941936254501
20
368.19502322375774
30
0
11
190.02941936254501
21
347.19502291083336
31
0
0
SPLINE
5
361
100
AcDbEntity
8
0
100
AcDbSpline
70
4
71
5
72
12
73
6
74
0
42
0.000000001
43
0.0000000001
44
0.0000000001
40
0.90973326567873558
40
0.90973326567873558
40
0.90973326567873558
40
0.90973326567873558
40
0.90973326567873558
40
0.90973326567873558
40
1
40
1
40
1
40
1
40
1
40
1
41
1
41
1
41
1
41
1
41
1
41
1
10
185.02941864728922
20
351.14981967269091
30
0
10
186.03036556971159
20
350.42390629958589
30
0
10
187.03083453660042
20
349.66515625230829
30
0
10
188.03083157539103
20
348.8739836299028
30
0
10
189.03035985569247
20
348.05060619200174
30
0
10
190.02941936254501
20
347.19502291083336
30
0
0
LINE
5
362
100
AcDbEntity
8
0
100
AcDbLine
10
185.02941864728922
20
351.14981967269091
30
0
11
185.02941864728922
21
360.19502325356018
31
0
0
LINE
5
363
100
AcDbEntity
8
0
100
AcDbLine
10
185.02941864728922
20
360.19502325356018
30
0
11
181.82941864728923
21
360.19502325356018
31
0
0
LINE
5
364
100
AcDbEntity
8
0
100
AcDbLine
10
176.34946869611738
20
392.91946478188044
30
0
11
176.34946869611738
21
386.05823846140851
31
0
0
SPLINE
5
365
100
AcDbEntity
8
0
100
AcDbSpline
70
4
71
5
72
19
73
13
74
0
42
0.000000001
43
0.0000000001
44
0.0000000001
40
0.14139112021697625
40
0.14139112021697625
40
0.14139112021697625
40
0.14139112021697625
40
0.14139112021697625
40
0.14139112021697625
40
0.20000000000000001
40
0.30000000000000004
40
0.40000000000000002
40
0.5
40
0.59999999999999998
40
0.69999999999999996
40
0.79999999999999993
40
0.85205273346033683
40
0.85205273346033683
40
0.85205273346033683
40
0.85205273346033683
40
0.85205273346033683
40
0.85205273346033683
41
1
41
1
41
1
41
1
41
1
41
1
41
1
41
1
41
1
41
1
41
1
41
1
41
1
10
136.5494686961174
20
387.27693191841269
30
0
10
137.21170837578836
20
387.65335133960332
30
0
10
139.00331324497421
20
388.6331808763681
30
0
10
141.92196771526295
20
390.05733413472745
30
0
10
145.96330034421553
20
391.62548269258701
30
0
10
151.12029135491622
20
392.85535129329855
30
0
10
156.72788897619961
20
393.17732318728537
30
0
10
162.32008710814591
20
392.44131378646989
30
0
10
167.36268763081512
20
390.85964281767446
30
0
10
171.28135735206766
20
389.04791703336502
30
0
10
174.08290944992405
20
387.47421785781006
30
0
10
175.77155333206622
20
386.42774154222849
30
0
10
176.34946869610593
20
386.05823846141584
30
0
0
LINE
5
366
100
AcDbEntity
8
0
100
AcDbLine
10
136.5494686961174
20
387.27693191841269
30
0
11
136.54946869611737
21
392.91946478188044
31
0
0
LINE
5
367
100
AcDbEntity
8
0
100
AcDbLine
10
136.54946869611737
20
392.91946478188044
30
0
11
133.34946869611738
21
392.91946478188044
31
0
0
LINE
5
368
100
AcDbEntity
8
0
100
AcDbLine
10
133.34946869611738
20
392.91946478188044
30
0
11
133.34946869611738
21
385.32663318656381
31
0
0
SPLINE
5
369
100
AcDbEntity
8
0
100
AcDbSpline
70
4
71
5
72
12
73
6
74
0
42
0.000000001
43
0.0000000001
44
0.0000000001
40
0
40
0
40
0
40
0
40
0
40
0
40
0.084784612185934416
40
0.084784612185934416
40
0.084784612185934416
40
0.084784612185934416
40
0.084784612185934416
40
0.084784612185934416
41
1
41
1
41
1
41
1
41
1
41
1
10
128.54946902394295
20
381.91946417093277
30
0
10
129.51030678881185
20
382.65845890106914
30
0
10
130.47072685128015
20
383.36875648955242
30
0
10
131.43072922045877
20
384.05035756231888
30
0
10
132.39031141116624
20
384.70309138153198
30
0
10
133.34946869633819
20
385.32663318670734
30
0
0
LINE
5
370
100
AcDbEntity
8
0
100
AcDbLine
10
128.54946902394295
20
381.91946417093277
30
0
11
128.54946902394295
21
402.91946418583393
31
0
0
SPLINE
5
371
100
AcDbEntity
8
0
100
AcDbSpline
70
0
71
3
72
12
73
8
74
0
42
0.000000001
43
0.0000000001
44
0.0000000001
40
0
40
0
40
0
40
0
40
2.4759452321929962
40
2.4759452321929962
40
4.5246601881566004
40
4.5246601881566004
40
7.3558492104958724
40
7.3558492104958724
40
7.3558492104958724
40
7.3558492104958724
10
184.54946941137314
20
400.91946475207806
30
0
10
177.62974989115176
20
405.41746202413799
30
0
10
170.84490159029622
20
408.48244858657785
30
0
10
158.5997772477499
20
411.1722961237752
30
0
10
153.20455891602404
20
411.25671769729945
30
0
10
139.92910786280629
20
408.82699874707771
30
0
10
133.19515511163172
20
405.56308815993054
30
0
10
128.54946902394295
20
402.91946418583393
30
0
0
LINE
5
372
100
AcDbEntity
8
0
100
AcDbLine
10
184.54946941137314
20
400.91946475207806
30
0
11
184.54946941137314
21
379.91946443915367
31
0
0
SPLINE
5
373
100
AcDbEntity
8
0
100
AcDbSpline
70
4
71
5
72
12
73
6
74
0
42
0.000000001
43
0.0000000001
44
0.0000000001
40
0.90973326567873558
40
0.90973326567873558
40
0.90973326567873558
40
0.90973326567873558
40
0.90973326567873558
40
0.90973326567873558
40
1
40
1
40
1
40
1
40
1
40
1
41
1
41
1
41
1
41
1
41
1
41
1
10
179.54946869611734
20
383.87426120101111
30
0
10
180.55041561853972
20
383.14834782790615
30
0
10
181.55088458542855
20
382.38959778062855
30
0
10
182.55088162421916
20
381.59842515822305
30
0
10
183.55040990452062
20
380.77504772032205
30
0
10
184.54946941137314
20
379.91946443915367
30
0
0
LINE
5
374
100
AcDbEntity
8
0
100
AcDbLine
10
179.54946869611734
20
383.87426120101111
30
0
11
179.54946869611734
21
392.91946478188044
31
0
0
LINE
5
375
100
AcDbEntity
8
0
100
AcDbLine
10
179.54946869611734
20
392.91946478188044
30
0
11
176.34946869611738
21
392.91946478188044
31
0
0
LINE
5
376
100
AcDbEntity
8
0
100
AcDbLine
10
170.86951874494554
20
425.64390631020075
30
0
11
170.86951874494554
21
418.78267998972882
31
0
0
SPLINE
5
377
100
AcDbEntity
8
0
100
AcDbSpline
70
4
71
5
72
19
73
13
74
0
42
0.000000001
43
0.0000000001
44
0.0000000001
40
0.14139112021697625
40
0.14139112021697625
40
0.14139112021697625
40
0.14139112021697625
40
0.14139112021697625
40
0.14139112021697625
40
0.20000000000000001
40
0.30000000000000004
40
0.40000000000000002
40
0.5
40
0.59999999999999998
40
0.69999999999999996
40
0.79999999999999993
40
0.85205273346033683
40
0.85205273346033683
40
0.85205273346033683
40
0.85205273346033683
40
0.85205273346033683
40
0.85205273346033683
41
1
41
1
41
1
41
1
41
1
41
1
41
1
41
1
41
1
41
1
41
1
41
1
41
1
10
131.06951874494553
20
420.001373446733
30
0
10
131.73175842461649
20
420.37779286792363
30
0
10
133.52336329380236
20
421.35762240468836
30
0
10
136.44201776409108
20
422.78177566304777
30
0
10
140.48335039304365
20
424.34992422090727
30
0
10
145.64034140374437
20
425.57979282161887
30
0
10
151.24793902502776
20
425.90176471560568
30
0
10
156.84013715697407
20
425.1657553147902
30
0
10
161.88273767964324
20
423.58408434599482
30
0
10
165.80140740089578
20
421.77235856168522
30
0
10
168.6029594987522
20
420.19865938613037
30
0
10
170.29160338089437
20
419.1521830705488
30
0
10
170.86951874493408
20
418.78267998973615
30
0
0
LINE
5
378
100
AcDbEntity
8
0
100
AcDbLine
10
131.06951874494553
20
420.001373446733
30
0
11
131.06951874494553
21
425.64390631020075
31
0
0
LINE
5
379
100
AcDbEntity
8
0
100
AcDbLine
10
131.06951874494553
20
425.64390631020075
30
0
11
127.86951874494554
21
425.64390631020075
31
0
0
LINE
5
380
100
AcDbEntity
8
0
100
AcDbLine
10
127.86951874494554
20
425.64390631020075
30
0
11
127.86951874494554
21
418.05107471488412
31
0
0
SPLINE
5
381
100
AcDbEntity
8
0
100
AcDbSpline
70
4
71
5
72
12
73
6
74
0
42
0.000000001
43
0.0000000001
44
0.0000000001
40
0
40
0
40
0
40
0
40
0
40
0
40
0.084784612185934416
40
0.084784612185934416
40
0.084784612185934416
40
0.084784612185934416
40
0.084784612185934416
40
0.084784612185934416
41
1
41
1
41
1
41
1
41
1
41
1
10
123.0695190727711
20
414.64390569925308
30
0
10
124.03035683763997
20
415.38290042938945
30
0
10
124.99077690010829
20
416.09319801787274
30
0
10
125.95077926928693
20
416.77479909063919
30
0
10
126.91036145999436
20
417.42753290985229
30
0
10
127.86951874516633
20
418.05107471502765
30
0
0
LINE
5
382
100
AcDbEntity
8
0
100
AcDbLine
10
123.0695190727711
20
414.64390569925308
30
0
11
123.0695190727711
21
435.64390571415424
31
0
0
SPLINE
5
383
100
AcDbEntity
8
0
100
AcDbSpline
70
0
71
3
72
12
73
8
74
0
42
0.000000001
43
0.0000000001
44
0.0000000001
40
0
40
0
40
0
40
0
40
2.4759452321929962
40
2.4759452321929962
40
4.5246601881566004
40
4.5246601881566004
40
7.3558492104958724
40
7.3558492104958724
40
7.3558492104958724
40
7.3558492104958724
10
179.06951946020129
20
433.64390628039837
30
0
10
172.14979993997989
20
438.1419035524583
30
0
10
165.36495163912434
20
441.20689011489816
30
0
10
153.11982729657802
20
443.89673765209551
30
0
10
147.72460896485217
20
443.98115922561976
30
0
10
134.44915791163442
20
441.55144027539797
30
0
10
127.71520516045985
20
438.28752968825086
30
0
10
123.0695190727711
20
435.64390571415424
30
0
0
LINE
5
384
100
AcDbEntity
8
0
100
AcDbLine
10
179.06951946020129
20
433.64390628039837
30
0
11
179.06951946020129
21
412.64390596747398
31
0
0
SPLINE
5
385
100
AcDbEntity
8
0
100
AcDbSpline
70
4
71
5
72
12
73
6
74
0
42
0.000000001
43
0.0000000001
44
0.0000000001
40
0.90973326567873558
40
0.90973326567873558
40
0.90973326567873558
40
0.90973326567873558
40
0.90973326567873558
40
0.90973326567873558
40
1
40
1
40
1
40
1
40
1
40
1
41
1
41
1
41
1
41
1
41
1
41
1
10
174.0695187449455
20
416.59870272933148
30
0
10
175.07046566736787
20
415.87278935622646
30
0
10
176.0709346342567
20
415.11403930894886
30
0
10
177.07093167304731
20
414.32286668654342
30
0
10
178.07045995334875
20
413.49948924864236
30
0
10
179.06951946020129
20
412.64390596747398
30
0
0
LINE
5
386
100
AcDbEntity
8
0
100
AcDbLine
10
174.0695187449455
20
416.59870272933148
30
0
11
174.0695187449455
21
425.64390631020075
31
0
0
LINE
5
387
100
AcDbEntity
8
0
100
AcDbLine
10
174.0695187449455
20
425.64390631020075
30
0
11
170.86951874494554
21
425.64390631020075
31
0
0
LINE
5
388
100
AcDbEntity
8
0
100
AcDbLine
10
257.19981049299241
20
425.37250585854059
30
0
11
257.19981049299241
21
418.51127953806866
31
0
0
SPLINE
5
389
100
AcDbEntity
8
0
100
AcDbSpline
70
4
71
5
72
19
73
13
74
0
42
0.000000001
43
0.0000000001
44
0.0000000001
40
0.14139112021697625
40
0.14139112021697625
40
0.14139112021697625
40
0.14139112021697625
40
0.14139112021697625
40
0.14139112021697625
40
0.20000000000000001
40
0.30000000000000004
40
0.40000000000000002
40
0.5
40
0.59999999999999998
40
0.69999999999999996
40
0.79999999999999993
40
0.85205273346033683
40
0.85205273346033683
40
0.85205273346033683
40
0.85205273346033683
40
0.85205273346033683
40
0.85205273346033683
41
1
41
1
41
1
41
1
41
1
41
1
41
1
41
1
41
1
41
1
41
1
41
1
41
1
10
217.39981049299246
20
419.72997299507284
30
0
10
218.06205017266339
20
420.10639241626347
30
0
10
219.85365504184927
20
421.08622195302826
30
0
10
222.77230951213798
20
422.51037521138761
30
0
10
226.81364214109055
20
424.07852376924717
30
0
10
231.97063315179125
20
425.30839236995871
30
0
10
237.57823077307467
20
425.63036426394552
30
0
10
243.17042890502094
20
424.89435486313005
30
0
10
248.21302942769017
20
423.31268389433461
30
0
10
252.13169914894269
20
421.50095811002518
30
0
10
254.9332512467991
20
419.92725893447022
30
0
10
256.62189512894128
20
418.88078261888865
30
0
10
257.19981049298099
20
418.511279538076
30
0
0
LINE
5
390
100
AcDbEntity
8
0
100
AcDbLine
10
217.39981049299246
20
419.72997299507284
30
0
11
217.39981049299246
21
425.37250585854059
31
0
0
LINE
5
391
100
AcDbEntity
8
0
100
AcDbLine
10
217.39981049299246
20
425.37250585854059
30
0
11
214.19981049299247
21
425.37250585854059
31
0
0
LINE
5
392
100
AcDbEntity
8
0
100
AcDbLine
10
214.19981049299247
20
425.37250585854059
30
0
11
214.19981049299247
21
417.77967426322397
31
0
0
SPLINE
5
393
100
AcDbEntity
8
0
100
AcDbSpline
70
4
71
5
72
12
73
6
74
0
42
0.000000001
43
0.0000000001
44
0.0000000001
40
0
40
0
40
0
40
0
40
0
40
0
40
0.084784612185934416
40
0.084784612185934416
40
0.084784612185934416
40
0.084784612185934416
40
0.084784612185934416
40
0.084784612185934416
41
1
41
1
41
1
41
1
41
1
41
1
10
209.399810820818
20
414.37250524759293
30
0
10
210.36064858568687
20
415.1114999777293
30
0
10
211.32106864815518
20
415.82179756621258
30
0
10
212.28107101733383
20
416.50339863897904
30
0
10
213.24065320804127
20
417.15613245819213
30
0
10
214.19981049321325
20
417.7796742633675
30
0
0
LINE
5
394
100
AcDbEntity
8
0
100
AcDbLine
10
209.399810820818
20
414.37250524759293
30
0
11
209.399810820818
21
435.37250526249409
31
0
0
SPLINE
5
395
100
AcDbEntity
8
0
100
AcDbSpline
70
0
71
3
72
12
73
8
74
0
42
0.000000001
43
0.0000000001
44
0.0000000001
40
0
40
0
40
0
40
0
40
2.4759452321929962
40
2.4759452321929962
40
4.5246601881566004
40
4.5246601881566004
40
7.3558492104958724
40
7.3558492104958724
40
7.3558492104958724
40
7.3558492104958724
10
265.3998112082482
20
433.37250582873821
30
0
10
258.48009168802679
20
437.87050310079815
30
0
10
251.69524338717125
20
440.935489663238
30
0
10
239.45011904462493
20
443.62533720043535
30
0
10
234.05490071289907
20
443.70975877395961
30
0
10
220.77944965968132
20
441.28003982373787
30
0
10
214.04549690850675
20
438.0161292365907
30
0
10
209.399810820818
20
435.37250526249409
30
0
0
LINE
5
396
100
AcDbEntity
8
0
100
AcDbLine
10
265.3998112082482
20
433.37250582873821
30
0
11
265.3998112082482
21
412.37250551581383
31
0
0
SPLINE
5
397
100
AcDbEntity
8
0
100
AcDbSpline
70
4
71
5
72
12
73
6
74
0
42
0.000000001
43
0.0000000001
44
0.0000000001
40
0.90973326567873558
40
0.90973326567873558
40
0.90973326567873558
40
0.90973326567873558
40
0.90973326567873558
40
0.90973326567873558
40
1
40
1
40
1
40
1
40
1
40
1
41
1
41
1
41
1
41
1
41
1
41
1
10
260.3998104929924
20
416.32730227767127
30
0
10
261.40075741541477
20
415.60138890456631
30
0
10
262.40122638230361
20
414.8426388572887
30
0
10
263.40122342109419
20
414.05146623488321
30
0
10
264.40075170139562
20
413.22808879698221
30
0
10
265.3998112082482
20
412.37250551581383
30
0
0
LINE
5
398
100
AcDbEntity
8
0
100
AcDbLine
10
260.3998104929924
20
416.32730227767127
30
0
11
260.3998104929924
21
425.37250585854059
31
0
0
LINE
5
399
100
AcDbEntity
8
0
100
AcDbLine
10
260.3998104929924
20
425.37250585854059
30
0
11
257.19981049299241
21
425.37250585854059
31
0
0
LINE
5
400
100
AcDbEntity
8
0
100
AcDbLine
10
262.67976044416429
20
392.64807195961481
30
0
11
262.67976044416429
21
385.78684563914288
31
0
0
SPLINE
5
401
100
AcDbEntity
8
0
100
AcDbSpline
70
4
71
5
72
19
73
13
74
0
42
0.000000001
43
0.0000000001
44
0.0000000001
40
0.14139112021697625
40
0.14139112021697625
40
0.14139112021697625
40
0.14139112021697625
40
0.14139112021697625
40
0.14139112021697625
40
0.20000000000000001
40
0.30000000000000004
40
0.40000000000000002
40
0.5
40
0.59999999999999998
40
0.69999999999999996
40
0.79999999999999993
40
0.85205273346033683
40
0.85205273346033683
40
0.85205273346033683
40
0.85205273346033683
40
0.85205273346033683
40
0.85205273346033683
41
1
41
1
41
1
41
1
41
1
41
1
41
1
41
1
41
1
41
1
41
1
41
1
41
1
10
222.87976044416433
20
387.00553909614706
30
0
10
223.54200012383527
20
387.38195851733769
30
0
10
225.33360499302114
20
388.36178805410242
30
0
10
228.25225946330985
20
389.78594131246183
30
0
10
232.29359209226243
20
391.35408987032133
30
0
10
237.45058310296312
20
392.58395847103293
30
0
10
243.05818072424654
20
392.90593036501974
30
0
10
248.65037885619279
20
392.16992096420427
30
0
10
253.69297937886202
20
390.58824999540889
30
0
10
257.61164910011451
20
388.77652421109929
30
0
10
260.41320119797098
20
387.20282503554444
30
0
10
262.10184508011315
20
386.15634871996286
30
0
10
262.67976044415286
20
385.78684563915021
30
0
0
LINE
5
402
100
AcDbEntity
8
0
100
AcDbLine
10
222.87976044416433
20
387.00553909614706
30
0
11
222.87976044416433
21
392.64807195961481
31
0
0
LINE
5
403
100
AcDbEntity
8
0
100
AcDbLine
10
222.87976044416433
20
392.64807195961481
30
0
11
219.67976044416432
21
392.64807195961481
31
0
0
LINE
5
404
100
AcDbEntity
8
0
100
AcDbLine
10
219.67976044416432
20
392.64807195961481
30
0
11
219.67976044416432
21
385.05524036429819
31
0
0
SPLINE
5
405
100
AcDbEntity
8
0
100
AcDbSpline
70
4
71
5
72
12
73
6
74
0
42
0.000000001
43
0.0000000001
44
0.0000000001
40
0
40
0
40
0
40
0
40
0
40
0
40
0.084784612185934416
40
0.084784612185934416
40
0.084784612185934416
40
0.084784612185934416
40
0.084784612185934416
40
0.084784612185934416
41
1
41
1
41
1
41
1
41
1
41
1
10
214.87976077198988
20
381.64807134866714
30
0
10
215.84059853685875
20
382.38706607880351
30
0
10
216.80101859932705
20
383.0973636672868
30
0
10
217.76102096850568
20
383.77896474005325
30
0
10
218.72060315921314
20
384.43169855926635
30
0
10
219.67976044438512
20
385.05524036444172
30
0
0
LINE
5
406
100
AcDbEntity
8
0
100
AcDbLine
10
214.87976077198988
20
381.64807134866714
30
0
11
214.87976077198988
21
402.64807136356831
31
0
0
SPLINE
5
407
100
AcDbEntity
8
0
100
AcDbSpline
70
0
71
3
72
12
73
8
74
0
42
0.000000001
43
0.0000000001
44
0.0000000001
40
0
40
0
40
0
40
0
40
2.4759452321929962
40
2.4759452321929962
40
4.5246601881566004
40
4.5246601881566004
40
7.3558492104958724
40
7.3558492104958724
40
7.3558492104958724
40
7.3558492104958724
10
270.87976115942007
20
400.64807192981243
30
0
10
263.96004163919866
20
405.14606920187236
30
0
10
257.17519333834309
20
408.21105576431222
30
0
10
244.9300689957968
20
410.90090330150957
30
0
10
239.53485066407094
20
410.98532487503383
30
0
10
226.25939961085319
20
408.55560592481203
30
0
10
219.52544685967862
20
405.29169533766492
30
0
10
214.87976077198988
20
402.64807136356831
30
0
0
LINE
5
408
100
AcDbEntity
8
0
100
AcDbLine
10
270.87976115942007
20
400.64807192981243
30
0
11
270.87976115942007
21
379.64807161688805
31
0
0
SPLINE
5
409
100
AcDbEntity
8
0
100
AcDbSpline
70
4
71
5
72
12
73
6
74
0
42
0.000000001
43
0.0000000001
44
0.0000000001
40
0.90973326567873558
40
0.90973326567873558
40
0.90973326567873558
40
0.90973326567873558
40
0.90973326567873558
40
0.90973326567873558
40
1
40
1
40
1
40
1
40
1
40
1
41
1
41
1
41
1
41
1
41
1
41
1
10
265.87976044416428
20
383.60286837874554
30
0
10
266.88070736658665
20
382.87695500564053
30
0
10
267.88117633347548
20
382.11820495836292
30
0
10
268.88117337226606
20
381.32703233595748
30
0
10
269.8807016525675
20
380.50365489805642
30
0
10
270.87976115942007
20
379.64807161688805
30
0
0
LINE
5
410
100
AcDbEntity
8
0
100
AcDbLine
10
265.87976044416428
20
383.60286837874554
30
0
11
265.87976044416428
21
392.64807195961481
31
0
0
LINE
5
411
100
AcDbEntity
8
0
100
AcDbLine
10
265.87976044416428
20
392.64807195961481
30
0
11
262.67976044416429
21
392.64807195961481
31
0
0
LINE
5
412
100
AcDbEntity
8
0
100
AcDbLine
10
268.15967987775792
20
359.9236304312945
30
0
11
268.15967987775792
21
353.06240411082257
31
0
0
SPLINE
5
413
100
AcDbEntity
8
0
100
AcDbSpline
70
4
71
5
72
19
73
13
74
0
42
0.000000001
43
0.0000000001
44
0.0000000001
40
0.14139112021697625
40
0.14139112021697625
40
0.14139112021697625
40
0.14139112021697625
40
0.14139112021697625
40
0.14139112021697625
40
0.20000000000000001
40
0.30000000000000004
40
0.40000000000000002
40
0.5
40
0.59999999999999998
40
0.69999999999999996
40
0.79999999999999993
40
0.85205273346033683
40
0.85205273346033683
40
0.85205273346033683
40
0.85205273346033683
40
0.85205273346033683
40
0.85205273346033683
41
1
41
1
41
1
41
1
41
1
41
1
41
1
41
1
41
1
41
1
41
1
41
1
41
1
10
228.35967987775797
20
354.28109756782675
30
0
10
229.0219195574289
20
354.65751698901738
30
0
10
230.81352442661478
20
355.63734652578216
30
0
10
233.73217889690349
20
357.06149978414152
30
0
10
237.77351152585607
20
358.62964834200108
30
0
10
242.93050253655676
20
359.85951694271262
30
0
10
248.53810015784018
20
360.18148883669943
30
0
10
254.13029828978642
20
359.44547943588395
30
0
10
259.17289881245563
20
357.86380846708852
30
0
10
263.0915685337082
20
356.05208268277909
30
0
10
265.89312063156461
20
354.47838350722412
30
0
10
267.58176451370679
20
353.43190719164255
30
0
10
268.1596798777465
20
353.0624041108299
30
0
0
LINE
5
414
100
AcDbEntity
8
0
100
AcDbLine
10
228.35967987775797
20
354.28109756782675
30
0
11
228.35967987775797
21
359.9236304312945
31
0
0
LINE
5
415
100
AcDbEntity
8
0
100
AcDbLine
10
228.35967987775797
20
359.9236304312945
30
0
11
225.15967987775795
21
359.9236304312945
31
0
0
LINE
5
416
100
AcDbEntity
8
0
100
AcDbLine
10
225.15967987775795
20
359.9236304312945
30
0
11
225.15967987775795
21
352.33079883597787
31
0
0
SPLINE
5
417
100
AcDbEntity
8
0
100
AcDbSpline
70
4
71
5
72
12
73
6
74
0
42
0.000000001
43
0.0000000001
44
0.0000000001
40
0
40
0
40
0
40
0
40
0
40
0
40
0.084784612185934416
40
0.084784612185934416
40
0.084784612185934416
40
0.084784612185934416
40
0.084784612185934416
40
0.084784612185934416
41
1
41
1
41
1
41
1
41
1
41
1
10
220.35968020558352
20
348.92362982034683
30
0
10
221.32051797045236
20
349.6626245504832
30
0
10
222.28093803292069
20
350.37292213896649
30
0
10
223.24094040209931
20
351.05452321173294
30
0
10
224.20052259280678
20
351.70725703094604
30
0
10
225.15967987797876
20
352.3307988361214
30
0
0
LINE
5
418
100
AcDbEntity
8
0
100
AcDbLine
10
220.35968020558352
20
348.92362982034683
30
0
11
220.35968020558352
21
369.92362983524799
31
0
0
SPLINE
5
419
100
AcDbEntity
8
0
100
AcDbSpline
70
0
71
3
72
12
73
8
74
0
42
0.000000001
43
0.0000000001
44
0.0000000001
40
0
40
0
40
0
40
0
40
2.4759452321929962
40
2.4759452321929962
40
4.5246601881566004
40
4.5246601881566004
40
7.3558492104958724
40
7.3558492104958724
40
7.3558492104958724
40
7.3558492104958724
10
276.35968059301371
20
367.92363040149212
30
0
10
269.4399610727923
20
372.42162767355205
30
0
10
262.65511277193673
20
375.48661423599191
30
0
10
250.40998842939044
20
378.17646177318926
30
0
10
245.01477009766458
20
378.26088334671351
30
0
10
231.73931904444683
20
375.83116439649177
30
0
10
225.00536629327226
20
372.56725380934461
30
0
10
220.35968020558352
20
369.92362983524799
30
0
0
LINE
5
420
100
AcDbEntity
8
0
100
AcDbLine
10
276.35968059301371
20
367.92363040149212
30
0
11
276.35968059301371
21
346.92363008856773
31
0
0
SPLINE
5
421
100
AcDbEntity
8
0
100
AcDbSpline
70
4
71
5
72
12
73
6
74
0
42
0.000000001
43
0.0000000001
44
0.0000000001
40
0.90973326567873558
40
0.90973326567873558
40
0.90973326567873558
40
0.90973326567873558
40
0.90973326567873558
40
0.90973326567873558
40
1
40
1
40
1
40
1
40
1
40
1
41
1
41
1
41
1
41
1
41
1
41
1
10
271.35967987775791
20
350.87842685042517
30
0
10
272.36062680018028
20
350.15251347732021
30
0
10
273.36109576706912
20
349.39376343004261
30
0
10
274.3610928058597
20
348.60259080763711
30
0
10
275.36062108616113
20
347.77921336973611
30
0
10
276.35968059301371
20
346.92363008856773
30
0
0
LINE
5
422
100
AcDbEntity
8
0
100
AcDbLine
10
271.35967987775791
20
350.87842685042517
30
0
11
271.35967987775791
21
359.9236304312945
31
0
0
LINE
5
423
100
AcDbEntity
8
0
100
AcDbLine
10
271.35967987775791
20
359.9236304312945
30
0
11
268.15967987775792
21
359.9236304312945
31
0
0
ENDSEC
0
SECTION
2
OBJECTS
0
DICTIONARY
5
C
100
AcDbDictionary
3
ACAD_GROUP
350
D
3
ACAD_MLINESTYLE
350
17
0
DICTIONARY
5
D
100
AcDbDictionary
0
DICTIONARY
5
1A
330
C
100
AcDbDictionary
0
DICTIONARY
5
17
100
AcDbDictionary
0
ENDSEC
0
EOF
