0
SECTION
2
HEADER
9
$INSUNITS
70
4
9
$ACADVER
1
AC1014
9
$HANDSEED
5
FFFF
0
ENDSEC
0
SECTION
2
TABLES
0
TABLE
2
VPORT
5
8
100
AcDbSymbolTable
0
ENDTAB
0
TABLE
2
LTYPE
5
5
100
AcDbSymbolTable
0
LTYPE
5
14
100
AcDbSymbolTableRecord
100
AcDbLinetypeTableRecord
2
BYBLOCK
70
0
0
LTYPE
5
15
100
AcDbSymbolTableRecord
100
AcDbLinetypeTableRecord
2
BYLAYER
70
0
0
ENDTAB
0
TABLE
2
LAYER
5
2
100
AcDbSymbolTable
70
2
0
LAYER
5
50
100
AcDbSymbolTableRecord
100
AcDbLayerTableRecord
2
0
70
0
6
CONTINUOUS
0
ENDTAB
0
TABLE
2
STYLE
5
3
100
AcDbSymbolTable
70
1
0
STYLE
5
11
100
AcDbSymbolTableRecord
100
AcDbTextStyleTableRecord
2
STANDARD
70
0
0
ENDTAB
0
TABLE
2
VIEW
5
6
100
AcDbSymbolTable
70
0
0
ENDTAB
0
TABLE
2
UCS
5
7
100
AcDbSymbolTable
70
0
0
ENDTAB
0
TABLE
2
APPID
5
9
100
AcDbSymbolTable
70
2
0
APPID
5
12
100
AcDbSymbolTableRecord
100
AcDbRegAppTableRecord
2
ACAD
70
0
0
ENDTAB
0
TABLE
2
DIMSTYLE
5
A
100
AcDbSymbolTable
70
1
0
ENDTAB
0
TABLE
2
BLOCK_RECORD
5
1
100
AcDbSymbolTable
70
1
0
BLOCK_RECORD
5
1F
100
AcDbSymbolTableRecord
100
AcDbBlockTableRecord
2
*MODEL_SPACE
0
BLOCK_RECORD
5
1B
100
AcDbSymbolTableRecord
100
AcDbBlockTableRecord
2
*PAPER_SPACE
0
ENDTAB
0
ENDSEC
0
SECTION
2
BLOCKS
0
BLOCK
5
20
100
AcDbEntity
100
AcDbBlockBegin
2
*MODEL_SPACE
0
ENDBLK
5
21
100
AcDbEntity
100
AcDbBlockEnd
0
BLOCK
5
1C
100
AcDbEntity
100
AcDbBlockBegin
2
*PAPER_SPACE
0
ENDBLK
5
1D
100
AcDbEntity
100
AcDbBlockEnd
0
ENDSEC
0
SECTION
2
ENTITIES
0
LWPOLYLINE
5
100
100
AcDbEntity
8
0
100
AcDbPolyline
90
60
70
1
43
0.0
10
654.44424438476562
20
2249.6233373078539
10
654.44424438476562
20
2250.6237111163541
42
-0.27273951689422449
10
466.02493585799692
20
2368.7341010433001
42
0.68598375094122233
10
445.19656814068821
20
2342.3863314926434
42
0.017196524061546422
10
454.44424438476551
20
2327.8940542292439
10
454.44424438476562
20
2346.8429296703753
10
466.44424438476562
20
2346.8429296703753
10
466.44424438476562
20
2311.8582771508341
42
0.031482519883414134
10
487.777577718099
20
2288.7481903622415
10
487.77757771809894
20
2304.0012808390829
10
499.77757771809888
20
2304.0012808390829
10
499.77757771809888
20
2278.0050263824578
42
0.026707157152298083
10
521.11091105143191
20
2261.9692942484489
10
521.11091105143237
20
2276.0528040449003
10
533.11091105143225
20
2276.0528040449008
10
533.11091105143225
20
2254.3991737565975
42
0.024142813153975085
10
554.44424438476562
20
2243.125956736892
10
554.44424438476562
20
2256.8802235960666
10
566.44424438476562
20
2256.8802235960666
10
566.44424438476562
20
2237.8865881371262
42
0.022641922140414047
10
587.777577718099
20
2230.3354095951822
10
587.777577718099
20
2244.2034630689232
10
599.77757771809888
20
2244.2034630689227
10
599.777577718099
20
2227.0140713227265
42
0.021784437245318505
10
621.11091105143214
20
2222.6551152800466
10
621.11091105143237
20
2236.9506013156852
10
633.11091105143225
20
2236.9506013156852
10
633.11091105143225
20
2221.0402184188529
42
0.021390769975169203
10
654.44424438476574
20
2219.6135142772373
10
654.44424438476562
20
2234.6184257925456
10
666.44424438476562
20
2234.6184257925456
10
666.44424438476562
20
2219.6135142772373
42
0.02139076997516888
10
687.77757771809877
20
2221.0402184188529
10
687.777577718099
20
2236.9506013156852
10
699.77757771809911
20
2236.9506013156852
10
699.77757771809911
20
2222.6551152800466
42
0.021784437245318505
10
721.11091105143214
20
2227.0140713227265
10
721.11091105143237
20
2244.2034630689227
10
733.11091105143237
20
2244.2034630689227
10
733.11091105143237
20
2230.3354095951822
42
0.022641922140414966
10
754.44424438476619
20
2237.8865881371262
10
754.44424438476574
20
2256.8802235960666
10
766.44424438476574
20
2256.8802235960666
10
766.44424438476562
20
2243.1259567368916
42
0.024142813153975661
10
787.77757771809934
20
2254.3991737565971
10
787.777577718099
20
2276.0528040449008
10
799.77757771809911
20
2276.0528040449003
10
799.77757771809911
20
2261.9692942484489
42
0.026707157152298343
10
821.11091105143237
20
2278.0050263824573
10
821.11091105143237
20
2304.0012808390829
10
833.11091105143237
20
2304.0012808390829
10
833.11091105143237
20
2288.7481903622415
42
0.031482519883414134
10
854.44424438476574
20
2311.8582771508341
10
854.44424438476574
20
2346.8429296703753
10
866.44424438476574
20
2346.8429296703753
10
866.44424438476562
20
2327.8940542292439
42
0.017196524061545614
10
875.69192062882723
20
2342.3863314926525
42
0.68598375094122999
10
854.86355291153473
20
2368.7341010432997
42
-0.27273951689422449
10
666.44424438476562
20
2250.6237111163537
10
666.44424438476562
20
2249.6233373078539
0
CIRCLE
5
101
100
AcDbEntity
8
0
100
AcDbCircle
10
1054.2659912109375
20
2189.89013671875
30
0
40
207.57220965780124
210
0
220
0
230
1
0
LWPOLYLINE
5
102
100
AcDbEntity
8
0
100
AcDbPolyline
90
12
70
1
43
0.0
10
962.7177937029694
20
2019.3240072935985
10
952.32548885755614
20
2025.3240072935982
10
959.41742356390159
20
2037.6075985289501
42
-0.55526144640742447
10
959.41742356390148
20
2342.1726749085501
10
952.32548885755591
20
2354.4562661439013
10
962.71779370296917
20
2360.4562661439013
10
969.80972840931474
20
2348.1726749085501
42
-0.55526144640742436
10
1233.5708216595963
20
2195.89013671875
10
1247.7546910722872
20
2195.89013671875
10
1247.7546910722872
20
2183.89013671875
10
1233.5708216595963
20
2183.8901367187505
42
-0.55526144640742436
10
969.80972840931497
20
2031.6075985289499
0
CIRCLE
5
103
100
AcDbEntity
8
0
100
AcDbCircle
10
645.55610656738281
20
1956.8525390625
30
0
40
239.20609431106797
210
-0
220
0
230
1
0
LWPOLYLINE
5
104
100
AcDbEntity
8
0
100
AcDbPolyline
90
12
70
1
43
0.0
10
753.02897456333983
20
2155.0010068666411
10
763.42127940875321
20
2149.0010068666411
10
756.44468487240556
20
2136.9171906658794
42
-0.55858497580141564
10
756.44468487240556
20
1776.7878874591206
10
763.42127940875321
20
1764.7040712583594
10
753.02897456333994
20
1758.7040712583596
10
746.05238002699264
20
1770.7878874591211
42
-0.55858497580141631
10
434.17125480275052
20
1950.8525390625002
10
420.21806573005551
20
1950.8525390625002
10
420.21806573005551
20
1962.8525390625
10
434.17125480275058
20
1962.8525390624998
42
-0.55858497580141586
10
746.0523800269923
20
2142.9171906658794
0
CIRCLE
5
105
100
AcDbEntity
8
0
100
AcDbCircle
10
627.39443969726562
20
1913.7932128906252
30
0
40
141.64744967700616
210
0
220
-0
230
1
0
LWPOLYLINE
5
106
100
AcDbEntity
8
0
100
AcDbPolyline
90
12
70
1
43
0.0
10
504.69586546139084
20
1907.7932128906252
10
504.69586546139084
20
1919.793212890625
10
523.81838068747334
20
1919.793212890625
42
-0.53939777934013855
10
673.98631677945514
20
2006.4927112169814
10
683.54757439249636
20
2023.0532951870237
10
693.93987923790962
20
2017.0532951870237
10
684.37862162486852
20
2000.4927112169817
42
-0.53939777934013866
10
684.37862162486852
20
1827.0937145642688
10
693.93987923790974
20
1810.5331305942266
10
683.54757439249647
20
1804.533130594227
10
673.98631677945536
20
1821.0937145642692
42
-0.53939777934013888
10
523.81838068747334
20
1907.7932128906252
0
LWPOLYLINE
5
107
100
AcDbEntity
8
0
100
AcDbPolyline
90
60
70
1
43
0.0
10
1324.2820869027671
20
2189.147705078125
10
1339.2869984180754
20
2189.147705078125
42
0.02139076997516888
10
1337.8602942764599
20
2210.4810384114585
10
1321.9499113796278
20
2210.4810384114585
10
1321.9499113796278
20
2222.481038411458
10
1336.2453974152663
20
2222.4810384114585
42
0.021784437245318505
10
1331.8864413725862
20
2243.814371744792
10
1314.6970496263903
20
2243.814371744792
10
1314.6970496263898
20
2255.8143717447915
10
1328.5651031001305
20
2255.8143717447915
42
0.022641922140414047
10
1321.0139245581865
20
2277.147705078125
10
1302.0202890992462
20
2277.147705078125
10
1302.0202890992464
20
2289.147705078125
10
1315.7745559584212
20
2289.147705078125
42
0.024142813153975085
10
1304.5013389387154
20
2310.4810384114585
10
1282.8477086504122
20
2310.4810384114585
10
1282.8477086504122
20
2322.4810384114585
10
1296.9312184468638
20
2322.4810384114585
42
0.026707157152298083
10
1280.8954863128547
20
2343.814371744792
10
1254.8992318562298
20
2343.814371744792
10
1254.8992318562298
20
2355.8143717447915
10
1270.1523223330712
20
2355.8143717447915
42
0.031482519883414134
10
1247.0422355444789
20
2377.147705078125
10
1212.0575830249372
20
2377.147705078125
10
1212.0575830249372
20
2389.147705078125
10
1231.0064584660686
20
2389.147705078125
42
0.017196524061545614
10
1216.51418120266
20
2398.3953813221869
42
0.6859837509412251
10
1190.1664116520126
20
2377.5670136048939
42
-0.27273951689422493
10
1308.2768015789588
20
2189.147705078125
10
1309.277175387459
20
2189.147705078125
10
1309.277175387459
20
2177.147705078125
10
1308.2768015789588
20
2177.147705078125
42
-0.27273951689422482
10
1190.1664116520126
20
1988.7283965513564
42
0.68598375094122543
10
1216.5141812026693
20
1967.9000288340476
42
0.017196524061546422
10
1231.0064584660688
20
1977.1477050781252
10
1212.0575830249372
20
1977.1477050781252
10
1212.0575830249372
20
1989.147705078125
10
1247.0422355444787
20
1989.147705078125
42
0.031482519883413468
10
1270.152322333071
20
2010.4810384114583
10
1254.8992318562298
20
2010.4810384114583
10
1254.8992318562298
20
2022.4810384114583
10
1280.8954863128547
20
2022.4810384114585
42
0.026707157152298603
10
1296.9312184468638
20
2043.814371744792
10
1282.8477086504122
20
2043.8143717447917
10
1282.8477086504122
20
2055.8143717447915
10
1304.5013389387154
20
2055.8143717447915
42
0.024142813153975661
10
1315.7745559584209
20
2077.147705078125
10
1302.0202890992462
20
2077.147705078125
10
1302.0202890992464
20
2089.147705078125
10
1321.0139245581868
20
2089.147705078125
42
0.022641922140414047
10
1328.5651031001305
20
2110.4810384114585
10
1314.6970496263898
20
2110.4810384114585
10
1314.6970496263898
20
2122.481038411458
10
1331.886441372586
20
2122.4810384114585
42
0.021784437245319144
10
1336.2453974152663
20
2143.814371744792
10
1321.9499113796278
20
2143.814371744792
10
1321.9499113796278
20
2155.8143717447915
10
1337.8602942764599
20
2155.8143717447915
42
0.021390769975168228
10
1339.2869984180754
20
2177.147705078125
10
1324.2820869027671
20
2177.147705078125
0
LWPOLYLINE
5
108
100
AcDbEntity
8
0
100
AcDbPolyline
90
12
70
1
43
0.0
10
1206.0801386616829
20
1915.2605283510161
10
1199.1035441253352
20
1903.1767121502548
42
-0.5585849758014152
10
1199.1035441253352
20
1543.0474089434958
10
1206.0801386616831
20
1530.9635927427344
10
1195.6878338162699
20
1524.9635927427346
10
1188.711239279922
20
1537.0474089434965
42
-0.55858497580141631
10
876.83011405568038
20
1717.1120605468752
10
862.8769249829852
20
1717.1120605468752
10
862.8769249829852
20
1729.112060546875
10
876.83011405567993
20
1729.112060546875
42
-0.55858497580141608
10
1188.711239279922
20
1909.1767121502544
10
1195.6878338162696
20
1921.2605283510156
0
CIRCLE
5
109
100
AcDbEntity
8
0
100
AcDbCircle
10
1088.2149658203123
20
1723.1120605468752
30
0
40
239.20609431106797
210
0
220
-0
230
1
0
LWPOLYLINE
5
110
100
AcDbEntity
8
0
100
AcDbPolyline
90
12
70
1
43
0.0
10
966.47728571677021
20
1674.0527343750002
10
947.35477049068777
20
1674.0527343750002
10
947.35477049068777
20
1686.0527343750002
10
966.47728571677021
20
1686.0527343750002
42
-0.53939777934013811
10
1116.645221808752
20
1772.7522327013567
10
1126.2064794217933
20
1789.3128166713987
10
1136.5987842672066
20
1783.3128166713987
10
1127.0375266541653
20
1766.7522327013562
42
-0.53939777934013899
10
1127.0375266541653
20
1593.3532360486438
10
1136.5987842672066
20
1576.792652078602
10
1126.2064794217936
20
1570.792652078602
10
1116.6452218087522
20
1587.3532360486438
42
-0.53939777934013888
0
CIRCLE
5
111
100
AcDbEntity
8
0
100
AcDbCircle
10
1070.0533447265625
20
1680.0527343750002
30
0
40
141.64744967700616
210
-0
220
0
230
1
0
CIRCLE
5
112
100
AcDbEntity
8
0
100
AcDbCircle
10
653.23637390136719
20
1450.7601318359375
30
0
40
246.88638862620371
210
0
220
0
230
1
0
LWPOLYLINE
5
113
100
AcDbEntity
8
0
100
AcDbPolyline
90
12
70
1
43
0.0
10
542.13707502879129
20
1246.3305015033561
10
531.74477018337802
20
1252.3305015033563
10
538.93374952478325
20
1264.7821789772329
42
-0.5591673130059156
10
538.93374952478314
20
1636.7380846946417
10
531.74477018337802
20
1649.1897621685187
10
542.13707502879129
20
1655.1897621685184
10
549.3260543701964
20
1642.7380846946414
42
-0.55916731300591604
10
871.44931780912191
20
1456.7601318359375
10
885.82727649193225
20
1456.7601318359375
10
885.82727649193225
20
1444.7601318359375
10
871.44931780912202
20
1444.7601318359375
42
-0.55916731300591571
10
549.32605437019663
20
1258.7821789772331
0
LWPOLYLINE
5
114
100
AcDbEntity
8
0
100
AcDbPolyline
90
12
70
1
43
0.0
10
570.41734337935736
20
1585.1440209461844
10
578.10379786591398
20
1571.8306912454025
42
-0.55102742695192375
10
798.15861658428832
20
1444.781982421875
10
813.53152555740178
20
1444.781982421875
10
813.53152555740178
20
1432.781982421875
10
798.15861658428844
20
1432.781982421875
42
-0.55102742695192142
10
578.10379786591432
20
1305.7332735983473
10
570.41734337935748
20
1292.4199438975654
10
560.0250385339441
20
1298.4199438975654
10
567.71149302050117
20
1311.7332735983478
42
-0.55102742695192264
10
567.71149302050094
20
1565.8306912454027
10
560.0250385339441
20
1579.1440209461846
0
CIRCLE
5
115
100
AcDbEntity
8
0
100
AcDbCircle
10
647.99130249023449
20
1438.7819824218752
30
0
40
180.79331354400864
210
0
220
-0
230
1
0
LWPOLYLINE
5
116
100
AcDbEntity
8
0
100
AcDbPolyline
90
8
70
1
43
0.0
10
1258.878489699237
20
1342.103260442351
42
2.825464130769018
10
1258.8784896992368
20
1057.249034479524
42
0.11894832450760859
10
1339.2868850599837
20
1008.8883071775483
10
1339.2868850599837
20
1062.1988766122622
42
-0.11022264213605368
10
1286.5319981259788
20
1100.7502384557642
42
0.23001948794642701
10
1286.5319981259786
20
1298.6020564661108
42
-0.1102226421360539
10
1339.2868850599837
20
1337.1534183096128
10
1339.2868850599837
20
1390.4639877443267
42
0.11894832450760835
0
LWPOLYLINE
5
117
100
AcDbEntity
8
0
100
AcDbPolyline
90
12
70
1
43
0.0
10
1184.0058256230104
20
1386.8462186108804
10
1194.3981304684237
20
1380.8462186108804
10
1187.4757394680173
20
1368.8562856883188
42
-0.55740947407711094
10
1187.4757394680173
20
1030.4960092335566
10
1194.3981304684237
20
1018.5060763109949
10
1184.0058256230104
20
1012.506076310995
10
1177.0834346226038
20
1024.4960092335568
42
-0.55740947407711072
10
884.05483958125444
20
1193.6761474609375
10
870.21005758044123
20
1193.6761474609377
10
870.21005758044112
20
1205.6761474609377
10
884.05483958125444
20
1205.6761474609377
42
-0.55740947407711128
10
1177.0834346226038
20
1374.8562856883186
0
CIRCLE
5
118
100
AcDbEntity
8
0
100
AcDbCircle
10
656.27798461914062
20
933.94586181640636
30
0
40
249.92798962901293
210
0
220
-0
230
1
0
LWPOLYLINE
5
119
100
AcDbEntity
8
0
100
AcDbPolyline
90
18
70
1
43
0.0
10
768.5433712532863
20
1140.3952153981106
10
778.93567609869956
20
1134.3952153981106
10
771.4332203410454
20
1121.400580844316
10
766.23706791833888
20
1124.400580844316
42
0.57735026918962584
10
436.35981802074434
20
933.94586181640636
10
436.3598180207444
20
927.94586181640636
10
421.35490650543608
20
927.94586181640636
10
421.35490650543602
20
939.94586181640648
10
436.35981802074434
20
939.94586181640625
10
436.35981802074434
20
933.94586181640636
42
0.57735026918962584
10
766.23706791833888
20
743.49114278849686
10
771.43322034104563
20
746.49114278849663
10
778.93567609869979
20
733.49650823470211
10
768.54337125328641
20
727.49650823470211
10
761.04091549563225
20
740.49114278849675
10
766.23706791833888
20
743.49114278849686
42
0.57735026918962573
10
766.23706791833888
20
1124.400580844316
10
761.04091549563225
20
1127.400580844316
0
LWPOLYLINE
5
120
100
AcDbEntity
8
0
100
AcDbPolyline
90
12
70
1
43
0.0
10
1194.3981915035797
20
849.38558628666158
10
1187.4758005031731
20
837.39565336409987
42
-0.55740947407710983
10
1187.4758005031733
20
499.03537690933786
10
1194.3981915035802
20
487.04544398677615
10
1184.0058866581667
20
481.04544398677609
10
1177.0834956577598
20
493.03537690933854
42
-0.55740947407711161
10
884.05490061641058
20
662.21551513671875
10
870.21011861559737
20
662.21551513671886
10
870.21011861559737
20
674.21551513671886
10
884.0549006164099
20
674.21551513671875
42
-0.55740947407711172
10
1177.0834956577601
20
843.39565336409976
10
1184.0058866581667
20
855.38558628666146
0
LWPOLYLINE
5
121
100
AcDbEntity
8
0
100
AcDbPolyline
90
8
70
1
43
0.0
10
1258.8785507343932
20
810.64262811813205
42
2.8254641307690238
10
1258.8785507343928
20
525.78840215530522
42
0.11894832450760835
10
1339.2869460951397
20
477.42767485332962
10
1339.2869460951397
20
530.73824428804346
42
-0.1102226421360539
10
1286.5320591611348
20
569.28960613154561
42
0.23001948794642652
10
1286.5320591611351
20
767.141424141892
42
-0.11022264213605346
10
1339.2869460951397
20
805.69278598539404
10
1339.2869460951397
20
859.00335542010794
42
0.11894832450760841
0
LWPOLYLINE
5
122
100
AcDbEntity
8
0
100
AcDbPolyline
90
12
70
1
43
0.0
10
454.8067283099968
20
538.62319551486416
10
467.25840578387374
20
531.43421617345894
42
-0.55916731300591527
10
839.21431150128228
20
531.43421617345916
10
851.66598897515928
20
538.62319551486439
10
857.66598897515928
20
528.23089066945113
10
845.21431150128228
20
521.0419113280459
42
-0.55916731300591582
10
659.23635864257812
20
198.91864788912022
10
659.23635864257812
20
184.54068920630985
10
647.23635864257812
20
184.54068920630985
10
647.23635864257835
20
198.91864788912022
42
-0.55916731300591571
10
461.25840578387368
20
521.04191132804556
10
448.8067283099968
20
528.2308906694509
0
CIRCLE
5
123
100
AcDbEntity
8
0
100
AcDbCircle
10
653.23635864257812
20
417.13159179687494
30
0
40
246.8863886262038
210
0
220
-0
230
1
0
CIRCLE
5
124
100
AcDbEntity
8
0
100
AcDbCircle
10
644.95169067382812
20
407.88952636718756
30
0
40
180.79331354400867
210
-0
220
0
230
1
0
LWPOLYLINE
5
125
100
AcDbEntity
8
0
100
AcDbPolyline
90
12
70
1
43
0.0
10
504.5896521495186
20
319.92326241089711
10
498.5896521495186
20
330.31556725631037
10
511.90298185030065
20
338.00202174286716
42
-0.55102742695192264
10
638.95169067382812
20
558.05684046124145
10
638.95169067382812
20
573.4297494343549
10
650.95169067382812
20
573.4297494343549
10
650.95169067382812
20
558.05684046124145
42
-0.55102742695192264
10
778.00039949735594
20
338.00202174286721
10
791.31372919813782
20
330.31556725631054
10
785.31372919813793
20
319.92326241089728
10
772.00039949735583
20
327.60971689745406
42
-0.55102742695192242
10
517.90298185030065
20
327.60971689745389
0
LWPOLYLINE
5
126
100
AcDbEntity
8
0
100
AcDbPolyline
90
12
70
1
43
0.0
10
1233.6552240330691
20
378.48830960093272
10
1226.5632893267234
20
366.20471836558119
42
-0.55526144640742481
10
1226.5632893267236
20
61.639641985981456
10
1233.6552240330693
20
49.356050750629876
10
1223.2629191876561
20
43.356050750629862
10
1216.1709844813104
20
55.639641985981179
42
-0.55526144640742436
10
952.40989123102895
20
207.92218017578119
10
938.22602181833781
20
207.92218017578125
10
938.22602181833781
20
219.92218017578125
10
952.40989123102918
20
219.92218017578131
42
-0.55526144640742414
10
1216.1709844813101
20
372.20471836558124
10
1223.2629191876558
20
384.48830960093278
0
CIRCLE
5
127
100
AcDbEntity
8
0
100
AcDbCircle
10
1131.7147216796877
20
213.92218017578128
30
0
40
207.57220965780124
210
0
220
-0
230
1
0
LWPOLYLINE
5
128
100
AcDbEntity
8
0
100
AcDbPolyline
90
60
70
1
43
0.0
10
659.2362823486327
20
98.258928722232895
10
659.2362823486327
20
83.254017206924573
42
0.02139076997516888
10
680.56961568196607
20
84.680721348540288
10
680.56961568196607
20
100.59110424537238
10
692.56961568196618
20
100.59110424537238
10
692.56961568196618
20
86.29561820973376
42
0.021784437245319144
10
713.90294901529944
20
90.654574252413937
10
713.90294901529944
20
107.84396599861014
10
725.90294901529944
20
107.84396599861014
10
725.90294901529944
20
93.975912524869543
42
0.022641922140413429
10
747.2362823486327
20
101.5270910668134
10
747.2362823486327
20
120.52072652575362
10
759.23628234863281
20
120.52072652575362
10
759.2362823486327
20
106.76645966657901
42
0.024142813153975661
10
780.56961568196607
20
118.03967668628466
10
780.56961568196607
20
139.69330697458781
10
792.56961568196607
20
139.69330697458781
10
792.56961568196618
20
125.60979717813623
42
0.026707157152298343
10
813.90294901529955
20
141.64552931214527
10
813.90294901529944
20
167.64178376877015
10
825.90294901529944
20
167.64178376877015
10
825.90294901529944
20
152.38869329192883
42
0.031482519883414134
10
847.23628234863281
20
175.4987800805213
10
847.2362823486327
20
210.48343260006271
10
859.23628234863281
20
210.48343260006271
10
859.23628234863281
20
191.53455715893131
42
0.01719652406154602
10
868.48395859269431
20
206.02683442234002
42
0.68598375094122577
10
847.65559087540157
20
232.37460397298742
42
-0.27273951689422482
10
659.2362823486327
20
114.26421404604116
10
659.2362823486327
20
113.26384023754119
10
647.2362823486327
20
113.26384023754119
10
647.23628234863281
20
114.26421404604113
42
-0.27273951689422493
10
458.81697382186405
20
232.37460397298747
42
0.68598375094122255
10
437.98860610455534
20
206.02683442233072
42
0.017196524061546422
10
447.23628234863298
20
191.53455715893097
10
447.23628234863276
20
210.48343260006274
10
459.2362823486327
20
210.48343260006274
10
459.2362823486327
20
175.49878008052139
42
0.03148251988341369
10
480.56961568196584
20
152.38869329192909
10
480.56961568196607
20
167.64178376877024
10
492.56961568196601
20
167.64178376877024
10
492.56961568196601
20
141.64552931214524
42
0.026707157152298863
10
513.90294901529967
20
125.60979717813598
10
513.90294901529944
20
139.69330697458781
10
525.90294901529933
20
139.69330697458781
10
525.90294901529933
20
118.03967668628466
42
0.024142813153974797
10
547.23628234863247
20
106.76645966657915
10
547.23628234863281
20
120.52072652575362
10
559.2362823486327
20
120.52072652575362
10
559.2362823486327
20
101.5270910668134
42
0.022641922140414047
10
580.56961568196664
20
93.975912524869386
10
580.56961568196607
20
107.84396599861014
10
592.56961568196607
20
107.84396599861014
10
592.56961568196607
20
90.65457425241398
42
0.021784437245318186
10
613.9029490152991
20
86.295618209733817
10
613.90294901529944
20
100.59110424537238
10
625.90294901529933
20
100.59110424537238
10
625.90294901529933
20
84.680721348540331
42
0.021390769975168228
10
647.23628234863259
20
83.254017206924601
10
647.2362823486327
20
98.258928722232895
0
ENDSEC
0
SECTION
2
OBJECTS
0
DICTIONARY
5
C
100
AcDbDictionary
3
ACAD_GROUP
350
D
3
ACAD_MLINESTYLE
350
17
0
DICTIONARY
5
D
100
AcDbDictionary
0
DICTIONARY
5
1A
330
C
100
AcDbDictionary
0
DICTIONARY
5
17
100
AcDbDictionary
0
ENDSEC
0
EOF
