0
SECTION
2
HEADER
9
$INSUNITS
70
4
9
$ACADVER
1
AC1014
9
$HANDSEED
5
FFFF
0
ENDSEC
0
SECTION
2
TABLES
0
TABLE
2
VPORT
5
8
100
AcDbSymbolTable
0
ENDTAB
0
TABLE
2
LTYPE
5
5
100
AcDbSymbolTable
0
LTYPE
5
14
100
AcDbSymbolTableRecord
100
AcDbLinetypeTableRecord
2
BYBLOCK
70
0
0
LTYPE
5
15
100
AcDbSymbolTableRecord
100
AcDbLinetypeTableRecord
2
BYLAYER
70
0
0
ENDTAB
0
TABLE
2
LAYER
5
2
100
AcDbSymbolTable
70
2
0
LAYER
5
50
100
AcDbSymbolTableRecord
100
AcDbLayerTableRecord
2
0
70
0
6
CONTINUOUS
0
ENDTAB
0
TABLE
2
STYLE
5
3
100
AcDbSymbolTable
70
1
0
STYLE
5
11
100
AcDbSymbolTableRecord
100
AcDbTextStyleTableRecord
2
STANDARD
70
0
0
ENDTAB
0
TABLE
2
VIEW
5
6
100
AcDbSymbolTable
70
0
0
ENDTAB
0
TABLE
2
UCS
5
7
100
AcDbSymbolTable
70
0
0
ENDTAB
0
TABLE
2
APPID
5
9
100
AcDbSymbolTable
70
2
0
APPID
5
12
100
AcDbSymbolTableRecord
100
AcDbRegAppTableRecord
2
ACAD
70
0
0
ENDTAB
0
TABLE
2
DIMSTYLE
5
A
100
AcDbSymbolTable
70
1
0
ENDTAB
0
TABLE
2
BLOCK_RECORD
5
1
100
AcDbSymbolTable
70
1
0
BLOCK_RECORD
5
1F
100
AcDbSymbolTableRecord
100
AcDbBlockTableRecord
2
*MODEL_SPACE
0
BLOCK_RECORD
5
1B
100
AcDbSymbolTableRecord
100
AcDbBlockTableRecord
2
*PAPER_SPACE
0
ENDTAB
0
ENDSEC
0
SECTION
2
BLOCKS
0
BLOCK
5
20
100
AcDbEntity
100
AcDbBlockBegin
2
*MODEL_SPACE
0
ENDBLK
5
21
100
AcDbEntity
100
AcDbBlockEnd
0
BLOCK
5
1C
100
AcDbEntity
100
AcDbBlockBegin
2
*PAPER_SPACE
0
ENDBLK
5
1D
100
AcDbEntity
100
AcDbBlockEnd
0
ENDSEC
0
SECTION
2
ENTITIES
0
LWPOLYLINE
5
100
100
AcDbEntity
8
0
100
AcDbPolyline
90
6
70
1
43
0.0
10
1484.0668071782
20
-242.648201563193
42
0.57735026918957733
10
1484.0668071782002
20
-233.98794752534857
10
1367.0845356414541
20
-166.44820156318897
42
0.57735026918961241
10
1359.5845356414538
20
-170.77832858211093
10
1359.5845356414493
20
-305.85782050642206
42
0.57735026918962795
10
1367.0845356414488
20
-310.18794752534478
0
LWPOLYLINE
5
101
100
AcDbEntity
8
0
100
AcDbPolyline
90
4
70
1
43
0.0
10
1412.3487936617817
20
-226.16103216271881
10
1409.7218499369692
20
-224.64436549605196
10
1417.2385166036372
20
-211.62511692582669
10
1419.8654603284499
20
-213.14178359249368
0
LWPOLYLINE
5
102
100
AcDbEntity
8
0
100
AcDbPolyline
90
4
70
1
43
0.0
10
1388.66523486235
20
-236.8014078776028
10
1388.6652348623497
20
-239.83474121093607
10
1373.6319015290164
20
-239.83474121093465
10
1373.6319015290169
20
-236.80140787760124
0
LWPOLYLINE
5
103
100
AcDbEntity
8
0
100
AcDbPolyline
90
4
70
1
43
0.0
10
1409.7218499369662
20
-251.99178359249103
10
1412.3487936617792
20
-250.47511692582475
10
1419.8654603284444
20
-263.49436549605144
10
1417.2385166036315
20
-265.01103216271787
0
LWPOLYLINE
5
104
100
AcDbEntity
8
0
100
AcDbPolyline
90
12
70
1
43
0.0
10
1373.6485766898409
20
-93.338175455729214
10
1359.5845441356091
20
-93.338175455729214
10
1359.5845441356093
20
-161.67150878906256
10
1373.6485766898409
20
-161.67150878906256
10
1373.6485766898409
20
-164.67150878906256
10
1388.6485766898409
20
-164.67150878906256
10
1388.6485766898409
20
-161.67150878906256
10
1402.7126092440724
20
-161.67150878906256
10
1402.7126092440722
20
-93.338175455729242
10
1388.6485766898406
20
-93.338175455729242
10
1388.6485766898409
20
-90.338175455729242
10
1373.6485766898409
20
-90.338175455729242
0
LWPOLYLINE
5
105
100
AcDbEntity
8
0
100
AcDbPolyline
90
12
70
1
43
0.0
10
1359.5845441356091
20
-84.0048421223959
10
1373.6485766898409
20
-84.0048421223959
10
1373.6485766898409
20
-87.004842122395885
10
1388.6485766898409
20
-87.0048421223959
10
1388.6485766898406
20
-84.004842122395914
10
1402.7126092440724
20
-84.0048421223959
10
1402.7126092440724
20
-15.671508789062569
10
1388.6485766898406
20
-15.671508789062578
10
1388.6485766898406
20
-12.671508789062571
10
1373.6485766898406
20
-12.671508789062571
10
1373.6485766898409
20
-15.671508789062578
10
1359.5845441356091
20
-15.671508789062578
0
LWPOLYLINE
5
106
100
AcDbEntity
8
0
100
AcDbPolyline
90
12
70
1
43
0.0
10
1388.6485783682092
20
-6.3381754557292425
10
1402.7126109224409
20
-6.3381754557292425
10
1402.7126109224412
20
61.995157877604079
10
1388.6485783682097
20
61.995157877604079
10
1388.6485783682092
20
64.995157877604086
10
1373.6485783682092
20
64.995157877604086
10
1373.6485783682097
20
61.995157877604079
10
1359.5845458139779
20
61.995157877604079
10
1359.5845458139779
20
-6.3381754557292425
10
1373.6485783682097
20
-6.3381754557292425
10
1373.6485783682097
20
-9.338175455729214
10
1388.6485783682097
20
-9.338175455729214
0
LWPOLYLINE
5
107
100
AcDbEntity
8
0
100
AcDbPolyline
90
6
70
1
43
0.0
10
1413.5459619187793
20
13.533902513083333
10
1460.0370976871611
20
40.375572263881878
42
0.5773502691896325
10
1460.0370976871623
20
49.035826301726466
10
1413.5459619187818
20
75.877496052537168
42
0.57735026918964449
10
1406.0459619187816
20
71.54736903361534
10
1406.04596191878
20
17.864029532006018
42
0.57735026918959254
0
LWPOLYLINE
5
108
100
AcDbEntity
8
0
100
AcDbPolyline
90
4
70
1
43
0.0
10
1428.4786363108039
20
38.319757941479509
10
1431.1055800356169
20
39.836424608145869
10
1435.2889133689482
20
32.590678729815735
10
1432.6619696441353
20
31.074012063149453
0
LWPOLYLINE
5
109
100
AcDbEntity
8
0
100
AcDbPolyline
90
4
70
1
43
0.0
10
1420.0448051782801
20
46.22236594947708
10
1420.0448051782796
20
43.18903261614372
10
1411.6781385116137
20
43.189032616145617
10
1411.6781385116142
20
46.222365949478942
0
LWPOLYLINE
5
110
100
AcDbEntity
8
0
100
AcDbPolyline
90
4
70
1
43
0.0
10
1431.1055800356189
20
49.574973957469624
10
1428.4786363108062
20
51.091640624136616
10
1432.661969644141
20
58.337386502464796
10
1435.2889133689537
20
56.820719835797803
0
LWPOLYLINE
5
111
100
AcDbEntity
8
0
100
AcDbPolyline
90
12
70
1
43
0.0
10
1471.5192675728192
20
56.954162597656222
10
1465.8704243133188
20
56.954162597656222
10
1465.8704243133193
20
-5.3791707356770857
10
1471.5192675728194
20
-5.3791707356770502
10
1471.5192675728192
20
-8.3791707356770928
10
1479.8526009061518
20
-8.3791707356770928
10
1479.8526009061518
20
-5.3791707356770502
10
1485.5014441656563
20
-5.3791707356770502
10
1485.5014441656563
20
56.954162597656257
10
1479.8526009061518
20
56.954162597656222
10
1479.8526009061518
20
59.954162597656229
10
1471.5192675728192
20
59.954162597656229
0
LWPOLYLINE
5
112
100
AcDbEntity
8
0
100
AcDbPolyline
90
4
70
1
43
0.0
10
1435.9210842583104
20
-11.163761827985539
10
1433.2941405334977
20
-9.6470951613185996
10
1437.4774738668325
20
-2.4013492829903891
10
1440.1044175916447
20
-3.9180159496574118
0
LWPOLYLINE
5
113
100
AcDbEntity
8
0
100
AcDbPolyline
90
4
70
1
43
0.0
10
1433.294140533503
20
14.582945944663521
10
1435.9210842583159
20
16.099612611329814
10
1440.1044175916472
20
8.8538667329997427
10
1437.4774738668343
20
7.3372000663332759
0
LWPOLYLINE
5
114
100
AcDbEntity
8
0
100
AcDbPolyline
90
4
70
1
43
0.0
10
1456.9049153908375
20
3.984592058333547
10
1456.9049153908372
20
0.9512587250001886
10
1448.5382487241714
20
0.95125872500214925
10
1448.5382487241714
20
3.9845920583354753
0
LWPOLYLINE
5
115
100
AcDbEntity
8
0
100
AcDbPolyline
90
6
70
1
43
0.0
10
1408.5459562152903
20
6.7980524105973616
42
0.57735026918963206
10
1408.5459562152892
20
-1.8622016272472122
10
1455.0370919836696
20
-28.703871378057908
42
0.57735026918965249
10
1462.5370919836698
20
-24.373744359136129
10
1462.5370919836714
20
29.309595142473093
42
0.57735026918955734
10
1455.0370919836721
20
33.639722161396129
0
LWPOLYLINE
5
116
100
AcDbEntity
8
0
100
AcDbPolyline
90
6
70
1
43
0.0
10
1413.5459421710189
20
-155.41687021329935
10
1460.0370779394007
20
-128.57520046250085
42
0.57735026918963128
10
1460.0370779394018
20
-119.91494642465628
10
1413.5459421710216
20
-93.07327667384547
42
0.57735026918964127
10
1406.0459421710211
20
-97.403403692767426
10
1406.0459421710195
20
-151.08674319437665
42
0.57735026918959376
0
LWPOLYLINE
5
117
100
AcDbEntity
8
0
100
AcDbPolyline
90
4
70
1
43
0.0
10
1428.4786165630435
20
-130.63101478490324
10
1431.1055602878564
20
-129.11434811823693
10
1435.2888936211878
20
-136.36009399656703
10
1432.6619498963748
20
-137.87676066323331
0
LWPOLYLINE
5
118
100
AcDbEntity
8
0
100
AcDbPolyline
90
4
70
1
43
0.0
10
1420.0447854305196
20
-122.7284067769056
10
1420.0447854305194
20
-125.76174011023895
10
1411.6781187638535
20
-125.76174011023711
10
1411.6781187638537
20
-122.72840677690377
0
LWPOLYLINE
5
119
100
AcDbEntity
8
0
100
AcDbPolyline
90
4
70
1
43
0.0
10
1431.1055602878585
20
-119.37579876891313
10
1428.4786165630458
20
-117.85913210224615
10
1432.6619498963805
20
-110.61338622391796
10
1435.2888936211932
20
-112.13005289058499
0
LWPOLYLINE
5
120
100
AcDbEntity
8
0
100
AcDbPolyline
90
4
70
1
43
0.0
10
1440.1638868835812
20
-188.01852716345456
10
1442.7908306083941
20
-186.50186049678814
10
1450.3074972750594
20
-199.52110906701492
10
1447.6805535502465
20
-201.03777573368134
0
LWPOLYLINE
5
121
100
AcDbEntity
8
0
100
AcDbPolyline
90
4
70
1
43
0.0
10
1404.0739384756316
20
-172.82815144856471
10
1419.1072718089649
20
-172.82815144856627
10
1419.1072718089642
20
-175.86148478189955
10
1404.0739384756309
20
-175.86148478189807
0
LWPOLYLINE
5
122
100
AcDbEntity
8
0
100
AcDbPolyline
90
4
70
1
43
0.0
10
1442.7908306083964
20
-162.18777573368237
10
1440.1638868835837
20
-160.67110906701544
10
1447.6805535502517
20
-147.65186049679016
10
1450.3074972750644
20
-149.1685271634571
0
LWPOLYLINE
5
123
100
AcDbEntity
8
0
100
AcDbPolyline
90
6
70
1
43
0.0
10
1454.7186702507574
20
-213.19481811523502
10
1457.3167464621108
20
-211.69481811523525
10
1457.3167464621183
20
-136.99481811523825
10
1454.7186702507654
20
-135.49481811523799
10
1390.0265725880668
20
-172.84481811523
10
1390.0265725880661
20
-175.84481811523
0
LWPOLYLINE
5
124
100
AcDbEntity
8
0
100
AcDbPolyline
90
12
70
1
43
0.0
10
1483.5847390437921
20
-220.37918090820312
10
1489.2335823033027
20
-220.37918090820312
10
1489.2335823033027
20
-158.04584757486981
10
1483.5847390437921
20
-158.04584757486987
10
1483.5847390437921
20
-155.04584757486981
10
1475.2514057104595
20
-155.04584757486981
10
1475.2514057104595
20
-158.04584757486987
10
1469.6025624509593
20
-158.04584757486987
10
1469.6025624509593
20
-220.37918090820315
10
1475.2514057104595
20
-220.37918090820312
10
1475.2514057104595
20
-223.37918090820312
10
1483.5847390437921
20
-223.37918090820312
0
LWPOLYLINE
5
125
100
AcDbEntity
8
0
100
AcDbPolyline
90
12
70
1
43
0.0
10
1498.2157397408082
20
-175.40484619140656
10
1492.5668964813053
20
-175.40484619140642
10
1492.5668964813051
20
-237.73817952473976
10
1498.2157397408082
20
-237.73817952473991
10
1498.2157397408082
20
-240.73817952473988
10
1506.5490730741408
20
-240.73817952473988
10
1506.5490730741408
20
-237.73817952473991
10
1512.1979163336423
20
-237.73817952473991
10
1512.1979163336423
20
-175.40484619140656
10
1506.5490730741408
20
-175.40484619140656
10
1506.5490730741406
20
-172.40484619140659
10
1498.215739740808
20
-172.40484619140659
0
LWPOLYLINE
5
126
100
AcDbEntity
8
0
100
AcDbPolyline
90
12
70
1
43
0.0
10
1506.5490589401636
20
-309.40484619140636
10
1512.1979021996726
20
-309.40484619140636
10
1512.1979021996726
20
-247.07151285807299
10
1506.5490589401638
20
-247.07151285807299
10
1506.5490589401636
20
-244.07151285807302
10
1498.215725606831
20
-244.07151285807302
10
1498.2157256068313
20
-247.07151285807299
10
1492.5668823473293
20
-247.07151285807299
10
1492.5668823473293
20
-309.40484619140636
10
1498.2157256068313
20
-309.40484619140636
10
1498.215725606831
20
-312.40484619140631
10
1506.5490589401636
20
-312.40484619140631
0
LWPOLYLINE
5
127
100
AcDbEntity
8
0
100
AcDbPolyline
90
4
70
1
43
0.0
10
1462.6175253114095
20
-292.64784424483253
10
1459.9905815865968
20
-291.13117757816548
10
1464.1739149199316
20
-283.88543169983723
10
1466.8008586447443
20
-285.40209836650422
0
LWPOLYLINE
5
128
100
AcDbEntity
8
0
100
AcDbPolyline
90
4
70
1
43
0.0
10
1459.990581586602
20
-266.9011364721834
10
1462.617525311415
20
-265.38446980551703
10
1466.8008586447465
20
-272.63021568384727
10
1464.1739149199336
20
-274.14688235051341
0
LWPOLYLINE
5
129
100
AcDbEntity
8
0
100
AcDbPolyline
90
4
70
1
43
0.0
10
1483.6013564439368
20
-277.49949035851319
10
1483.6013564439361
20
-280.53282369184654
10
1475.2346897772702
20
-280.53282369184461
10
1475.2346897772709
20
-277.49949035851131
0
LWPOLYLINE
5
130
100
AcDbEntity
8
0
100
AcDbPolyline
90
6
70
1
43
0.0
10
1435.2423972683894
20
-274.68603000624955
42
0.57735026918964538
10
1435.2423972683887
20
-283.34628404409403
10
1481.7335330367687
20
-310.1879537949049
42
0.5773502691895982
10
1489.2335330367687
20
-305.85782677598309
10
1489.2335330367705
20
-252.17448727437372
42
0.57735026918960908
10
1481.7335330367712
20
-247.84436025545085
0
LWPOLYLINE
5
131
100
AcDbEntity
8
0
100
AcDbPolyline
90
6
70
1
43
0.0
10
1455.0370721346976
20
-50.835612898244129
10
1408.5459363663158
20
-77.677282649042667
42
0.57735026918963028
10
1408.5459363663149
20
-86.337536686887191
10
1455.0370721346949
20
-113.17920643769796
42
0.57735026918965926
10
1462.5370721346953
20
-108.84907941877611
10
1462.5370721346972
20
-55.165739917166832
42
0.57735026918959376
0
LWPOLYLINE
5
132
100
AcDbEntity
8
0
100
AcDbPolyline
90
4
70
1
43
0.0
10
1440.104397742673
20
-75.621468326640269
10
1437.4774540178601
20
-77.138134993306622
10
1433.2941206845289
20
-69.892389114976538
10
1435.9210644093414
20
-68.375722448310228
0
LWPOLYLINE
5
133
100
AcDbEntity
8
0
100
AcDbPolyline
90
4
70
1
43
0.0
10
1448.5382288751966
20
-83.524076334637869
10
1448.5382288751973
20
-80.490743001304537
10
1456.904895541863
20
-80.490743001306413
10
1456.9048955418623
20
-83.524076334639759
0
LWPOLYLINE
5
134
100
AcDbEntity
8
0
100
AcDbPolyline
90
4
70
1
43
0.0
10
1437.4774540178578
20
-86.876684342630426
10
1440.1043977426705
20
-88.393351009297419
10
1435.9210644093357
20
-95.63909688762557
10
1433.2941206845235
20
-94.122430220958577
0
LWPOLYLINE
5
135
100
AcDbEntity
8
0
100
AcDbPolyline
90
4
70
1
43
0.0
10
1432.6619589755369
20
-26.138043411853673
10
1435.2889027003496
20
-27.654710078520672
10
1431.1055693670151
20
-34.90045595684883
10
1428.4786256422026
20
-33.383789290181838
0
LWPOLYLINE
5
136
100
AcDbEntity
8
0
100
AcDbPolyline
90
4
70
1
43
0.0
10
1435.2889027003446
20
-51.88475118450269
10
1432.6619589755317
20
-53.401417851169015
10
1428.4786256422001
20
-46.15567197283896
10
1431.105569367013
20
-44.639005306172628
0
LWPOLYLINE
5
137
100
AcDbEntity
8
0
100
AcDbPolyline
90
4
70
1
43
0.0
10
1411.6781278430099
20
-41.286397298172815
10
1411.6781278430103
20
-38.253063964839484
10
1420.0447945096764
20
-38.253063964841367
10
1420.0447945096762
20
-41.286397298174705
0
LWPOLYLINE
5
138
100
AcDbEntity
8
0
100
AcDbPolyline
90
6
70
1
43
0.0
10
1460.037087018557
20
-44.099857650436547
42
0.57735026918963195
10
1460.0370870185584
20
-35.439603612591981
10
1413.5459512501779
20
-8.5979338617812786
42
0.57735026918965071
10
1406.0459512501777
20
-12.928060880703082
10
1406.0459512501759
20
-66.611400382312411
42
0.57735026918954768
10
1413.5459512501754
20
-70.941527401235319
0
LWPOLYLINE
5
139
100
AcDbEntity
8
0
100
AcDbPolyline
90
12
70
1
43
0.0
10
1471.5192670767615
20
-14.71250406901051
10
1465.8704238172586
20
-14.712504069010484
10
1465.8704238172586
20
-77.045837402343821
10
1471.5192670767619
20
-77.045837402343849
10
1471.5192670767619
20
-80.045837402343864
10
1479.8526004100945
20
-80.045837402343835
10
1479.8526004100945
20
-77.045837402343835
10
1485.5014436695956
20
-77.045837402343821
10
1485.5014436695956
20
-14.712504069010484
10
1479.8526004100941
20
-14.712504069010501
10
1479.8526004100941
20
-11.712504069010485
10
1471.5192670767615
20
-11.712504069010496
0
LWPOLYLINE
5
140
100
AcDbEntity
8
0
100
AcDbPolyline
90
12
70
1
43
0.0
10
1494.483607814243
20
-20.712504069010507
10
1488.8347645547406
20
-20.712504069010507
10
1488.834764554741
20
-83.045837402343807
10
1494.4836078142432
20
-83.045837402343835
10
1494.4836078142432
20
-86.045837402343835
10
1502.8169411475758
20
-86.045837402343835
10
1502.8169411475756
20
-83.045837402343835
10
1508.465784407078
20
-83.045837402343807
10
1508.465784407078
20
-20.712504069010489
10
1502.8169411475756
20
-20.712504069010507
10
1502.8169411475756
20
-17.7125040690105
10
1494.483607814243
20
-17.712504069010503
0
LWPOLYLINE
5
141
100
AcDbEntity
8
0
100
AcDbPolyline
90
12
70
1
43
0.0
10
1494.4836262271124
20
50.954162597656136
10
1488.8347829676045
20
50.954162597656143
10
1488.8347829676045
20
-11.379170735677171
10
1494.4836262271124
20
-11.379170735677215
10
1494.4836262271122
20
-14.379170735677214
10
1502.8169595604447
20
-14.379170735677224
10
1502.8169595604447
20
-11.379170735677206
10
1508.4658028199476
20
-11.37917073567718
10
1508.4658028199476
20
50.954162597656172
10
1502.816959560445
20
50.954162597656143
10
1502.816959560445
20
53.954162597656143
10
1494.4836262271124
20
53.954162597656151
0
LWPOLYLINE
5
142
100
AcDbEntity
8
0
100
AcDbPolyline
90
12
70
1
43
0.0
10
1471.5192528415707
20
-86.379160563151061
10
1465.8704095820685
20
-86.379160563151061
10
1465.8704095820685
20
-148.71249389648449
10
1471.5192528415707
20
-148.71249389648449
10
1471.5192528415707
20
-151.71249389648443
10
1479.8525861749033
20
-151.71249389648443
10
1479.8525861749031
20
-148.7124938964844
10
1485.5014294344053
20
-148.7124938964844
10
1485.5014294344053
20
-86.379160563151061
10
1479.8525861749031
20
-86.379160563151061
10
1479.8525861749031
20
-83.379160563151089
10
1471.5192528415705
20
-83.379160563151089
0
LWPOLYLINE
5
143
100
AcDbEntity
8
0
100
AcDbPolyline
90
12
70
1
43
0.0
10
1494.4836133651208
20
-92.379170735677292
10
1488.8347701056205
20
-92.379170735677292
10
1488.8347701056205
20
-154.71250406901055
10
1494.4836133651208
20
-154.71250406901055
10
1494.4836133651208
20
-157.71250406901061
10
1502.8169466984534
20
-157.71250406901061
10
1502.8169466984534
20
-154.71250406901055
10
1508.4657899579577
20
-154.71250406901055
10
1508.4657899579577
20
-92.379170735677292
10
1502.8169466984534
20
-92.379170735677292
10
1502.8169466984534
20
-89.379170735677249
10
1494.4836133651208
20
-89.379170735677249
0
ENDSEC
0
SECTION
2
OBJECTS
0
DICTIONARY
5
C
100
AcDbDictionary
3
ACAD_GROUP
350
D
3
ACAD_MLINESTYLE
350
17
0
DICTIONARY
5
D
100
AcDbDictionary
0
DICTIONARY
5
1A
330
C
100
AcDbDictionary
0
DICTIONARY
5
17
100
AcDbDictionary
0
ENDSEC
0
EOF
