  0
SECTION
  2
HEADER
  9
$ACADVER
  1
AC1032
  9
$ACADMAINTVER
 90
      228
  9
$DWGCODEPAGE
  3
ANSI_1252
  9
$REQUIREDVERSIONS
160
                 0
  9
$INSBASE
 10
0.0
 20
0.0
 30
0.0
  9
$EXTMIN
 10
1.000000000000000E+20
 20
1.000000000000000E+20
 30
1.000000000000000E+20
  9
$EXTMAX
 10
-1.000000000000000E+20
 20
-1.000000000000000E+20
 30
-1.000000000000000E+20
  9
$LIMMIN
 10
0.0
 20
0.0
  9
$LIMMAX
 10
12.0
 20
9.0
  9
$ORTHOMODE
 70
     0
  9
$REGENMODE
 70
     1
  9
$FILLMODE
 70
     1
  9
$QTEXTMODE
 70
     0
  9
$MIRRTEXT
 70
     0
  9
$LTSCALE
 40
1.0
  9
$ATTMODE
 70
     1
  9
$TEXTSIZE
 40
0.2
  9
$TRACEWID
 40
0.05
  9
$TEXTSTYLE
  7
Standard
  9
$CLAYER
  8
0
  9
$CELTYPE
  6
ByLayer
  9
$CECOLOR
 62
   256
  9
$CELTSCALE
 40
1.0
  9
$DISPSILH
 70
     0
  9
$DIMSCALE
 40
1.0
  9
$DIMASZ
 40
0.18
  9
$DIMEXO
 40
0.0625
  9
$DIMDLI
 40
0.38
  9
$DIMRND
 40
0.0
  9
$DIMDLE
 40
0.0
  9
$DIMEXE
 40
0.18
  9
$DIMTP
 40
0.0
  9
$DIMTM
 40
0.0
  9
$DIMTXT
 40
0.18
  9
$DIMCEN
 40
0.09
  9
$DIMTSZ
 40
0.0
  9
$DIMTOL
 70
     0
  9
$DIMLIM
 70
     0
  9
$DIMTIH
 70
     1
  9
$DIMTOH
 70
     1
  9
$DIMSE1
 70
     0
  9
$DIMSE2
 70
     0
  9
$DIMTAD
 70
     0
  9
$DIMZIN
 70
     0
  9
$DIMBLK
  1

  9
$DIMASO
 70
     1
  9
$DIMSHO
 70
     1
  9
$DIMPOST
  1

  9
$DIMAPOST
  1

  9
$DIMALT
 70
     0
  9
$DIMALTD
 70
     2
  9
$DIMALTF
 40
25.4
  9
$DIMLFAC
 40
1.0
  9
$DIMTOFL
 70
     0
  9
$DIMTVP
 40
0.0
  9
$DIMTIX
 70
     0
  9
$DIMSOXD
 70
     0
  9
$DIMSAH
 70
     0
  9
$DIMBLK1
  1

  9
$DIMBLK2
  1

  9
$DIMSTYLE
  2
Standard
  9
$DIMCLRD
 70
     0
  9
$DIMCLRE
 70
     0
  9
$DIMCLRT
 70
     0
  9
$DIMTFAC
 40
1.0
  9
$DIMGAP
 40
0.09
  9
$DIMJUST
 70
     0
  9
$DIMSD1
 70
     0
  9
$DIMSD2
 70
     0
  9
$DIMTOLJ
 70
     1
  9
$DIMTZIN
 70
     0
  9
$DIMALTZ
 70
     0
  9
$DIMALTTZ
 70
     0
  9
$DIMUPT
 70
     0
  9
$DIMDEC
 70
     4
  9
$DIMTDEC
 70
     4
  9
$DIMALTU
 70
     2
  9
$DIMALTTD
 70
     2
  9
$DIMTXSTY
  7
Standard
  9
$DIMAUNIT
 70
     0
  9
$DIMADEC
 70
     0
  9
$DIMALTRND
 40
0.0
  9
$DIMAZIN
 70
     0
  9
$DIMDSEP
 70
    46
  9
$DIMATFIT
 70
     3
  9
$DIMFRAC
 70
     0
  9
$DIMLDRBLK
  1

  9
$DIMLUNIT
 70
     2
  9
$DIMLWD
 70
    -2
  9
$DIMLWE
 70
    -2
  9
$DIMTMOVE
 70
     0
  9
$DIMFXL
 40
1.0
  9
$DIMFXLON
 70
     0
  9
$DIMJOGANG
 40
0.7853981633974483
  9
$DIMTFILL
 70
     0
  9
$DIMTFILLCLR
 70
     0
  9
$DIMARCSYM
 70
     0
  9
$DIMLTYPE
  6

  9
$DIMLTEX1
  6

  9
$DIMLTEX2
  6

  9
$DIMTXTDIRECTION
 70
     0
  9
$LUNITS
 70
     2
  9
$LUPREC
 70
     4
  9
$SKETCHINC
 40
0.1
  9
$FILLETRAD
 40
0.0
  9
$AUNITS
 70
     0
  9
$AUPREC
 70
     0
  9
$MENU
  1
.
  9
$ELEVATION
 40
0.0
  9
$PELEVATION
 40
0.0
  9
$THICKNESS
 40
0.0
  9
$LIMCHECK
 70
     0
  9
$CHAMFERA
 40
0.0
  9
$CHAMFERB
 40
0.0
  9
$CHAMFERC
 40
0.0
  9
$CHAMFERD
 40
0.0
  9
$SKPOLY
 70
     0
  9
$TDCREATE
 40
2460351.729236111
  9
$TDUCREATE
 40
2460351.354236111
  9
$TDUPDATE
 40
2460351.729236111
  9
$TDUUPDATE
 40
2460351.354236111
  9
$TDINDWG
 40
0.0000000000
  9
$TDUSRTIMER
 40
0.0000000000
  9
$USRTIMER
 70
     1
  9
$ANGBASE
 50
0.0
  9
$ANGDIR
 70
     0
  9
$PDMODE
 70
     0
  9
$PDSIZE
 40
0.0
  9
$PLINEWID
 40
0.0
  9
$SPLFRAME
 70
     0
  9
$SPLINETYPE
 70
     6
  9
$SPLINESEGS
 70
     8
  9
$HANDSEED
  5
97
  9
$SURFTAB1
 70
     6
  9
$SURFTAB2
 70
     6
  9
$SURFTYPE
 70
     6
  9
$SURFU
 70
     6
  9
$SURFV
 70
     6
  9
$UCSBASE
  2

  9
$UCSNAME
  2

  9
$UCSORG
 10
0.0
 20
0.0
 30
0.0
  9
$UCSXDIR
 10
1.0
 20
0.0
 30
0.0
  9
$UCSYDIR
 10
0.0
 20
1.0
 30
0.0
  9
$UCSORTHOREF
  2

  9
$UCSORTHOVIEW
 70
     0
  9
$UCSORGTOP
 10
0.0
 20
0.0
 30
0.0
  9
$UCSORGBOTTOM
 10
0.0
 20
0.0
 30
0.0
  9
$UCSORGLEFT
 10
0.0
 20
0.0
 30
0.0
  9
$UCSORGRIGHT
 10
0.0
 20
0.0
 30
0.0
  9
$UCSORGFRONT
 10
0.0
 20
0.0
 30
0.0
  9
$UCSORGBACK
 10
0.0
 20
0.0
 30
0.0
  9
$PUCSBASE
  2

  9
$PUCSNAME
  2

  9
$PUCSORG
 10
0.0
 20
0.0
 30
0.0
  9
$PUCSXDIR
 10
1.0
 20
0.0
 30
0.0
  9
$PUCSYDIR
 10
0.0
 20
1.0
 30
0.0
  9
$PUCSORTHOREF
  2

  9
$PUCSORTHOVIEW
 70
     0
  9
$PUCSORGTOP
 10
0.0
 20
0.0
 30
0.0
  9
$PUCSORGBOTTOM
 10
0.0
 20
0.0
 30
0.0
  9
$PUCSORGLEFT
 10
0.0
 20
0.0
 30
0.0
  9
$PUCSORGRIGHT
 10
0.0
 20
0.0
 30
0.0
  9
$PUCSORGFRONT
 10
0.0
 20
0.0
 30
0.0
  9
$PUCSORGBACK
 10
0.0
 20
0.0
 30
0.0
  9
$USERI1
 70
     0
  9
$USERI2
 70
     0
  9
$USERI3
 70
     0
  9
$USERI4
 70
     0
  9
$USERI5
 70
     0
  9
$USERR1
 40
0.0
  9
$USERR2
 40
0.0
  9
$USERR3
 40
0.0
  9
$USERR4
 40
0.0
  9
$USERR5
 40
0.0
  9
$WORLDVIEW
 70
     1
  9
$SHADEDGE
 70
     3
  9
$SHADEDIF
 70
    70
  9
$TILEMODE
 70
     1
  9
$MAXACTVP
 70
    64
  9
$PINSBASE
 10
0.0
 20
0.0
 30
0.0
  9
$PLIMCHECK
 70
     0
  9
$PEXTMIN
 10
1.000000000000000E+20
 20
1.000000000000000E+20
 30
1.000000000000000E+20
  9
$PEXTMAX
 10
-1.000000000000000E+20
 20
-1.000000000000000E+20
 30
-1.000000000000000E+20
  9
$PLIMMIN
 10
0.0
 20
0.0
  9
$PLIMMAX
 10
12.0
 20
9.0
  9
$UNITMODE
 70
     0
  9
$VISRETAIN
 70
     1
  9
$PLINEGEN
 70
     0
  9
$PSLTSCALE
 70
     1
  9
$TREEDEPTH
 70
  3020
  9
$CMLSTYLE
  2
Standard
  9
$CMLJUST
 70
     0
  9
$CMLSCALE
 40
1.0
  9
$PROXYGRAPHICS
 70
     1
  9
$MEASUREMENT
 70
     0
  9
$CELWEIGHT
370
    -1
  9
$ENDCAPS
280
     0
  9
$JOINSTYLE
280
     0
  9
$LWDISPLAY
290
     1
  9
$INSUNITS
 70
     4
  9
$HYPERLINKBASE
  1

  9
$STYLESHEET
  1

  9
$XEDIT
290
     1
  9
$CEPSNTYPE
380
     0
  9
$PSTYLEMODE
290
     1
  9
$FINGERPRINTGUID
  2
{9573C4FE-8252-F94D-88E6-2603E83429C1}
  9
$VERSIONGUID
  2
{631836E5-7FD5-A942-AC0E-04A3F16C87D1}
  9
$EXTNAMES
290
     1
  9
$PSVPSCALE
 40
0.0
  9
$OLESTARTUP
290
     0
  9
$SORTENTS
280
   127
  9
$INDEXCTL
280
     0
  9
$HIDETEXT
280
     1
  9
$XCLIPFRAME
280
     2
  9
$HALOGAP
280
     0
  9
$OBSCOLOR
 70
   257
  9
$OBSLTYPE
280
     0
  9
$INTERSECTIONDISPLAY
280
     0
  9
$INTERSECTIONCOLOR
 70
   257
  9
$DIMASSOC
280
     2
  9
$PROJECTNAME
  1

  9
$CAMERADISPLAY
290
     0
  9
$LENSLENGTH
 40
50.0
  9
$CAMERAHEIGHT
 40
0.0
  9
$STEPSPERSEC
 40
2.0
  9
$STEPSIZE
 40
6.0
  9
$3DDWFPREC
 40
2.0
  9
$PSOLWIDTH
 40
0.25
  9
$PSOLHEIGHT
 40
4.0
  9
$LOFTANG1
 40
1.570796326794896
  9
$LOFTANG2
 40
1.570796326794896
  9
$LOFTMAG1
 40
0.0
  9
$LOFTMAG2
 40
0.0
  9
$LOFTPARAM
 70
     7
  9
$LOFTNORMALS
280
     1
  9
$LATITUDE
 40
37.795
  9
$LONGITUDE
 40
-122.394
  9
$NORTHDIRECTION
 40
0.0
  9
$TIMEZONE
 70
 -8000
  9
$LIGHTGLYPHDISPLAY
280
     1
  9
$TILEMODELIGHTSYNCH
280
     1
  9
$CMATERIAL
347
11
  9
$SOLIDHIST
280
     0
  9
$SHOWHIST
280
     1
  9
$DWFFRAME
280
     2
  9
$DGNFRAME
280
     0
  9
$REALWORLDSCALE
290
     1
  9
$INTERFERECOLOR
 62
     1
  9
$INTERFEREOBJVS
345
33
  9
$INTERFEREVPVS
346
30
  9
$CSHADOW
280
     0
  9
$SHADOWPLANELOCATION
 40
0.0
  0
ENDSEC
  0
SECTION
  2
CLASSES
  0
CLASS
  1
ACDBDICTIONARYWDFLT
  2
AcDbDictionaryWithDefault
  3
ObjectDBX Classes
 90
        0
 91
        1
280
     0
281
     0
  0
CLASS
  1
MATERIAL
  2
AcDbMaterial
  3
ObjectDBX Classes
 90
     1153
 91
        3
280
     0
281
     0
  0
CLASS
  1
VISUALSTYLE
  2
AcDbVisualStyle
  3
ObjectDBX Classes
 90
     4095
 91
       24
280
     0
281
     0
  0
CLASS
  1
SCALE
  2
AcDbScale
  3
ObjectDBX Classes
 90
     1153
 91
       17
280
     0
281
     0
  0
CLASS
  1
TABLESTYLE
  2
AcDbTableStyle
  3
ObjectDBX Classes
 90
     4095
 91
        1
280
     0
281
     0
  0
CLASS
  1
MLEADERSTYLE
  2
AcDbMLeaderStyle
  3
ACDB_MLEADERSTYLE_CLASS
 90
     4095
 91
        1
280
     0
281
     0
  0
CLASS
  1
ACDBSECTIONVIEWSTYLE
  2
AcDbSectionViewStyle
  3
ObjectDBX Classes
 90
     1025
 91
        1
280
     0
281
     0
  0
CLASS
  1
ACDBDETAILVIEWSTYLE
  2
AcDbDetailViewStyle
  3
ObjectDBX Classes
 90
     1025
 91
        1
280
     0
281
     0
  0
CLASS
  1
DICTIONARYVAR
  2
AcDbDictionaryVar
  3
ObjectDBX Classes
 90
        0
 91
        5
280
     0
281
     0
  0
CLASS
  1
CELLSTYLEMAP
  2
AcDbCellStyleMap
  3
ObjectDBX Classes
 90
     1152
 91
        1
280
     0
281
     0
  0
ENDSEC
  0
SECTION
  2
TABLES
  0
TABLE
  2
VPORT
  5
8
330
0
100
AcDbSymbolTable
 70
     1
  0
VPORT
  5
57
330
8
100
AcDbSymbolTableRecord
100
AcDbViewportTableRecord
  2
*Active
 70
     0
 10
0.0
 20
0.0
 11
1.0
 21
1.0
 12
0.0
 22
0.0
 13
0.0
 23
0.0
 14
1.0
 24
1.0
 15
0.0
 25
0.0
 16
0.0
 26
0.0
 36
1.0
 17
148.5000119155985
 27
-104.9999970067687
 37
0.0
 40
214.1999938938081
 41
1.414285868084602
 42
50.0
 43
0.0
 44
0.0
 50
0.0
 51
0.0
 71
     0
 72
   100
 73
     1
 74
     1
 75
     0
 76
     0
 77
     0
 78
     0
281
     0
 65
     1
110
0.0
120
0.0
130
0.0
111
1.0
121
0.0
131
0.0
112
0.0
122
1.0
132
0.0
 79
     0
146
0.0
 60
     3
 61
     5
292
     1
282
     1
141
0.0
142
0.0
 63
   250
421
  3355443
  0
ENDTAB
  0
TABLE
  2
LTYPE
  5
5
330
0
100
AcDbSymbolTable
 70
     1
  0
LTYPE
  5
5B
330
5
100
AcDbSymbolTableRecord
100
AcDbLinetypeTableRecord
  2
ByBlock
 70
     0
  3

 72
    65
 73
     0
 40
0.0
  0
LTYPE
  5
5C
330
5
100
AcDbSymbolTableRecord
100
AcDbLinetypeTableRecord
  2
ByLayer
 70
     0
  3

 72
    65
 73
     0
 40
0.0
  0
LTYPE
  5
5D
330
5
100
AcDbSymbolTableRecord
100
AcDbLinetypeTableRecord
  2
Continuous
 70
     0
  3
Solid line
 72
    65
 73
     0
 40
0.0
  0
ENDTAB
  0
TABLE
  2
LAYER
  5
2
330
0
100
AcDbSymbolTable
 70
     2
  0
LAYER
  5
54
330
2
100
AcDbSymbolTableRecord
100
AcDbLayerTableRecord
  2
0
 70
     0
 62
     7
  6
Continuous
370
    -3
390
F
347
21
348
0
  0
LAYER
  5
78
330
2
100
AcDbSymbolTableRecord
100
AcDbLayerTableRecord
  2
Layer 1
 70
     0
 62
     7
  6
Continuous
370
     0
390
F
347
21
348
0
  0
ENDTAB
  0
TABLE
  2
STYLE
  5
3
330
0
100
AcDbSymbolTable
 70
     2
  0
STYLE
  5
55
330
3
100
AcDbSymbolTableRecord
100
AcDbTextStyleTableRecord
  2
Standard
 70
     0
 40
0.0
 41
1.0
 50
0.0
 71
     0
 42
0.2
  3
txt
  4

  0
STYLE
  5
5A
330
3
100
AcDbSymbolTableRecord
100
AcDbTextStyleTableRecord
  2
Annotative
 70
     0
 40
0.0
 41
1.0
 50
0.0
 71
     0
 42
0.2
  3
txt
  4

1001
AcadAnnotative
1000
AnnotativeData
1002
{
1070
     1
1070
     1
1002
}
  0
ENDTAB
  0
TABLE
  2
VIEW
  5
6
330
0
100
AcDbSymbolTable
 70
     0
  0
ENDTAB
  0
TABLE
  2
UCS
  5
7
330
0
100
AcDbSymbolTable
 70
     0
  0
ENDTAB
  0
TABLE
  2
APPID
  5
9
330
0
100
AcDbSymbolTable
 70
     2
  0
APPID
  5
56
330
9
100
AcDbSymbolTableRecord
100
AcDbRegAppTableRecord
  2
ACAD
 70
     0
  0
APPID
  5
5E
330
9
100
AcDbSymbolTableRecord
100
AcDbRegAppTableRecord
  2
AcadAnnotative
 70
     0
  0
ENDTAB
  0
TABLE
  2
DIMSTYLE
  5
A
330
0
100
AcDbSymbolTable
 70
     2
100
AcDbDimStyleTable
 71
     0
  0
DIMSTYLE
105
58
330
A
100
AcDbSymbolTableRecord
100
AcDbDimStyleTableRecord
  2
Standard
 70
     0
340
55
  0
DIMSTYLE
105
59
330
A
100
AcDbSymbolTableRecord
100
AcDbDimStyleTableRecord
  2
Annotative
 70
     0
340
55
1001
AcadAnnotative
1000
AnnotativeData
1002
{
1070
     1
1070
     1
1002
}
  0
ENDTAB
  0
TABLE
  2
BLOCK_RECORD
  5
1
330
0
100
AcDbSymbolTable
 70
     2
  0
BLOCK_RECORD
  5
70
330
1
100
AcDbSymbolTableRecord
100
AcDbBlockTableRecord
  2
*Model_Space
340
73
 70
     0
280
     1
281
     0
  0
BLOCK_RECORD
  5
6C
330
1
100
AcDbSymbolTableRecord
100
AcDbBlockTableRecord
  2
*Paper_Space
340
6F
 70
     0
280
     1
281
     0
  0
BLOCK_RECORD
  5
74
330
1
100
AcDbSymbolTableRecord
100
AcDbBlockTableRecord
  2
*Paper_Space0
340
77
 70
     0
280
     1
281
     0
  0
BLOCK_RECORD
  5
79
330
1
100
AcDbSymbolTableRecord
100
AcDbBlockTableRecord
  2
Block_0
340
0
102
{BLKREFS
331
7A
102
}
 70
     0
280
     1
281
     0
  0
ENDTAB
  0
ENDSEC
  0
SECTION
  2
BLOCKS
  0
BLOCK
  5
71
330
70
100
AcDbEntity
  8
0
100
AcDbBlockBegin
  2
*Model_Space
 70
     0
 10
0.0
 20
0.0
 30
0.0
  3
*Model_Space
  1

  0
ENDBLK
  5
72
330
70
100
AcDbEntity
  8
0
100
AcDbBlockEnd
  0
BLOCK
  5
6D
330
6C
100
AcDbEntity
 67
     1
  8
0
100
AcDbBlockBegin
  2
*Paper_Space
 70
     0
 10
0.0
 20
0.0
 30
0.0
  3
*Paper_Space
  1

  0
ENDBLK
  5
6E
330
6C
100
AcDbEntity
 67
     1
  8
0
100
AcDbBlockEnd
  0
BLOCK
  5
75
330
74
100
AcDbEntity
 67
     1
  8
0
100
AcDbBlockBegin
  2
*Paper_Space0
 70
     0
 10
0.0
 20
0.0
 30
0.0
  3
*Paper_Space0
  1

  0
ENDBLK
  5
76
330
74
100
AcDbEntity
 67
     1
  8
0
100
AcDbBlockEnd
  0
BLOCK
  5
7B
330
79
100
AcDbEntity
  8
0
100
AcDbBlockBegin
  2
Block_0
 70
     0
 10
0.0
 20
0.0
 30
0.0
  3
Block_0
  1

  0
SPLINE
  5
7D
330
79
100
AcDbEntity
  8
Layer 1
 62
   250
420
  2301728
370
     9
100
AcDbSpline
210
0.0
220
0.0
230
1.0
 70
     9
 71
     3
 72
   296
 73
   292
 74
     0
 42
0.0000000001
 43
0.0000000001
 40
0.0
 40
0.0
 40
0.0
 40
0.0
 40
1.0
 40
1.0
 40
1.0
 40
2.0
 40
2.0
 40
2.0
 40
3.0
 40
3.0
 40
3.0
 40
4.0
 40
4.0
 40
4.0
 40
5.0
 40
5.0
 40
5.0
 40
6.0
 40
6.0
 40
6.0
 40
7.0
 40
7.0
 40
7.0
 40
8.0
 40
8.0
 40
8.0
 40
9.0
 40
9.0
 40
9.0
 40
10.0
 40
10.0
 40
10.0
 40
11.0
 40
11.0
 40
11.0
 40
12.0
 40
12.0
 40
12.0
 40
13.0
 40
13.0
 40
13.0
 40
14.0
 40
14.0
 40
14.0
 40
15.0
 40
15.0
 40
15.0
 40
16.0
 40
16.0
 40
16.0
 40
17.0
 40
17.0
 40
17.0
 40
18.0
 40
18.0
 40
18.0
 40
19.0
 40
19.0
 40
19.0
 40
20.0
 40
20.0
 40
20.0
 40
21.0
 40
21.0
 40
21.0
 40
22.0
 40
22.0
 40
22.0
 40
23.0
 40
23.0
 40
23.0
 40
24.0
 40
24.0
 40
24.0
 40
25.0
 40
25.0
 40
25.0
 40
26.0
 40
26.0
 40
26.0
 40
27.0
 40
27.0
 40
27.0
 40
28.0
 40
28.0
 40
28.0
 40
29.0
 40
29.0
 40
29.0
 40
30.0
 40
30.0
 40
30.0
 40
31.0
 40
31.0
 40
31.0
 40
32.0
 40
32.0
 40
32.0
 40
33.0
 40
33.0
 40
33.0
 40
34.0
 40
34.0
 40
34.0
 40
35.0
 40
35.0
 40
35.0
 40
36.0
 40
36.0
 40
36.0
 40
37.0
 40
37.0
 40
37.0
 40
38.0
 40
38.0
 40
38.0
 40
39.0
 40
39.0
 40
39.0
 40
40.0
 40
40.0
 40
40.0
 40
41.0
 40
41.0
 40
41.0
 40
42.0
 40
42.0
 40
42.0
 40
43.0
 40
43.0
 40
43.0
 40
44.0
 40
44.0
 40
44.0
 40
45.0
 40
45.0
 40
45.0
 40
46.0
 40
46.0
 40
46.0
 40
47.0
 40
47.0
 40
47.0
 40
48.0
 40
48.0
 40
48.0
 40
49.0
 40
49.0
 40
49.0
 40
50.0
 40
50.0
 40
50.0
 40
51.0
 40
51.0
 40
51.0
 40
52.0
 40
52.0
 40
52.0
 40
53.0
 40
53.0
 40
53.0
 40
54.0
 40
54.0
 40
54.0
 40
55.0
 40
55.0
 40
55.0
 40
56.0
 40
56.0
 40
56.0
 40
57.0
 40
57.0
 40
57.0
 40
58.0
 40
58.0
 40
58.0
 40
59.0
 40
59.0
 40
59.0
 40
60.0
 40
60.0
 40
60.0
 40
61.0
 40
61.0
 40
61.0
 40
62.0
 40
62.0
 40
62.0
 40
63.0
 40
63.0
 40
63.0
 40
64.0
 40
64.0
 40
64.0
 40
65.0
 40
65.0
 40
65.0
 40
66.0
 40
66.0
 40
66.0
 40
67.0
 40
67.0
 40
67.0
 40
68.0
 40
68.0
 40
68.0
 40
69.0
 40
69.0
 40
69.0
 40
70.0
 40
70.0
 40
70.0
 40
71.0
 40
71.0
 40
71.0
 40
72.0
 40
72.0
 40
72.0
 40
73.0
 40
73.0
 40
73.0
 40
74.0
 40
74.0
 40
74.0
 40
75.0
 40
75.0
 40
75.0
 40
76.0
 40
76.0
 40
76.0
 40
77.0
 40
77.0
 40
77.0
 40
78.0
 40
78.0
 40
78.0
 40
79.0
 40
79.0
 40
79.0
 40
80.0
 40
80.0
 40
80.0
 40
81.0
 40
81.0
 40
81.0
 40
82.0
 40
82.0
 40
82.0
 40
83.0
 40
83.0
 40
83.0
 40
84.0
 40
84.0
 40
84.0
 40
85.0
 40
85.0
 40
85.0
 40
86.0
 40
86.0
 40
86.0
 40
87.0
 40
87.0
 40
87.0
 40
88.0
 40
88.0
 40
88.0
 40
89.0
 40
89.0
 40
89.0
 40
90.0
 40
90.0
 40
90.0
 40
91.0
 40
91.0
 40
91.0
 40
92.0
 40
92.0
 40
92.0
 40
93.0
 40
93.0
 40
93.0
 40
94.0
 40
94.0
 40
94.0
 40
95.0
 40
95.0
 40
95.0
 40
96.0
 40
96.0
 40
96.0
 40
97.0
 40
97.0
 40
97.0
 40
97.0
 10
103.3184136026426
 20
-61.57780895812986
 30
0.0
 10
103.3184136026426
 20
-61.77073430530384
 30
0.0
 10
103.2770724568196
 20
-61.95504691376471
 30
0.0
 10
103.1943901651736
 20
-62.13074678351246
 30
0.0
 10
103.1117078735276
 20
-62.30644665326019
 30
0.0
 10
102.9944023722549
 20
-62.45803085461119
 30
0.0
 10
102.8429904256781
 20
-62.58549938756543
 30
0.0
 10
102.6914062243271
 20
-62.71314017529394
 30
0.0
 10
102.5086439088346
 20
-62.81459823733455
 30
0.0
 10
102.2952202435234
 20
-62.89039033801004
 30
0.0
 10
102.0816243234379
 20
-62.9663546934598
 30
0.0
 10
101.8439127349557
 20
-63.00407848902328
 30
0.0
 10
101.5820854780767
 20
-63.00407848902328
 30
0.0
 10
101.1617838288762
 20
-63.00407848902328
 30
0.0
 10
100.5278862595902
 20
-62.85938447864279
 30
0.0
 10
99.6803927702188
 20
-62.5699964578818
 30
0.0
 10
98.97070310025732
 20
-62.32194958294382
 30
0.0
 10
98.24206540512699
 20
-62.04134655567022
 30
0.0
 10
97.49447968482778
 20
-61.72767061173822
 30
0.0
 10
96.7467217097543
 20
-61.41416692258049
 30
0.0
 10
95.98036021906047
 20
-61.06104463534238
 30
0.0
 10
95.1948784484235
 20
-60.6683037500239
 30
0.0
 10
94.82280813601652
 20
-60.4822685938204
 30
0.0
 10
94.36288788873566
 20
-60.30656872407266
 30
0.0
 10
93.81511770658095
 20
-60.14120414078067
 30
0.0
 10
93.26734752442623
 20
-59.97583955748869
 30
0.0
 10
92.66945120296112
 20
-59.85181612001968
 30
0.0
 10
92.0219455065084
 20
-59.76913382837369
 30
0.0
 10
91.9943847426264
 20
-59.82442761091196
 30
0.0
 10
91.96854652648703
 20
-59.92261283224157
 30
0.0
 10
91.94443085809028
 20
-60.06368949236255
 30
0.0
 10
91.92014293491928
 20
-60.2049384072578
 30
0.0
 10
91.89947236200778
 20
-60.36186250661092
 30
0.0
 10
91.88241913935579
 20
-60.53394502609915
 30
0.0
 10
91.86519366192953
 20
-60.70619980036164
 30
0.0
 10
91.85296357295689
 20
-60.88189967010939
 30
0.0
 10
91.84624563676067
 20
-61.06104463534238
 30
0.0
 10
91.83935544579016
 20
-61.24036185534963
 30
0.0
 10
91.83591035030492
 20
-61.39866399289687
 30
0.0
 10
91.83591035030492
 20
-61.53646781230686
 30
0.0
 10
91.83591035030492
 20
-61.83980846978311
 30
0.0
 10
91.86002601870166
 20
-62.09629582865995
 30
0.0
 10
91.90825735549516
 20
-62.30644665326019
 30
0.0
 10
91.9563164375144
 20
-62.5167697326347
 30
0.0
 10
92.02866344270464
 20
-62.72864310497756
 30
0.0
 10
92.1252983710659
 20
-62.94206677028879
 30
0.0
 10
92.25603974473115
 20
-63.19700383619728
 30
0.0
 10
92.3526746730924
 20
-63.4192124949959
 30
0.0
 10
92.4146863918269
 20
-63.60869274668463
 30
0.0
 10
92.47669811056139
 20
-63.79834525314763
 30
0.0
 10
92.50770396992862
 20
-63.94820690675601
 30
0.0
 10
92.50770396992862
 20
-64.05827770750974
 30
0.0
 10
92.50770396992862
 20
-64.32699515535922
 30
0.0
 10
92.36972789574437
 20
-64.55781655287096
 30
0.0
 10
92.09429251169865
 20
-64.75074190004495
 30
0.0
 10
91.81868487287866
 20
-64.94349499244468
 30
0.0
 10
91.41560870110444
 20
-65.10885957573667
 30
0.0
 10
90.88506399637596
 20
-65.24683564992094
 30
0.0
 10
90.53366425688047
 20
-65.04012992080594
 30
0.0
 10
90.25099417231572
 20
-64.81275361877945
 30
0.0
 10
90.0375705070045
 20
-64.56470674384147
 30
0.0
 10
89.82397458691901
 20
-64.31665986890347
 30
0.0
 10
89.65861000362702
 20
-64.04449732556874
 30
0.0
 10
89.54147675712851
 20
-63.74821911383725
 30
0.0
 10
89.42417125585576
 20
-63.45211315688003
 30
0.0
 10
89.34665660743766
 20
-63.13326956972016
 30
0.0
 10
89.30893281187415
 20
-62.79220511668042
 30
0.0
 10
89.2710367615364
 20
-62.45114066364069
 30
0.0
 10
89.25208873636753
 20
-62.09112818543208
 30
0.0
 10
89.25208873636753
 20
-61.7121676820546
 30
0.0
 10
89.25208873636753
 20
-61.48479138002811
 30
0.0
 10
89.25725637959542
 20
-61.16956514312775
 30
0.0
 10
89.26759166605116
 20
-60.76648897135352
 30
0.0
 10
89.27792695250692
 20
-60.36341279957929
 30
0.0
 10
89.2917073344479
 20
-59.90521510004106
 30
0.0
 10
89.30893281187415
 20
-59.39189587273883
 30
0.0
 10
89.32598603452616
 20
-58.87874890021087
 30
0.0
 10
89.34510631446928
 20
-58.32908391553925
 30
0.0
 10
89.36577688738077
 20
-57.74341768304679
 30
0.0
 10
89.38644746029227
 20
-57.15792370532858
 30
0.0
 10
89.40711803320379
 20
-56.57208521806184
 30
0.0
 10
89.42778860611529
 20
-55.98641898556937
 30
0.0
 10
89.44845917902679
 20
-55.40092500785116
 30
0.0
 10
89.46912975193828
 20
-54.83248425278493
 30
0.0
 10
89.48980032484978
 20
-54.2810967203707
 30
0.0
 10
89.51047089776128
 20
-53.72988144273072
 30
0.0
 10
89.52941892293015
 20
-53.23051485214376
 30
0.0
 10
89.5466444003564
 20
-52.78248018428702
 30
0.0
 10
89.56369762300838
 20
-52.33461777120454
 30
0.0
 10
89.57765025972364
 20
-51.96082491105493
 30
0.0
 10
89.5879855461794
 20
-51.66110160383819
 30
0.0
 10
89.59832083263515
 20
-51.36137829662146
 30
0.0
 10
89.60348847586301
 20
-51.16673040170485
 30
0.0
 10
89.60348847586301
 20
-51.07715791908835
 30
0.0
 10
89.60348847586301
 20
-51.04270696423585
 30
0.0
 10
89.59987112560352
 20
-50.99619817518497
 30
0.0
 10
89.59315318940728
 20
-50.93763155193573
 30
0.0
 10
89.58626299843677
 20
-50.87923718346075
 30
0.0
 10
89.57765025972364
 20
-50.81533066220936
 30
0.0
 10
89.5673149732679
 20
-50.74642875250436
 30
0.0
 10
89.55697968681214
 20
-50.67769909757362
 30
0.0
 10
89.54819469332475
 20
-50.60862493309437
 30
0.0
 10
89.54147675712851
 20
-50.53972302338937
 30
0.0
 10
89.53458656615802
 20
-50.47099336845864
 30
0.0
 10
89.53114147067278
 20
-50.41569958592038
 30
0.0
 10
89.53114147067278
 20
-50.37435844009738
 30
0.0
 10
89.53114147067278
 20
-50.09186061030689
 30
0.0
 10
89.66188284433801
 20
-49.81987032174642
 30
0.0
 10
89.92388235599126
 20
-49.55787081009317
 30
0.0
 10
90.17192923092924
 20
-49.32377657187045
 30
0.0
 10
90.46476234717548
 20
-49.20647107059769
 30
0.0
 10
90.80238170472997
 20
-49.20647107059769
 30
0.0
 10
91.07781708877569
 20
-49.20647107059769
 30
0.0
 10
91.35015188688468
 20
-49.27881807578794
 30
0.0
 10
91.61886933473416
 20
-49.42351208616843
 30
0.0
 10
92.01832815624889
 20
-49.62349987908718
 30
0.0
 10
92.21831594916764
 20
-49.86121146756942
 30
0.0
 10
92.21831594916764
 20
-50.13664685161515
 30
0.0
 10
92.21831594916764
 20
-50.2332817799764
 30
0.0
 10
92.20625811496928
 20
-50.35024277170063
 30
0.0
 10
92.18214244657252
 20
-50.48804659111063
 30
0.0
 10
92.15785452340151
 20
-50.62602266529488
 30
0.0
 10
92.13907875300689
 20
-50.74642875250436
 30
0.0
 10
92.1252983710659
 20
-50.84978161706186
 30
0.0
 10
92.09067516143914
 20
-51.09782849199985
 30
0.0
 10
92.0632866523314
 20
-51.35104301016571
 30
0.0
 10
92.0426160794199
 20
-51.60942517155945
 30
0.0
 10
92.0219455065084
 20
-51.86780733295319
 30
0.0
 10
92.00472002908215
 20
-52.1382473285453
 30
0.0
 10
91.99093964714116
 20
-52.42074515833579
 30
0.0
 10
91.9563164375144
 20
-53.12354463732675
 30
0.0
 10
91.92720538066403
 20
-53.87285290536859
 30
0.0
 10
91.90308971226729
 20
-54.66866996246131
 30
0.0
 10
91.87880178909628
 20
-55.46448701955402
 30
0.0
 10
91.85296357295689
 20
-56.31714815215335
 30
0.0
 10
91.82557506384917
 20
-57.22665336025931
 30
0.0
 10
91.8736341458684
 20
-57.19926485115157
 30
0.0
 10
91.9375406671198
 20
-57.16464164152482
 30
0.0
 10
92.01677786328053
 20
-57.12330049570182
 30
0.0
 10
92.09584280466701
 20
-57.08195934987881
 30
0.0
 10
92.18041989882989
 20
-57.03545056082795
 30
0.0
 10
92.26999238144641
 20
-56.9837741285492
 30
0.0
 10
92.35939260928864
 20
-56.93209769627046
 30
0.0
 10
92.44913734667939
 20
-56.87887097102334
 30
0.0
 10
92.53870982929589
 20
-56.82357718848508
 30
0.0
 10
92.62811005713812
 20
-56.76845566072108
 30
0.0
 10
92.70751950807312
 20
-56.71677922844233
 30
0.0
 10
92.77642141777812
 20
-56.66854789164883
 30
0.0
 10
93.33452688638859
 20
-56.33110078886861
 30
0.0
 10
93.89090980725645
 20
-55.9261298145775
 30
0.0
 10
94.44557018038166
 20
-55.45415173309827
 30
0.0
 10
95.00005829873263
 20
-54.98234590639331
 30
0.0
 10
95.54627818791898
 20
-54.42579073075119
 30
0.0
 10
96.08371308361796
 20
-53.78500297049472
 30
0.0
 10
96.44183075930968
 20
-53.35781113032375
 30
0.0
 10
96.76928708518268
 20
-52.97368298371839
 30
0.0
 10
97.06556529691418
 20
-52.63261853067866
 30
0.0
 10
97.3616712538714
 20
-52.29155407763892
 30
0.0
 10
97.64072398817663
 20
-51.97477754777019
 30
0.0
 10
97.90272349982988
 20
-51.68177217674969
 30
0.0
 10
98.16455075670887
 20
-51.38893906050346
 30
0.0
 10
98.41432017938949
 20
-51.11178112871511
 30
0.0
 10
98.65203176787172
 20
-50.84978161706186
 30
0.0
 10
98.88974335635396
 20
-50.58795436018288
 30
0.0
 10
99.13262258806406
 20
-50.32957219878913
 30
0.0
 10
99.38066946300207
 20
-50.07463513288065
 30
0.0
 10
99.4287285450213
 20
-50.02657605086142
 30
0.0
 10
99.4907402637558
 20
-49.96611462509528
 30
0.0
 10
99.56670461920555
 20
-49.89376761990503
 30
0.0
 10
99.64249671988106
 20
-49.82142061471479
 30
0.0
 10
99.72690155926967
 20
-49.75269095978405
 30
0.0
 10
99.81991913737141
 20
-49.68706189079004
 30
0.0
 10
99.91293671547317
 20
-49.6216050765703
 30
0.0
 10
100.0111219368027
 20
-49.56665580358055
 30
0.0
 10
100.1144748013602
 20
-49.52169730749805
 30
0.0
 10
100.2178276659177
 20
-49.4769110661898
 30
0.0
 10
100.3246256259605
 20
-49.45451794553568
 30
0.0
 10
100.4348686814885
 20
-49.45451794553568
 30
0.0
 10
100.538221546046
 20
-49.45451794553568
 30
0.0
 10
100.6586276332555
 20
-49.50274928232918
 30
0.0
 10
100.7966037074397
 20
-49.59921195591618
 30
0.0
 10
100.9344075268497
 20
-49.69584688427743
 30
0.0
 10
101.0635986075466
 20
-49.80953503529067
 30
0.0
 10
101.1841769495303
 20
-49.9402764089559
 30
0.0
 10
101.3045830367398
 20
-50.07119003739539
 30
0.0
 10
101.4079359012973
 20
-50.20744356383703
 30
0.0
 10
101.4942355432028
 20
-50.34852022395801
 30
0.0
 10
101.5803629303341
 20
-50.48976913885326
 30
0.0
 10
101.6234266238997
 20
-50.60862493309437
 30
0.0
 10
101.6234266238997
 20
-50.70508760668136
 30
0.0
 10
101.6234266238997
 20
-50.82239310795412
 30
0.0
 10
101.5681328413614
 20
-50.99103053195711
 30
0.0
 10
101.4580620406077
 20
-51.2115166430131
 30
0.0
 10
101.4580620406077
 20
-51.2115166430131
 30
0.0
 10
101.2823621708599
 20
-51.57325166896432
 30
0.0
 10
101.2823621708599
 20
-51.57325166896432
 30
0.0
 10
101.2616915979484
 20
-51.60787487859109
 30
0.0
 10
101.2425713180053
 20
-51.65248886512507
 30
0.0
 10
101.2255180953533
 20
-51.70761039288907
 30
0.0
 10
101.2082926179271
 20
-51.76290417542733
 30
0.0
 10
101.1927896882435
 20
-51.80751816196131
 30
0.0
 10
101.1790093063025
 20
-51.84196911681381
 30
0.0
 10
101.1583387333909
 20
-51.90398083554831
 30
0.0
 10
101.1376681604795
 20
-51.95927461808658
 30
0.0
 10
101.116997587568
 20
-52.00733370010581
 30
0.0
 10
101.0963270146564
 20
-52.0555650368993
 30
0.0
 10
101.0653211552892
 20
-52.10396862846707
 30
0.0
 10
101.0239800094662
 20
-52.1520277104863
 30
0.0
 10
100.9826388636432
 20
-52.2002590472798
 30
0.0
 10
100.9292398836218
 20
-52.24866263884756
 30
0.0
 10
100.8637830694021
 20
-52.29672172086679
 30
0.0
 10
100.7981540004081
 20
-52.34495305766029
 30
0.0
 10
100.7103040655342
 20
-52.39662948993903
 30
0.0
 10
100.6002332647805
 20
-52.45175101770303
 30
0.0
 10
100.5313313550755
 20
-52.48637422732979
 30
0.0
 10
100.4570895473683
 20
-52.51738008669704
 30
0.0
 10
100.3780246059819
 20
-52.54476859580478
 30
0.0
 10
100.2987874098211
 20
-52.57232935968678
 30
0.0
 10
100.2229953091456
 20
-52.60161267131141
 30
0.0
 10
100.1506483039554
 20
-52.63261853067866
 30
0.0
 10
100.0783012987651
 20
-52.6636243900459
 30
0.0
 10
100.0162895800306
 20
-52.69463024941315
 30
0.0
 10
99.9646131477519
 20
-52.7256361087804
 30
0.0
 10
99.91293671547317
 20
-52.75664196814765
 30
0.0
 10
99.88020830836328
 20
-52.78937037525752
 30
0.0
 10
99.86642792642228
 20
-52.82382133011002
 30
0.0
 10
99.63216143342529
 20
-53.18917370632076
 30
0.0
 10
99.43579099076606
 20
-53.47339408385387
 30
0.0
 10
99.27731659844457
 20
-53.67648246270935
 30
0.0
 10
99.11866995134881
 20
-53.8797430963391
 30
0.0
 10
98.98103838671309
 20
-54.05733776860373
 30
0.0
 10
98.86390514021458
 20
-54.20874971518045
 30
0.0
 10
98.67097979304059
 20
-54.4500786539222
 30
0.0
 10
98.4468763317251
 20
-54.70329317208807
 30
0.0
 10
98.19211152059088
 20
-54.96839326967805
 30
0.0
 10
97.93717445468239
 20
-55.23366562204228
 30
0.0
 10
97.67879229328864
 20
-55.48688014020815
 30
0.0
 10
97.41696503640966
 20
-55.72803682417563
 30
0.0
 10
97.15496552475642
 20
-55.96936576291739
 30
0.0
 10
96.88469778393855
 20
-56.20862764436798
 30
0.0
 10
96.60564504963332
 20
-56.44633923285022
 30
0.0
 10
96.32659231532809
 20
-56.68405082133246
 30
0.0
 10
96.05615231973597
 20
-56.89954154393483
 30
0.0
 10
95.79432506285698
 20
-57.09229463633456
 30
0.0
 10
95.68408200732898
 20
-57.17497692798056
 30
0.0
 10
95.57211640405837
 20
-57.25249157639868
 30
0.0
 10
95.45842825304511
 20
-57.32483858158893
 30
0.0
 10
95.34474010203188
 20
-57.39718558677918
 30
0.0
 10
95.22416176004814
 20
-57.4747002351973
 30
0.0
 10
95.09669322709388
 20
-57.5573825268433
 30
0.0
 10
94.96905243936538
 20
-57.64006481848929
 30
0.0
 10
94.83314342247227
 20
-57.72791475336316
 30
0.0
 10
94.68844941209178
 20
-57.82093233146491
 30
0.0
 10
94.54375540171129
 20
-57.91394990956665
 30
0.0
 10
94.38872610487505
 20
-58.01902532186677
 30
0.0
 10
94.22336152158306
 20
-58.13615856836527
 30
0.0
 10
95.03623180132775
 20
-58.41882865293001
 30
0.0
 10
95.87700735450297
 20
-58.74766301699711
 30
0.0
 10
96.74517141678594
 20
-59.12317842488935
 30
0.0
 10
97.6133354790689
 20
-59.49886608755583
 30
0.0
 10
98.51595049620435
 20
-59.85870631099018
 30
0.0
 10
99.45301646819231
 20
-60.20321585951517
 30
0.0
 10
99.75618487089429
 20
-60.31345891504316
 30
0.0
 10
99.99045136389128
 20
-60.39958630217441
 30
0.0
 10
100.1558159471833
 20
-60.4615980209089
 30
0.0
 10
100.3211805304752
 20
-60.5236097396434
 30
0.0
 10
100.4589843498852
 20
-60.57011852869428
 30
0.0
 10
100.5692274054132
 20
-60.60112438806153
 30
0.0
 10
100.679298206167
 20
-60.63213024742878
 30
0.0
 10
100.7774834274966
 20
-60.65125052737191
 30
0.0
 10
100.8637830694021
 20
-60.65796846356815
 30
0.0
 10
100.9499104565333
 20
-60.66485865453865
 30
0.0
 10
101.0653211552892
 20
-60.6683037500239
 30
0.0
 10
101.2100151656697
 20
-60.6683037500239
 30
0.0
 10
101.2787448206004
 20
-60.6683037500239
 30
0.0
 10
101.378824844447
 20
-60.66158581382766
 30
0.0
 10
101.5097384728864
 20
-60.64763317711239
 30
0.0
 10
101.6404798465517
 20
-60.6338527951714
 30
0.0
 10
101.7851738569322
 20
-60.61662731774514
 30
0.0
 10
101.9438205040279
 20
-60.59595674483365
 30
0.0
 10
102.1022948963494
 20
-60.57528617192215
 30
0.0
 10
102.269382027384
 20
-60.5511705035254
 30
0.0
 10
102.4450818971318
 20
-60.5236097396434
 30
0.0
 10
102.6207817668795
 20
-60.49622123053566
 30
0.0
 10
102.7876966431399
 20
-60.47193330736465
 30
0.0
 10
102.9463432902356
 20
-60.45126273445315
 30
0.0
 10
103.0634765367341
 20
-60.64418808162715
 30
0.0
 10
103.154599312319
 20
-60.83539088105851
 30
0.0
 10
103.220228381313
 20
-61.02487113274726
 30
0.0
 10
103.2856851955327
 20
-61.21452363921026
 30
0.0
 10
103.3184136026426
 20
-61.39866399289687
 30
0.0
 10
103.3184136026426
 20
-61.57780895812986
 30
0.0
  0
SPLINE
  5
7E
330
79
100
AcDbEntity
  8
Layer 1
 62
   250
420
  2301728
370
     9
100
AcDbSpline
210
0.0
220
0.0
230
1.0
 70
     9
 71
     3
 72
    65
 73
    61
 74
     0
 42
0.0000000001
 43
0.0000000001
 40
0.0
 40
0.0
 40
0.0
 40
0.0
 40
1.0
 40
1.0
 40
1.0
 40
2.0
 40
2.0
 40
2.0
 40
3.0
 40
3.0
 40
3.0
 40
4.0
 40
4.0
 40
4.0
 40
5.0
 40
5.0
 40
5.0
 40
6.0
 40
6.0
 40
6.0
 40
7.0
 40
7.0
 40
7.0
 40
8.0
 40
8.0
 40
8.0
 40
9.0
 40
9.0
 40
9.0
 40
10.0
 40
10.0
 40
10.0
 40
11.0
 40
11.0
 40
11.0
 40
12.0
 40
12.0
 40
12.0
 40
13.0
 40
13.0
 40
13.0
 40
14.0
 40
14.0
 40
14.0
 40
15.0
 40
15.0
 40
15.0
 40
16.0
 40
16.0
 40
16.0
 40
17.0
 40
17.0
 40
17.0
 40
18.0
 40
18.0
 40
18.0
 40
19.0
 40
19.0
 40
19.0
 40
20.0
 40
20.0
 40
20.0
 40
20.0
 10
107.4318576120309
 20
-62.43563773395706
 30
0.0
 10
107.9899630806414
 20
-62.43563773395706
 30
0.0
 10
108.4843342827747
 20
-62.28749862809132
 30
0.0
 10
108.914971218431
 20
-61.99122041635984
 30
0.0
 10
109.3454358993129
 20
-61.69511445940261
 30
0.0
 10
109.709065727781
 20
-61.30047877156724
 30
0.0
 10
110.0053439395125
 20
-60.80783011717652
 30
0.0
 10
110.3014498964697
 20
-60.31535371756005
 30
0.0
 10
110.5307210010131
 20
-59.75363089869007
 30
0.0
 10
110.6926404888199
 20
-59.12317842488935
 30
0.0
 10
110.8543877218524
 20
-58.49272595108863
 30
0.0
 10
110.9389648160152
 20
-57.84332545211903
 30
0.0
 10
110.9458550069857
 20
-57.17497692798056
 30
0.0
 10
110.8976236701922
 20
-57.07162406342306
 30
0.0
 10
110.8269992127446
 20
-56.96482610338033
 30
0.0
 10
110.7339816346429
 20
-56.85458304785233
 30
0.0
 10
110.6409640565411
 20
-56.74451224709859
 30
0.0
 10
110.535888644241
 20
-56.64632702576898
 30
0.0
 10
110.4187553977425
 20
-56.56002738386347
 30
0.0
 10
110.3014498964697
 20
-56.47389999673222
 30
0.0
 10
110.1810438092603
 20
-56.40344779405886
 30
0.0
 10
110.0570203717913
 20
-56.3481540115206
 30
0.0
 10
109.9329969343223
 20
-56.2930324837566
 30
0.0
 10
109.8193087833091
 20
-56.26547171987461
 30
0.0
 10
109.7159559187516
 20
-56.26547171987461
 30
0.0
 10
109.5505913354596
 20
-56.26547171987461
 30
0.0
 10
109.3712741154523
 20
-56.33110078886861
 30
0.0
 10
109.1785210230526
 20
-56.46184216253384
 30
0.0
 10
108.9855956758786
 20
-56.59275579097334
 30
0.0
 10
108.8064507106456
 20
-56.72711451489808
 30
0.0
 10
108.6410861273536
 20
-56.86491833430808
 30
0.0
 10
108.4757215440616
 20
-57.00289440849233
 30
0.0
 10
108.311907253738
 20
-57.18376192146795
 30
0.0
 10
108.1501600207055
 20
-57.40752087323492
 30
0.0
 10
107.9882405328987
 20
-57.63145207977617
 30
0.0
 10
107.8383788792904
 20
-57.88139375723105
 30
0.0
 10
107.7005750598804
 20
-58.15682914127677
 30
0.0
 10
107.5625989856961
 20
-58.43243678009676
 30
0.0
 10
107.4353027075162
 20
-58.72371960337463
 30
0.0
 10
107.3181694610177
 20
-59.0301608467876
 30
0.0
 10
107.2008639597449
 20
-59.33677434497483
 30
0.0
 10
107.1011284454469
 20
-59.63994274767681
 30
0.0
 10
107.0184461538009
 20
-59.93966605489355
 30
0.0
 10
106.9357638621549
 20
-60.23938936211029
 30
0.0
 10
106.8720295956778
 20
-60.53049993061391
 30
0.0
 10
106.8272433543696
 20
-60.81299776040439
 30
0.0
 10
106.782284858287
 20
-61.09566784496914
 30
0.0
 10
106.7600639924072
 20
-61.34698756061812
 30
0.0
 10
106.7600639924072
 20
-61.56747367167411
 30
0.0
 10
106.7600639924072
 20
-61.6777167272021
 30
0.0
 10
106.7771172150592
 20
-61.78451468724484
 30
0.0
 10
106.8117404246859
 20
-61.88786755180235
 30
0.0
 10
106.8461913795384
 20
-61.99122041635984
 30
0.0
 10
106.8927001685893
 20
-62.08423799446158
 30
0.0
 10
106.9512667918385
 20
-62.16692028610758
 30
0.0
 10
107.0096611603135
 20
-62.24960257775357
 30
0.0
 10
107.0804578725354
 20
-62.31523164674758
 30
0.0
 10
107.1631401641814
 20
-62.36329072876682
 30
0.0
 10
107.2458224558274
 20
-62.41152206556032
 30
0.0
 10
107.3352226836696
 20
-62.43563773395706
 30
0.0
 10
107.4318576120309
 20
-62.43563773395706
 30
0.0
  0
SPLINE
  5
7F
330
79
100
AcDbEntity
  8
Layer 1
 62
   250
420
  2301728
370
     9
100
AcDbSpline
210
0.0
220
0.0
230
1.0
 70
     9
 71
     3
 72
   197
 73
   193
 74
     0
 42
0.0000000001
 43
0.0000000001
 40
0.0
 40
0.0
 40
0.0
 40
0.0
 40
1.0
 40
1.0
 40
1.0
 40
2.0
 40
2.0
 40
2.0
 40
3.0
 40
3.0
 40
3.0
 40
4.0
 40
4.0
 40
4.0
 40
5.0
 40
5.0
 40
5.0
 40
6.0
 40
6.0
 40
6.0
 40
7.0
 40
7.0
 40
7.0
 40
8.0
 40
8.0
 40
8.0
 40
9.0
 40
9.0
 40
9.0
 40
10.0
 40
10.0
 40
10.0
 40
11.0
 40
11.0
 40
11.0
 40
12.0
 40
12.0
 40
12.0
 40
13.0
 40
13.0
 40
13.0
 40
14.0
 40
14.0
 40
14.0
 40
15.0
 40
15.0
 40
15.0
 40
16.0
 40
16.0
 40
16.0
 40
17.0
 40
17.0
 40
17.0
 40
18.0
 40
18.0
 40
18.0
 40
19.0
 40
19.0
 40
19.0
 40
20.0
 40
20.0
 40
20.0
 40
21.0
 40
21.0
 40
21.0
 40
22.0
 40
22.0
 40
22.0
 40
23.0
 40
23.0
 40
23.0
 40
24.0
 40
24.0
 40
24.0
 40
25.0
 40
25.0
 40
25.0
 40
26.0
 40
26.0
 40
26.0
 40
27.0
 40
27.0
 40
27.0
 40
28.0
 40
28.0
 40
28.0
 40
29.0
 40
29.0
 40
29.0
 40
30.0
 40
30.0
 40
30.0
 40
31.0
 40
31.0
 40
31.0
 40
32.0
 40
32.0
 40
32.0
 40
33.0
 40
33.0
 40
33.0
 40
34.0
 40
34.0
 40
34.0
 40
35.0
 40
35.0
 40
35.0
 40
36.0
 40
36.0
 40
36.0
 40
37.0
 40
37.0
 40
37.0
 40
38.0
 40
38.0
 40
38.0
 40
39.0
 40
39.0
 40
39.0
 40
40.0
 40
40.0
 40
40.0
 40
41.0
 40
41.0
 40
41.0
 40
42.0
 40
42.0
 40
42.0
 40
43.0
 40
43.0
 40
43.0
 40
44.0
 40
44.0
 40
44.0
 40
45.0
 40
45.0
 40
45.0
 40
46.0
 40
46.0
 40
46.0
 40
47.0
 40
47.0
 40
47.0
 40
48.0
 40
48.0
 40
48.0
 40
49.0
 40
49.0
 40
49.0
 40
50.0
 40
50.0
 40
50.0
 40
51.0
 40
51.0
 40
51.0
 40
52.0
 40
52.0
 40
52.0
 40
53.0
 40
53.0
 40
53.0
 40
54.0
 40
54.0
 40
54.0
 40
55.0
 40
55.0
 40
55.0
 40
56.0
 40
56.0
 40
56.0
 40
57.0
 40
57.0
 40
57.0
 40
58.0
 40
58.0
 40
58.0
 40
59.0
 40
59.0
 40
59.0
 40
60.0
 40
60.0
 40
60.0
 40
61.0
 40
61.0
 40
61.0
 40
62.0
 40
62.0
 40
62.0
 40
63.0
 40
63.0
 40
63.0
 40
64.0
 40
64.0
 40
64.0
 40
64.0
 10
119.3587781819658
 20
-55.54200166797214
 30
0.0
 10
119.3587781819658
 20
-55.67291529641163
 30
0.0
 10
119.3157144884002
 20
-55.81244166356425
 30
0.0
 10
119.229587101269
 20
-55.96058076942999
 30
0.0
 10
119.1432874593635
 20
-56.10889213007
 30
0.0
 10
119.0332166586097
 20
-56.25685898116149
 30
0.0
 10
118.898857934685
 20
-56.40499808702722
 30
0.0
 10
118.7644992107602
 20
-56.55330944766723
 30
0.0
 10
118.6110202068924
 20
-56.69955375101608
 30
0.0
 10
118.4389376874041
 20
-56.84424776139658
 30
0.0
 10
118.2666829131416
 20
-56.98894177177707
 30
0.0
 10
118.0942558841049
 20
-57.12175020273345
 30
0.0
 10
117.9221733646167
 20
-57.24215628994294
 30
0.0
 10
117.7499185903542
 20
-57.36273463192667
 30
0.0
 10
117.5862765548048
 20
-57.46798229900107
 30
0.0
 10
117.4312472579686
 20
-57.5573825268433
 30
0.0
 10
117.2762179611323
 20
-57.64695500945979
 30
0.0
 10
117.1470268804355
 20
-57.71602917393905
 30
0.0
 10
117.043674015878
 20
-57.76408825595829
 30
0.0
 10
116.8576388596745
 20
-57.84005261140805
 30
0.0
 10
116.6182047234496
 20
-57.91050481408141
 30
0.0
 10
116.3253716072033
 20
-57.97596162830115
 30
0.0
 10
116.0323662361829
 20
-58.04159069729516
 30
0.0
 10
115.7259249927699
 20
-58.09653997028489
 30
0.0
 10
115.4055311126417
 20
-58.14132621159314
 30
0.0
 10
115.0851372325134
 20
-58.18628470767565
 30
0.0
 10
114.7750786388409
 20
-58.22245821027077
 30
0.0
 10
114.4753553316242
 20
-58.24984671937851
 30
0.0
 10
114.1756320244075
 20
-58.27740748326051
 30
0.0
 10
113.9224175062416
 20
-58.29118786520151
 30
0.0
 10
113.7157117771266
 20
-58.29118786520151
 30
0.0
 10
113.6674804403331
 20
-58.29118786520151
 30
0.0
 10
113.6003010783707
 20
-58.28602022197364
 30
0.0
 10
113.5141736912395
 20
-58.27568493551789
 30
0.0
 10
113.427874049334
 20
-58.26534964906214
 30
0.0
 10
113.3348564712322
 20
-58.24984671937851
 30
0.0
 10
113.2351209569343
 20
-58.22917614646701
 30
0.0
 10
113.135213187862
 20
-58.20850557355552
 30
0.0
 10
113.0351331640155
 20
-58.18266735741614
 30
0.0
 10
112.9353976497175
 20
-58.15166149804889
 30
0.0
 10
112.8354898806453
 20
-58.12065563868165
 30
0.0
 10
112.7509127864824
 20
-58.08103704060127
 30
0.0
 10
112.6821831315517
 20
-58.03280570380778
 30
0.0
 10
112.7579752322272
 20
-58.19145235090353
 30
0.0
 10
112.8010389257928
 20
-58.36525741813439
 30
0.0
 10
112.8113742122485
 20
-58.55473766982313
 30
0.0
 10
112.8217094987043
 20
-58.74439017628612
 30
0.0
 10
112.8268771419322
 20
-58.93197562545798
 30
0.0
 10
112.8268771419322
 20
-59.11801078166147
 30
0.0
 10
112.8268771419322
 20
-59.24892441010097
 30
0.0
 10
112.8129245052169
 20
-59.40395370693721
 30
0.0
 10
112.7855359961092
 20
-59.5830986721702
 30
0.0
 10
112.7579752322272
 20
-59.76241589217745
 30
0.0
 10
112.721801729632
 20
-59.94483369812144
 30
0.0
 10
112.6770154883238
 20
-60.13086885432493
 30
0.0
 10
112.6320569922413
 20
-60.31690401052841
 30
0.0
 10
112.5788302669942
 20
-60.49622123053566
 30
0.0
 10
112.5168185482597
 20
-60.6683037500239
 30
0.0
 10
112.4548068295252
 20
-60.84055852428639
 30
0.0
 10
112.3891777605312
 20
-60.98525253466688
 30
0.0
 10
112.3204481056004
 20
-61.10238578116538
 30
0.0
 10
112.1481933313379
 20
-61.39866399289687
 30
0.0
 10
111.9638807228771
 20
-61.6708265362316
 30
0.0
 10
111.7675102802178
 20
-61.91887341116959
 30
0.0
 10
111.5711398375586
 20
-62.16692028610758
 30
0.0
 10
111.3523762742452
 20
-62.39791393839357
 30
0.0
 10
111.1112195902777
 20
-62.6113376037048
 30
0.0
 10
110.869890651536
 20
-62.8249335237903
 30
0.0
 10
110.5979003629755
 20
-63.02474906193478
 30
0.0
 10
110.2947319602735
 20
-63.21078421813828
 30
0.0
 10
109.9913913027973
 20
-63.39681937434177
 30
0.0
 10
109.6399915633018
 20
-63.57940943506001
 30
0.0
 10
109.2405327417871
 20
-63.758554400293
 30
0.0
 10
108.8131686468418
 20
-63.9445895564965
 30
0.0
 10
108.3861490614451
 20
-64.07378063719336
 30
0.0
 10
107.9589572212741
 20
-64.1461276423836
 30
0.0
 10
107.5315931263289
 20
-64.21847464757385
 30
0.0
 10
107.0907931589912
 20
-64.25464815016898
 30
0.0
 10
106.6360405549382
 20
-64.25464815016898
 30
0.0
 10
106.2984211973837
 20
-64.25464815016898
 30
0.0
 10
105.998697890167
 20
-64.1667982152951
 30
0.0
 10
105.736870633288
 20
-63.99109834554736
 30
0.0
 10
105.4748711216347
 20
-63.81539847579962
 30
0.0
 10
105.254557265353
 20
-63.57940943506001
 30
0.0
 10
105.07541230012
 20
-63.28313122332852
 30
0.0
 10
104.8960950801128
 20
-62.9870252663713
 30
0.0
 10
104.7601860632197
 20
-62.64596081333157
 30
0.0
 10
104.6671684851179
 20
-62.25993786420932
 30
0.0
 10
104.5741509070162
 20
-61.87408716986134
 30
0.0
 10
104.5276421179653
 20
-61.47101099808711
 30
0.0
 10
104.5276421179653
 20
-61.05070934888662
 30
0.0
 10
104.5276421179653
 20
-60.94735648432913
 30
0.0
 10
104.5362548566784
 20
-60.81816540363226
 30
0.0
 10
104.5534803341047
 20
-60.66313610679602
 30
0.0
 10
104.5705335567566
 20
-60.50810680995978
 30
0.0
 10
104.5948214799277
 20
-60.35152722015517
 30
0.0
 10
104.6258273392949
 20
-60.19288057305942
 30
0.0
 10
104.6568331986622
 20
-60.03440618073793
 30
0.0
 10
104.6912841535147
 20
-59.87937688390168
 30
0.0
 10
104.7291802038524
 20
-59.72779268255069
 30
0.0
 10
104.7669039994159
 20
-59.57638073597396
 30
0.0
 10
104.803077502011
 20
-59.44873994824545
 30
0.0
 10
104.8377007116378
 20
-59.34538708368796
 30
0.0
 10
104.9341633852248
 20
-59.05599906292697
 30
0.0
 10
105.0736897523774
 20
-58.72526989634299
 30
0.0
 10
105.2562798130956
 20
-58.35319958393601
 30
0.0
 10
105.4386976190396
 20
-57.98112927152903
 30
0.0
 10
105.654188341642
 20
-57.60044622040892
 30
0.0
 10
105.90223521658
 20
-57.21115043057569
 30
0.0
 10
106.150282091518
 20
-56.82202689551672
 30
0.0
 10
106.4257174755637
 20
-56.43962129665399
 30
0.0
 10
106.7290581330399
 20
-56.06393363398749
 30
0.0
 10
107.0322265357419
 20
-55.68841822609526
 30
0.0
 10
107.3543429636128
 20
-55.35441621880028
 30
0.0
 10
107.6954074166525
 20
-55.06141084777979
 30
0.0
 10
108.0364718696922
 20
-54.76857773153355
 30
0.0
 10
108.391316704673
 20
-54.53276094556819
 30
0.0
 10
108.7599419215947
 20
-54.35344372556095
 30
0.0
 10
109.1283948837422
 20
-54.17429876032795
 30
0.0
 10
109.4989149031808
 20
-54.08472627771146
 30
0.0
 10
109.8709852155878
 20
-54.08472627771146
 30
0.0
 10
110.0294596079093
 20
-54.08472627771146
 30
0.0
 10
110.1567558860893
 20
-54.10022920739508
 30
0.0
 10
110.2533908144505
 20
-54.13123506676233
 30
0.0
 10
110.3498534880375
 20
-54.16224092612958
 30
0.0
 10
110.4290906841983
 20
-54.20358207195258
 30
0.0
 10
110.4911024029328
 20
-54.25525850423133
 30
0.0
 10
110.5531141216673
 20
-54.30693493651007
 30
0.0
 10
110.6099581971739
 20
-54.36550155975933
 30
0.0
 10
110.6616346294526
 20
-54.43095837397907
 30
0.0
 10
110.7133110617314
 20
-54.49658744297308
 30
0.0
 10
110.770155137238
 20
-54.56014945467593
 30
0.0
 10
110.8321668559725
 20
-54.62216117341043
 30
0.0
 10
110.8802259379917
 20
-54.60838079146943
 30
0.0
 10
110.9303520773021
 20
-54.59804550501369
 30
0.0
 10
110.9820285095809
 20
-54.59115531404318
 30
0.0
 10
111.0337049418596
 20
-54.58443737784694
 30
0.0
 10
111.0869316671067
 20
-54.58082002758743
 30
0.0
 10
111.142225449645
 20
-54.58082002758743
 30
0.0
 10
111.3556491149562
 20
-54.58082002758743
 30
0.0
 10
111.5659721943307
 20
-54.66350231923343
 30
0.0
 10
111.7726779234457
 20
-54.82886690252542
 30
0.0
 10
111.9793836525607
 20
-54.99423148581741
 30
0.0
 10
112.1895344771609
 20
-55.17682154653566
 30
0.0
 10
112.4031303972464
 20
-55.37663708468015
 30
0.0
 10
112.4995930708334
 20
-55.46620956729665
 30
0.0
 10
112.597778292163
 20
-55.55750459765576
 30
0.0
 10
112.6976860612353
 20
-55.6505221757575
 30
0.0
 10
112.7974215755333
 20
-55.74353975385926
 30
0.0
 10
112.8888888606667
 20
-55.82622204550525
 30
0.0
 10
112.9715711523126
 20
-55.8985690506955
 30
0.0
 10
113.0542534439586
 20
-55.97091605588574
 30
0.0
 10
113.1281507421173
 20
-56.02948267913499
 30
0.0
 10
113.1937798111113
 20
-56.07426892044323
 30
0.0
 10
113.259236625331
 20
-56.11922741652575
 30
0.0
 10
113.3057454143819
 20
-56.14144828240561
 30
0.0
 10
113.3333061782639
 20
-56.14144828240561
 30
0.0
 10
113.5124511434969
 20
-56.14144828240561
 30
0.0
 10
113.7069267836392
 20
-56.13989798943725
 30
0.0
 10
113.9172498630137
 20
-56.13628063917774
 30
0.0
 10
114.127400687614
 20
-56.13283554369249
 30
0.0
 10
114.3409966076994
 20
-56.12594535272199
 30
0.0
 10
114.5580376232702
 20
-56.11561006626624
 30
0.0
 10
114.7750786388409
 20
-56.10527477981048
 30
0.0
 10
114.9852294634412
 20
-56.08977185012687
 30
0.0
 10
115.1884900970709
 20
-56.06910127721537
 30
0.0
 10
115.3915784759264
 20
-56.04843070430387
 30
0.0
 10
115.5760633391615
 20
-56.02431503590711
 30
0.0
 10
115.7414279224535
 20
-55.99675427202512
 30
0.0
 10
115.762098495365
 20
-55.99003633582888
 30
0.0
 10
115.8514987232073
 20
-55.9674709604005
 30
0.0
 10
116.010145370303
 20
-55.92957491006274
 30
0.0
 10
116.1686197626245
 20
-55.89185111449926
 30
0.0
 10
116.3598225620559
 20
-55.8434475229315
 30
0.0
 10
116.5837537685971
 20
-55.78488089968225
 30
0.0
 10
116.8075127203641
 20
-55.72648653120727
 30
0.0
 10
117.0503919520742
 20
-55.66258000995588
 30
0.0
 10
117.3123914637274
 20
-55.59367810025089
 30
0.0
 10
117.5742187206064
 20
-55.52494844532016
 30
0.0
 10
117.8170979523165
 20
-55.46104192406877
 30
0.0
 10
118.0410291588578
 20
-55.40247530081952
 30
0.0
 10
118.2647881106247
 20
-55.34408093234453
 30
0.0
 10
118.457885712573
 20
-55.29567734077677
 30
0.0
 10
118.6198052003798
 20
-55.25778129043903
 30
0.0
 10
118.7815524334122
 20
-55.22005749487554
 30
0.0
 10
118.8764648140309
 20
-55.20093721493241
 30
0.0
 10
118.9040255779129
 20
-55.20093721493241
 30
0.0
 10
119.0418293973229
 20
-55.20093721493241
 30
0.0
 10
119.1520724528508
 20
-55.21816269235865
 30
0.0
 10
119.2347547444968
 20
-55.25261364721115
 30
0.0
 10
119.3174370361428
 20
-55.28723685683791
 30
0.0
 10
119.3587781819658
 20
-55.38352727565065
 30
0.0
 10
119.3587781819658
 20
-55.54200166797214
 30
0.0
  0
SPLINE
  5
80
330
79
100
AcDbEntity
  8
Layer 1
 62
   250
420
  2301728
370
     9
100
AcDbSpline
210
0.0
220
0.0
230
1.0
 70
     9
 71
     3
 72
    47
 73
    43
 74
     0
 42
0.0000000001
 43
0.0000000001
 40
0.0
 40
0.0
 40
0.0
 40
0.0
 40
1.0
 40
1.0
 40
1.0
 40
2.0
 40
2.0
 40
2.0
 40
3.0
 40
3.0
 40
3.0
 40
4.0
 40
4.0
 40
4.0
 40
5.0
 40
5.0
 40
5.0
 40
6.0
 40
6.0
 40
6.0
 40
7.0
 40
7.0
 40
7.0
 40
8.0
 40
8.0
 40
8.0
 40
9.0
 40
9.0
 40
9.0
 40
10.0
 40
10.0
 40
10.0
 40
11.0
 40
11.0
 40
11.0
 40
12.0
 40
12.0
 40
12.0
 40
13.0
 40
13.0
 40
13.0
 40
14.0
 40
14.0
 40
14.0
 40
14.0
 10
123.0794813060357
 20
-49.59921195591618
 30
0.0
 10
123.0794813060357
 20
-49.66811386562117
 30
0.0
 10
123.039690453181
 20
-49.79213730309016
 30
0.0
 10
122.9606255117946
 20
-49.97128226832315
 30
0.0
 10
122.8813883156338
 20
-50.15059948833041
 30
0.0
 10
122.7797579988189
 20
-50.33473984201702
 30
0.0
 10
122.6557345613499
 20
-50.52422009370575
 30
0.0
 10
122.5317111238809
 20
-50.71387260016876
 30
0.0
 10
122.3956298522136
 20
-50.88078747642911
 30
0.0
 10
122.2474907463478
 20
-51.0254814868096
 30
0.0
 10
122.0991793857078
 20
-51.17017549719009
 30
0.0
 10
121.9563801778442
 20
-51.24252250238034
 30
0.0
 10
121.8185763584342
 20
-51.24252250238034
 30
0.0
 10
121.6256510112602
 20
-51.24252250238034
 30
0.0
 10
121.4602864279682
 20
-51.21668428624097
 30
0.0
 10
121.3224826085582
 20
-51.16500785396222
 30
0.0
 10
121.184506534374
 20
-51.11333142168348
 30
0.0
 10
121.0623778994219
 20
-51.04270696423585
 30
0.0
 10
120.9555799393791
 20
-50.95313448161935
 30
0.0
 10
120.8486097245621
 20
-50.86373425377712
 30
0.0
 10
120.7504245032325
 20
-50.75521374599175
 30
0.0
 10
120.6610242753903
 20
-50.62757295826325
 30
0.0
 10
120.5714517927738
 20
-50.50010442530901
 30
0.0
 10
120.478434214672
 20
-50.36057805815638
 30
0.0
 10
120.381971541085
 20
-50.20899385680539
 30
0.0
 10
120.2097167668226
 20
-49.9402764089559
 30
0.0
 10
120.1235893796913
 20
-49.73012558435566
 30
0.0
 10
120.1235893796913
 20
-49.57854138300467
 30
0.0
 10
120.1235893796913
 20
-49.30310599895895
 30
0.0
 10
120.271728485557
 20
-49.03077120084994
 30
0.0
 10
120.5680066972885
 20
-48.76205375300045
 30
0.0
 10
120.6987480709538
 20
-48.63803031553146
 30
0.0
 10
120.8401692406233
 20
-48.54156764194446
 30
0.0
 10
120.9917534419743
 20
-48.47266573223947
 30
0.0
 10
121.143165388551
 20
-48.40393607730874
 30
0.0
 10
121.308529971843
 20
-48.36931286768198
 30
0.0
 10
121.4878471918502
 20
-48.36931286768198
 30
0.0
 10
121.8805880771687
 20
-48.36931286768198
 30
0.0
 10
122.2250976256937
 20
-48.47628308249898
 30
0.0
 10
122.5213758374252
 20
-48.68970674781021
 30
0.0
 10
122.8934461498322
 20
-48.93103568655196
 30
0.0
 10
123.0794813060357
 20
-49.23403183447969
 30
0.0
 10
123.0794813060357
 20
-49.59921195591618
 30
0.0
  0
SPLINE
  5
81
330
79
100
AcDbEntity
  8
Layer 1
 62
   250
420
  2301728
370
     9
100
AcDbSpline
210
0.0
220
0.0
230
1.0
 70
     9
 71
     3
 72
   119
 73
   115
 74
     0
 42
0.0000000001
 43
0.0000000001
 40
0.0
 40
0.0
 40
0.0
 40
0.0
 40
1.0
 40
1.0
 40
1.0
 40
2.0
 40
2.0
 40
2.0
 40
3.0
 40
3.0
 40
3.0
 40
4.0
 40
4.0
 40
4.0
 40
5.0
 40
5.0
 40
5.0
 40
6.0
 40
6.0
 40
6.0
 40
7.0
 40
7.0
 40
7.0
 40
8.0
 40
8.0
 40
8.0
 40
9.0
 40
9.0
 40
9.0
 40
10.0
 40
10.0
 40
10.0
 40
11.0
 40
11.0
 40
11.0
 40
12.0
 40
12.0
 40
12.0
 40
13.0
 40
13.0
 40
13.0
 40
14.0
 40
14.0
 40
14.0
 40
15.0
 40
15.0
 40
15.0
 40
16.0
 40
16.0
 40
16.0
 40
17.0
 40
17.0
 40
17.0
 40
18.0
 40
18.0
 40
18.0
 40
19.0
 40
19.0
 40
19.0
 40
20.0
 40
20.0
 40
20.0
 40
21.0
 40
21.0
 40
21.0
 40
22.0
 40
22.0
 40
22.0
 40
23.0
 40
23.0
 40
23.0
 40
24.0
 40
24.0
 40
24.0
 40
25.0
 40
25.0
 40
25.0
 40
26.0
 40
26.0
 40
26.0
 40
27.0
 40
27.0
 40
27.0
 40
28.0
 40
28.0
 40
28.0
 40
29.0
 40
29.0
 40
29.0
 40
30.0
 40
30.0
 40
30.0
 40
31.0
 40
31.0
 40
31.0
 40
32.0
 40
32.0
 40
32.0
 40
33.0
 40
33.0
 40
33.0
 40
34.0
 40
34.0
 40
34.0
 40
35.0
 40
35.0
 40
35.0
 40
36.0
 40
36.0
 40
36.0
 40
37.0
 40
37.0
 40
37.0
 40
38.0
 40
38.0
 40
38.0
 40
38.0
 10
121.0641004471645
 20
-55.29395479303415
 30
0.0
 10
121.0641004471645
 20
-55.36285670273915
 30
0.0
 10
121.0520426129661
 20
-55.44743379690203
 30
0.0
 10
121.0279269445694
 20
-55.54716931120001
 30
0.0
 10
121.0036390213984
 20
-55.64707708027226
 30
0.0
 10
120.9762505122906
 20
-55.75387504031501
 30
0.0
 10
120.9452446529234
 20
-55.86756319132825
 30
0.0
 10
120.9142387935561
 20
-55.98125134234149
 30
0.0
 10
120.8815103864463
 20
-56.09493949335473
 30
0.0
 10
120.8470594315938
 20
-56.20862764436798
 30
0.0
 10
120.812436221967
 20
-56.32231579538123
 30
0.0
 10
120.7814303625998
 20
-56.42739120768134
 30
0.0
 10
120.754041853492
 20
-56.52385388126834
 30
0.0
 10
120.6574069251308
 20
-56.90987683039058
 30
0.0
 10
120.6093478431115
 20
-57.5573825268433
 30
0.0
 10
120.6093478431115
 20
-58.46688773494925
 30
0.0
 10
120.6093478431115
 20
-58.61847193630024
 30
0.0
 10
120.6127929385968
 20
-58.8115695382485
 30
0.0
 10
120.6196831295673
 20
-59.04566377647122
 30
0.0
 10
120.6264010657635
 20
-59.27993026946822
 30
0.0
 10
120.6315687089914
 20
-59.52280950117833
 30
0.0
 10
120.6351860592509
 20
-59.77430147160156
 30
0.0
 10
120.6386311547362
 20
-60.02596569679907
 30
0.0
 10
120.643798797964
 20
-60.27401257173705
 30
0.0
 10
120.6506889889345
 20
-60.51844209641553
 30
0.0
 10
120.6574069251308
 20
-60.76304387586827
 30
0.0
 10
120.6610242753903
 20
-60.96802705724063
 30
0.0
 10
120.6610242753903
 20
-61.13339164053263
 30
0.0
 10
120.6610242753903
 20
-62.25649276872407
 30
0.0
 10
120.6248507727952
 20
-63.26091035744866
 30
0.0
 10
120.5525037676049
 20
-64.1461276423836
 30
0.0
 10
120.4801567624147
 20
-65.03134492731856
 30
0.0
 10
120.3473483314583
 20
-65.8393920733839
 30
0.0
 10
120.1545952390586
 20
-66.56975231625686
 30
0.0
 10
120.0443521835306
 20
-67.00383434739835
 30
0.0
 10
119.8910454344369
 20
-67.40518797142995
 30
0.0
 10
119.6946749917777
 20
-67.77381318835169
 30
0.0
 10
119.4983045491185
 20
-68.14226615049915
 30
0.0
 10
119.2621432536046
 20
-68.46110973765902
 30
0.0
 10
118.9867078695589
 20
-68.72982718550851
 30
0.0
 10
118.7111002307389
 20
-68.99854463335801
 30
0.0
 10
118.3924288983533
 20
-69.20869545795824
 30
0.0
 10
118.030693872402
 20
-69.36027965930924
 30
0.0
 10
117.6689588464508
 20
-69.51169160588597
 30
0.0
 10
117.2607150314487
 20
-69.58765596133573
 30
0.0
 10
116.8059624273957
 20
-69.58765596133573
 30
0.0
 10
116.4132215420772
 20
-69.58765596133573
 30
0.0
 10
116.0290933954719
 20
-69.52564424260123
 30
0.0
 10
115.6535779875796
 20
-69.40162080513224
 30
0.0
 10
115.2780625796874
 20
-69.27759736766325
 30
0.0
 10
114.9456108653608
 20
-69.12773571405487
 30
0.0
 10
114.6562228445998
 20
-68.95203584430714
 30
0.0
 10
114.3668348238388
 20
-68.77633597455939
 30
0.0
 10
114.1342908785845
 20
-68.59374591384114
 30
0.0
 10
113.9585910088367
 20
-68.40426566215241
 30
0.0
 10
113.782891139089
 20
-68.2146131556894
 30
0.0
 10
113.6950412042151
 20
-68.05441621562528
 30
0.0
 10
113.6950412042151
 20
-67.92367484196005
 30
0.0
 10
113.6950412042151
 20
-67.53093395664158
 30
0.0
 10
113.8846937106781
 20
-67.33456351398233
 30
0.0
 10
114.2634819592813
 20
-67.33456351398233
 30
0.0
 10
114.3187757418196
 20
-67.33456351398233
 30
0.0
 10
114.4169609631492
 20
-67.34834389592333
 30
0.0
 10
114.5580376232702
 20
-67.37590465980533
 30
0.0
 10
114.6992865381655
 20
-67.40329316891306
 30
0.0
 10
114.8680962169427
 20
-67.43619383079721
 30
0.0
 10
115.0644666596019
 20
-67.47408988113495
 30
0.0
 10
115.2608371022612
 20
-67.51181367669843
 30
0.0
 10
115.4814954680914
 20
-67.54471433858258
 30
0.0
 10
115.7259249927699
 20
-67.57227510246457
 30
0.0
 10
115.9703545174484
 20
-67.59966361157231
 30
0.0
 10
116.2235690356142
 20
-67.61361624828757
 30
0.0
 10
116.4855685472675
 20
-67.61361624828757
 30
0.0
 10
116.8576388596745
 20
-67.61361624828757
 30
0.0
 10
117.1589124598596
 20
-67.47753497662021
 30
0.0
 10
117.3899061121456
 20
-67.20537243328546
 30
0.0
 10
117.6207275096573
 20
-66.93303763517646
 30
0.0
 10
117.7981499271477
 20
-66.57836505496999
 30
0.0
 10
117.9221733646167
 20
-66.14083792834326
 30
0.0
 10
118.0461968020857
 20
-65.70313854694227
 30
0.0
 10
118.1304293867
 20
-65.20549450409794
 30
0.0
 10
118.1753878827825
 20
-64.64738903548746
 30
0.0
 10
118.2201741240908
 20
-64.08928356687699
 30
0.0
 10
118.2425672447449
 20
-63.52773300278126
 30
0.0
 10
118.2425672447449
 20
-62.96273734320029
 30
0.0
 10
118.2425672447449
 20
-62.6940198953508
 30
0.0
 10
118.2389498944854
 20
-62.37018091973732
 30
0.0
 10
118.2322319582892
 20
-61.99122041635984
 30
0.0
 10
118.2253417673186
 20
-61.61243216775662
 30
0.0
 10
118.2167290286055
 20
-61.22813176637699
 30
0.0
 10
118.2063937421498
 20
-60.83883597654376
 30
0.0
 10
118.196058455694
 20
-60.4497124414848
 30
0.0
 10
118.1857231692383
 20
-60.08280977230569
 30
0.0
 10
118.1753878827825
 20
-59.73812796900644
 30
0.0
 10
118.1650525963268
 20
-59.39361842048146
 30
0.0
 10
118.1598849530989
 20
-59.12162813192098
 30
0.0
 10
118.1598849530989
 20
-58.92164033900223
 30
0.0
 10
118.1598849530989
 20
-58.16371933224727
 30
0.0
 10
118.1908908124661
 20
-57.50053845133667
 30
0.0
 10
118.2529025312007
 20
-56.93209769627046
 30
0.0
 10
118.3149142499351
 20
-56.36365694120422
 30
0.0
 10
118.4182671144926
 20
-55.88995631198237
 30
0.0
 10
118.5629611248731
 20
-55.51099580860489
 30
0.0
 10
118.7076551352536
 20
-55.13220756000167
 30
0.0
 10
118.8971353869424
 20
-54.84798718246857
 30
0.0
 10
119.1314018799394
 20
-54.65833467600556
 30
0.0
 10
119.3654961181621
 20
-54.46885442431682
 30
0.0
 10
119.6548841389231
 20
-54.37411429847244
 30
0.0
 10
119.9995659422223
 20
-54.37411429847244
 30
0.0
 10
120.3096245358948
 20
-54.37411429847244
 30
0.0
 10
120.564389347029
 20
-54.45524629715008
 30
0.0
 10
120.7643771399478
 20
-54.61699353018256
 30
0.0
 10
120.9641926780923
 20
-54.7789130179893
 30
0.0
 10
121.0641004471645
 20
-55.00456677227316
 30
0.0
 10
121.0641004471645
 20
-55.29395479303415
 30
0.0
  0
SPLINE
  5
82
330
79
100
AcDbEntity
  8
Layer 1
 62
   250
420
  2301728
370
     9
100
AcDbSpline
210
0.0
220
0.0
230
1.0
 70
     9
 71
     3
 72
    83
 73
    79
 74
     0
 42
0.0000000001
 43
0.0000000001
 40
0.0
 40
0.0
 40
0.0
 40
0.0
 40
1.0
 40
1.0
 40
1.0
 40
2.0
 40
2.0
 40
2.0
 40
3.0
 40
3.0
 40
3.0
 40
4.0
 40
4.0
 40
4.0
 40
5.0
 40
5.0
 40
5.0
 40
6.0
 40
6.0
 40
6.0
 40
7.0
 40
7.0
 40
7.0
 40
8.0
 40
8.0
 40
8.0
 40
9.0
 40
9.0
 40
9.0
 40
10.0
 40
10.0
 40
10.0
 40
11.0
 40
11.0
 40
11.0
 40
12.0
 40
12.0
 40
12.0
 40
13.0
 40
13.0
 40
13.0
 40
14.0
 40
14.0
 40
14.0
 40
15.0
 40
15.0
 40
15.0
 40
16.0
 40
16.0
 40
16.0
 40
17.0
 40
17.0
 40
17.0
 40
18.0
 40
18.0
 40
18.0
 40
19.0
 40
19.0
 40
19.0
 40
20.0
 40
20.0
 40
20.0
 40
21.0
 40
21.0
 40
21.0
 40
22.0
 40
22.0
 40
22.0
 40
23.0
 40
23.0
 40
23.0
 40
24.0
 40
24.0
 40
24.0
 40
25.0
 40
25.0
 40
25.0
 40
26.0
 40
26.0
 40
26.0
 40
26.0
 10
128.9189181535342
 20
-49.73357067984092
 30
0.0
 10
128.9189181535342
 20
-49.79558239857541
 30
0.0
 10
128.9049655168189
 20
-49.89221732693667
 30
0.0
 10
128.8775770077111
 20
-50.02295870060191
 30
0.0
 10
128.8500162438291
 20
-50.1538723290414
 30
0.0
 10
128.813842741234
 20
-50.2952934987109
 30
0.0
 10
128.7690564999258
 20
-50.44670544528763
 30
0.0
 10
128.7240980038433
 20
-50.59828964663863
 30
0.0
 10
128.6743163740814
 20
-50.74815130024699
 30
0.0
 10
128.6191948463174
 20
-50.89629040611273
 30
0.0
 10
128.5639010637791
 20
-51.04460176675274
 30
0.0
 10
128.5089517907894
 20
-51.17017549719009
 30
0.0
 10
128.4538302630254
 20
-51.27352836174759
 30
0.0
 10
128.4055989262319
 20
-51.38377141727559
 30
0.0
 10
128.3158541888411
 20
-51.48901908434996
 30
0.0
 10
128.1851128151759
 20
-51.58875459864795
 30
0.0
 10
128.0541991867364
 20
-51.6886623677202
 30
0.0
 10
127.9127780170669
 20
-51.77323946188308
 30
0.0
 10
127.7613660704902
 20
-51.84196911681381
 30
0.0
 10
127.6097818691392
 20
-51.91087102651881
 30
0.0
 10
127.4580254130139
 20
-51.96599255428281
 30
0.0
 10
127.3066134664372
 20
-52.00733370010581
 30
0.0
 10
127.1550292650862
 20
-52.04867484592881
 30
0.0
 10
127.027560732132
 20
-52.06934541884031
 30
0.0
 10
126.9242078675745
 20
-52.06934541884031
 30
0.0
 10
126.7862317933902
 20
-52.06934541884031
 30
0.0
 10
126.6777112856049
 20
-52.05229219618832
 30
0.0
 10
126.5986463442184
 20
-52.01766898656156
 30
0.0
 10
126.5194091480576
 20
-51.98321803170905
 30
0.0
 10
126.4591199770658
 20
-51.93498669491556
 30
0.0
 10
126.4177788312428
 20
-51.87297497618106
 30
0.0
 10
126.3764376854198
 20
-51.81096325744657
 30
0.0
 10
126.3505994692804
 20
-51.74033879999894
 30
0.0
 10
126.3402641828246
 20
-51.66110160383819
 30
0.0
 10
126.3299288963689
 20
-51.58203666245171
 30
0.0
 10
126.3211439028815
 20
-51.50090466377408
 30
0.0
 10
126.3144259666853
 20
-51.41822237212808
 30
0.0
 10
126.3144259666853
 20
-51.40444199018709
 30
0.0
 10
126.3108086164258
 20
-51.37343613081984
 30
0.0
 10
126.3040906802295
 20
-51.32520479402634
 30
0.0
 10
126.297200489259
 20
-51.2771457120071
 30
0.0
 10
126.2765299163475
 20
-51.16673040170485
 30
0.0
 10
126.242078961495
 20
-50.99447562744235
 30
0.0
 10
126.2214083885835
 20
-50.93246390870786
 30
0.0
 10
126.1990152679294
 20
-50.87734238094386
 30
0.0
 10
126.1748995995326
 20
-50.82911104415036
 30
0.0
 10
126.1506116763616
 20
-50.78105196213113
 30
0.0
 10
126.1283908104818
 20
-50.72937552985238
 30
0.0
 10
126.1077202375703
 20
-50.67408174731411
 30
0.0
 10
126.0870496646588
 20
-50.61896021955012
 30
0.0
 10
126.0679293847156
 20
-50.555225953073
 30
0.0
 10
126.0508761620636
 20
-50.48287894788275
 30
0.0
 10
126.0336506846374
 20
-50.41053194269251
 30
0.0
 10
126.0250379459243
 20
-50.32268200781864
 30
0.0
 10
126.0250379459243
 20
-50.21932914326114
 30
0.0
 10
126.0250379459243
 20
-50.08858776959591
 30
0.0
 10
126.0679293847156
 20
-49.94544405218378
 30
0.0
 10
126.1542290266211
 20
-49.79041475534753
 30
0.0
 10
126.2403564137524
 20
-49.63538545851129
 30
0.0
 10
126.3573174054766
 20
-49.4906914481308
 30
0.0
 10
126.5056287661166
 20
-49.35633272420606
 30
0.0
 10
126.6537678719824
 20
-49.22197400028132
 30
0.0
 10
126.8275729392132
 20
-49.1100083970107
 30
0.0
 10
127.027560732132
 20
-49.0204359143942
 30
0.0
 10
127.2273762702765
 20
-48.93103568655196
 30
0.0
 10
127.4444172858472
 20
-48.88607719046945
 30
0.0
 10
127.6786837788442
 20
-48.88607719046945
 30
0.0
 10
127.7474134337749
 20
-48.88607719046945
 30
0.0
 10
127.8507662983324
 20
-48.91191540660883
 30
0.0
 10
127.9887423725167
 20
-48.96359183888757
 30
0.0
 10
128.1265461919267
 20
-49.01526827116633
 30
0.0
 10
128.2641777565624
 20
-49.08244763312869
 30
0.0
 10
128.4021538307467
 20
-49.16512992477469
 30
0.0
 10
128.5399576501567
 20
-49.24781221642069
 30
0.0
 10
128.6605359921404
 20
-49.33927950155407
 30
0.0
 10
128.7638888566979
 20
-49.43901501585205
 30
0.0
 10
128.8672417212554
 20
-49.5389227849243
 30
0.0
 10
128.9189181535342
 20
-49.63710800625392
 30
0.0
 10
128.9189181535342
 20
-49.73357067984092
 30
0.0
  0
SPLINE
  5
83
330
79
100
AcDbEntity
  8
Layer 1
 62
   250
420
  2301728
370
     9
100
AcDbSpline
210
0.0
220
0.0
230
1.0
 70
     9
 71
     3
 72
   137
 73
   133
 74
     0
 42
0.0000000001
 43
0.0000000001
 40
0.0
 40
0.0
 40
0.0
 40
0.0
 40
1.0
 40
1.0
 40
1.0
 40
2.0
 40
2.0
 40
2.0
 40
3.0
 40
3.0
 40
3.0
 40
4.0
 40
4.0
 40
4.0
 40
5.0
 40
5.0
 40
5.0
 40
6.0
 40
6.0
 40
6.0
 40
7.0
 40
7.0
 40
7.0
 40
8.0
 40
8.0
 40
8.0
 40
9.0
 40
9.0
 40
9.0
 40
10.0
 40
10.0
 40
10.0
 40
11.0
 40
11.0
 40
11.0
 40
12.0
 40
12.0
 40
12.0
 40
13.0
 40
13.0
 40
13.0
 40
14.0
 40
14.0
 40
14.0
 40
15.0
 40
15.0
 40
15.0
 40
16.0
 40
16.0
 40
16.0
 40
17.0
 40
17.0
 40
17.0
 40
18.0
 40
18.0
 40
18.0
 40
19.0
 40
19.0
 40
19.0
 40
20.0
 40
20.0
 40
20.0
 40
21.0
 40
21.0
 40
21.0
 40
22.0
 40
22.0
 40
22.0
 40
23.0
 40
23.0
 40
23.0
 40
24.0
 40
24.0
 40
24.0
 40
25.0
 40
25.0
 40
25.0
 40
26.0
 40
26.0
 40
26.0
 40
27.0
 40
27.0
 40
27.0
 40
28.0
 40
28.0
 40
28.0
 40
29.0
 40
29.0
 40
29.0
 40
30.0
 40
30.0
 40
30.0
 40
31.0
 40
31.0
 40
31.0
 40
32.0
 40
32.0
 40
32.0
 40
33.0
 40
33.0
 40
33.0
 40
34.0
 40
34.0
 40
34.0
 40
35.0
 40
35.0
 40
35.0
 40
36.0
 40
36.0
 40
36.0
 40
37.0
 40
37.0
 40
37.0
 40
38.0
 40
38.0
 40
38.0
 40
39.0
 40
39.0
 40
39.0
 40
40.0
 40
40.0
 40
40.0
 40
41.0
 40
41.0
 40
41.0
 40
42.0
 40
42.0
 40
42.0
 40
43.0
 40
43.0
 40
43.0
 40
44.0
 40
44.0
 40
44.0
 40
44.0
 10
132.0711805225377
 20
-61.19540335926712
 30
0.0
 10
132.0711805225377
 20
-61.30564641479512
 30
0.0
 10
132.0332844722
 20
-61.44861787743298
 30
0.0
 10
131.9574923715245
 20
-61.62431774718072
 30
0.0
 10
131.8815280160747
 20
-61.80001761692847
 30
0.0
 10
131.771457215321
 20
-61.99122041635984
 30
0.0
 10
131.6267632049405
 20
-62.19792614547483
 30
0.0
 10
131.48206919456
 20
-62.40463187458981
 30
0.0
 10
131.3027519745528
 20
-62.62012259719219
 30
0.0
 10
131.0893283092415
 20
-62.84388154895918
 30
0.0
 10
130.875732389156
 20
-63.06781275550041
 30
0.0
 10
130.6309583549291
 20
-63.28313122332852
 30
0.0
 10
130.3555229708833
 20
-63.48983695244352
 30
0.0
 10
130.2039387695323
 20
-63.60008000797151
 30
0.0
 10
130.0160088108119
 20
-63.72754854092575
 30
0.0
 10
129.792249859045
 20
-63.87224255130625
 30
0.0
 10
129.5683186525037
 20
-64.01693656168674
 30
0.0
 10
129.3080416885931
 20
-64.15301783335412
 30
0.0
 10
129.0119357316359
 20
-64.28048636630835
 30
0.0
 10
128.7156575199044
 20
-64.40812715403686
 30
0.0
 10
128.3849283533204
 20
-64.51475285930534
 30
0.0
 10
128.019748231884
 20
-64.60088024643659
 30
0.0
 10
127.6543958556732
 20
-64.68700763356783
 30
0.0
 10
127.2549370341585
 20
-64.73007132713346
 30
0.0
 10
126.820855003017
 20
-64.73007132713346
 30
0.0
 10
126.2765299163475
 20
-64.73007132713346
 30
0.0
 10
125.8095472233219
 20
-64.62671846257596
 30
0.0
 10
125.4204236882629
 20
-64.42001273346098
 30
0.0
 10
125.0311278984297
 20
-64.21330700434598
 30
0.0
 10
124.7124565660441
 20
-63.94303926352813
 30
0.0
 10
124.4644096911061
 20
-63.60869274668463
 30
0.0
 10
124.2163628161681
 20
-63.2745184846154
 30
0.0
 10
124.0337727554499
 20
-62.89555798123792
 30
0.0
 10
123.9166395089514
 20
-62.47181123655219
 30
0.0
 10
123.7993340076786
 20
-62.04806449186646
 30
0.0
 10
123.7409396392036
 20
-61.61915010395285
 30
0.0
 10
123.7409396392036
 20
-61.18506807281137
 30
0.0
 10
123.7409396392036
 20
-60.88189967010939
 30
0.0
 10
123.7579928618556
 20
-60.56340059249804
 30
0.0
 10
123.7926160714824
 20
-60.22905407565454
 30
0.0
 10
123.8270670263349
 20
-59.89487981358531
 30
0.0
 10
123.8684081721579
 20
-59.56604544951821
 30
0.0
 10
123.9166395089514
 20
-59.24203421913047
 30
0.0
 10
123.9646985909706
 20
-58.91819524351698
 30
0.0
 10
124.0199923735089
 20
-58.60296900661662
 30
0.0
 10
124.0820040922434
 20
-58.29635550842938
 30
0.0
 10
124.1440158109779
 20
-57.98991426501641
 30
0.0
 10
124.1991373387419
 20
-57.71241182367954
 30
0.0
 10
124.2473686755354
 20
-57.46436494874155
 30
0.0
 10
124.2954277575546
 20
-57.21631807380356
 30
0.0
 10
124.3367689033776
 20
-57.0044447014607
 30
0.0
 10
124.3713921130044
 20
-56.82874483171295
 30
0.0
 10
124.4058430678569
 20
-56.65304496196521
 30
0.0
 10
124.4230685452831
 20
-56.53074407223884
 30
0.0
 10
124.4230685452831
 20
-56.46184216253384
 30
0.0
 10
124.4230685452831
 20
-56.30336777021235
 30
0.0
 10
124.442016570452
 20
-56.13111299594987
 30
0.0
 10
124.4799126207897
 20
-55.94507783974638
 30
0.0
 10
124.5176364163532
 20
-55.75904268354288
 30
0.0
 10
124.5815429376046
 20
-55.58506536153776
 30
0.0
 10
124.6711154202211
 20
-55.42314587373102
 30
0.0
 10
124.7605156480633
 20
-55.26139864069854
 30
0.0
 10
124.8812662448213
 20
-55.12514511425691
 30
0.0
 10
125.0328504461723
 20
-55.01490205872891
 30
0.0
 10
125.184262392749
 20
-54.90483125797518
 30
0.0
 10
125.3773599946973
 20
-54.84953747543692
 30
0.0
 10
125.6116264876943
 20
-54.84953747543692
 30
0.0
 10
125.8596733626323
 20
-54.84953747543692
 30
0.0
 10
126.0749918304604
 20
-54.88226588254679
 30
0.0
 10
126.2575818911786
 20
-54.94772269676655
 30
0.0
 10
126.4399996971226
 20
-55.01335176576056
 30
0.0
 10
126.5883110577626
 20
-55.09413925488966
 30
0.0
 10
126.7019992087759
 20
-55.19060192847666
 30
0.0
 10
126.8156873597891
 20
-55.28723685683791
 30
0.0
 10
126.8999199444035
 20
-55.39058972139541
 30
0.0
 10
126.9552137269417
 20
-55.50066052214914
 30
0.0
 10
127.0103352547057
 20
-55.61090357767714
 30
0.0
 10
127.0378960185877
 20
-55.71425644223463
 30
0.0
 10
127.0378960185877
 20
-55.81071911582163
 30
0.0
 10
127.0378960185877
 20
-55.95541312620213
 30
0.0
 10
127.0084404521888
 20
-56.14144828240561
 30
0.0
 10
126.9500460837139
 20
-56.3688245844321
 30
0.0
 10
126.8914794604646
 20
-56.59620088645858
 30
0.0
 10
126.8172376527575
 20
-56.84424776139658
 30
0.0
 10
126.7278374249152
 20
-57.11296520924607
 30
0.0
 10
126.6589355152103
 20
-57.33362357507632
 30
0.0
 10
126.5846937075031
 20
-57.57460800426954
 30
0.0
 10
126.5056287661166
 20
-57.83643526114853
 30
0.0
 10
126.4263915699559
 20
-58.09843477280178
 30
0.0
 10
126.3521497622487
 20
-58.3738701568475
 30
0.0
 10
126.283420107318
 20
-58.66325817760849
 30
0.0
 10
126.214518197613
 20
-58.95264619836948
 30
0.0
 10
126.159396669849
 20
-59.25236950558621
 30
0.0
 10
126.118055524026
 20
-59.5624280992587
 30
0.0
 10
126.076714378203
 20
-59.87248669293119
 30
0.0
 10
126.0560438052915
 20
-60.18943547757417
 30
0.0
 10
126.0560438052915
 20
-60.51327445318765
 30
0.0
 10
126.0560438052915
 20
-60.74754094618464
 30
0.0
 10
126.0663790917473
 20
-60.99386527338001
 30
0.0
 10
126.0870496646588
 20
-61.25224743477375
 30
0.0
 10
126.1077202375703
 20
-61.51062959616748
 30
0.0
 10
126.1525064788785
 20
-61.74834118464972
 30
0.0
 10
126.2214083885835
 20
-61.96538220022046
 30
0.0
 10
126.2901380435142
 20
-62.1824232157912
 30
0.0
 10
126.3919406151034
 20
-62.36174043579846
 30
0.0
 10
126.5262993390281
 20
-62.50281709591944
 30
0.0
 10
126.6606580629529
 20
-62.64406601081468
 30
0.0
 10
126.8415255759285
 20
-62.7146904682623
 30
0.0
 10
127.068901877955
 20
-62.7146904682623
 30
0.0
 10
127.3029961161777
 20
-62.7146904682623
 30
0.0
 10
127.5458753478878
 20
-62.68730195915456
 30
0.0
 10
127.7975395730853
 20
-62.63200817661631
 30
0.0
 10
128.0490315435086
 20
-62.57688664885231
 30
0.0
 10
128.2970784184465
 20
-62.50643444617895
 30
0.0
 10
128.5416801978993
 20
-62.42013480427344
 30
0.0
 10
128.7861097225778
 20
-62.3340074171422
 30
0.0
 10
129.0171033748638
 20
-62.23254935510158
 30
0.0
 10
129.2341443904345
 20
-62.11524385382883
 30
0.0
 10
129.4511854060052
 20
-61.99811060733034
 30
0.0
 10
129.6423882054366
 20
-61.8775322653466
 30
0.0
 10
129.8077527887286
 20
-61.7535088278776
 30
0.0
 10
130.1658704644203
 20
-61.48479138002811
 30
0.0
 10
130.4829915038375
 20
-61.24707979154587
 30
0.0
 10
130.7585991426575
 20
-61.04037406243087
 30
0.0
 10
131.0340345267033
 20
-60.83366833331589
 30
0.0
 10
131.289143847386
 20
-60.7303154687584
 30
0.0
 10
131.523410340383
 20
-60.7303154687584
 30
0.0
 10
131.7232258785275
 20
-60.7303154687584
 30
0.0
 10
131.8644747934228
 20
-60.78371444877976
 30
0.0
 10
131.9471570850687
 20
-60.89051240882252
 30
0.0
 10
132.0298393767147
 20
-60.99748262363952
 30
0.0
 10
132.0711805225377
 20
-61.09894068568013
 30
0.0
 10
132.0711805225377
 20
-61.19540335926712
 30
0.0
  0
SPLINE
  5
84
330
79
100
AcDbEntity
  8
Layer 1
 62
   250
420
  2301728
370
     9
100
AcDbSpline
210
0.0
220
0.0
230
1.0
 70
     9
 71
     3
 72
   218
 73
   214
 74
     0
 42
0.0000000001
 43
0.0000000001
 40
0.0
 40
0.0
 40
0.0
 40
0.0
 40
1.0
 40
1.0
 40
1.0
 40
2.0
 40
2.0
 40
2.0
 40
3.0
 40
3.0
 40
3.0
 40
4.0
 40
4.0
 40
4.0
 40
5.0
 40
5.0
 40
5.0
 40
6.0
 40
6.0
 40
6.0
 40
7.0
 40
7.0
 40
7.0
 40
8.0
 40
8.0
 40
8.0
 40
9.0
 40
9.0
 40
9.0
 40
10.0
 40
10.0
 40
10.0
 40
11.0
 40
11.0
 40
11.0
 40
12.0
 40
12.0
 40
12.0
 40
13.0
 40
13.0
 40
13.0
 40
14.0
 40
14.0
 40
14.0
 40
15.0
 40
15.0
 40
15.0
 40
16.0
 40
16.0
 40
16.0
 40
17.0
 40
17.0
 40
17.0
 40
18.0
 40
18.0
 40
18.0
 40
19.0
 40
19.0
 40
19.0
 40
20.0
 40
20.0
 40
20.0
 40
21.0
 40
21.0
 40
21.0
 40
22.0
 40
22.0
 40
22.0
 40
23.0
 40
23.0
 40
23.0
 40
24.0
 40
24.0
 40
24.0
 40
25.0
 40
25.0
 40
25.0
 40
26.0
 40
26.0
 40
26.0
 40
27.0
 40
27.0
 40
27.0
 40
28.0
 40
28.0
 40
28.0
 40
29.0
 40
29.0
 40
29.0
 40
30.0
 40
30.0
 40
30.0
 40
31.0
 40
31.0
 40
31.0
 40
32.0
 40
32.0
 40
32.0
 40
33.0
 40
33.0
 40
33.0
 40
34.0
 40
34.0
 40
34.0
 40
35.0
 40
35.0
 40
35.0
 40
36.0
 40
36.0
 40
36.0
 40
37.0
 40
37.0
 40
37.0
 40
38.0
 40
38.0
 40
38.0
 40
39.0
 40
39.0
 40
39.0
 40
40.0
 40
40.0
 40
40.0
 40
41.0
 40
41.0
 40
41.0
 40
42.0
 40
42.0
 40
42.0
 40
43.0
 40
43.0
 40
43.0
 40
44.0
 40
44.0
 40
44.0
 40
45.0
 40
45.0
 40
45.0
 40
46.0
 40
46.0
 40
46.0
 40
47.0
 40
47.0
 40
47.0
 40
48.0
 40
48.0
 40
48.0
 40
49.0
 40
49.0
 40
49.0
 40
50.0
 40
50.0
 40
50.0
 40
51.0
 40
51.0
 40
51.0
 40
52.0
 40
52.0
 40
52.0
 40
53.0
 40
53.0
 40
53.0
 40
54.0
 40
54.0
 40
54.0
 40
55.0
 40
55.0
 40
55.0
 40
56.0
 40
56.0
 40
56.0
 40
57.0
 40
57.0
 40
57.0
 40
58.0
 40
58.0
 40
58.0
 40
59.0
 40
59.0
 40
59.0
 40
60.0
 40
60.0
 40
60.0
 40
61.0
 40
61.0
 40
61.0
 40
62.0
 40
62.0
 40
62.0
 40
63.0
 40
63.0
 40
63.0
 40
64.0
 40
64.0
 40
64.0
 40
65.0
 40
65.0
 40
65.0
 40
66.0
 40
66.0
 40
66.0
 40
67.0
 40
67.0
 40
67.0
 40
68.0
 40
68.0
 40
68.0
 40
69.0
 40
69.0
 40
69.0
 40
70.0
 40
70.0
 40
70.0
 40
71.0
 40
71.0
 40
71.0
 40
71.0
 10
153.847629084802
 20
-47.60450166995651
 30
0.0
 10
153.847629084802
 20
-47.64584281577952
 30
0.0
 10
153.8407388938315
 20
-47.71302217774188
 30
0.0
 10
153.8269585118905
 20
-47.80603975584362
 30
0.0
 10
153.8131781299495
 20
-47.89905733394538
 30
0.0
 10
153.7959526525232
 20
-47.98346217333399
 30
0.0
 10
153.7752820796117
 20
-48.0592542740095
 30
0.0
 10
153.6030273053492
 20
-48.45199515932797
 30
0.0
 10
153.3532578826686
 20
-48.87935925427322
 30
0.0
 10
153.0259738115699
 20
-49.34082979452243
 30
0.0
 10
152.6986897404711
 20
-49.80247258954591
 30
0.0
 10
152.3369547145199
 20
-50.28134086199564
 30
0.0
 10
151.9407687337162
 20
-50.77743461187161
 30
0.0
 10
151.5445827529124
 20
-51.27352836174759
 30
0.0
 10
151.1346163901677
 20
-51.77840710511095
 30
0.0
 10
150.710869645482
 20
-52.29155407763892
 30
0.0
 10
150.2871229007963
 20
-52.80487330494114
 30
0.0
 10
149.8961045632204
 20
-53.30957979353025
 30
0.0
 10
149.5378146327544
 20
-53.80567354340622
 30
0.0
 10
149.3931206223739
 20
-54.00566133632498
 30
0.0
 10
149.2604844461918
 20
-54.20358207195258
 30
0.0
 10
149.1399061042081
 20
-54.39995251461182
 30
0.0
 10
149.0193277622243
 20
-54.59632295727106
 30
0.0
 10
148.8624036628712
 20
-54.84609237995167
 30
0.0
 10
148.6696505704714
 20
-55.14926078265366
 30
0.0
 10
148.6143567879332
 20
-55.23883326527015
 30
0.0
 10
148.542009782743
 20
-55.35596651176865
 30
0.0
 10
148.4526095549007
 20
-55.50066052214914
 30
0.0
 10
148.3630370722842
 20
-55.64535453252964
 30
0.0
 10
148.2681246916656
 20
-55.79883353639751
 30
0.0
 10
148.1683891773676
 20
-55.96058076942999
 30
0.0
 10
148.0684814082954
 20
-56.12250025723674
 30
0.0
 10
147.9668510914805
 20
-56.28097464955823
 30
0.0
 10
147.863498226923
 20
-56.43600394639447
 30
0.0
 10
147.7601453623655
 20
-56.59103324323072
 30
0.0
 10
147.6671277842638
 20
-56.7238416741871
 30
0.0
 10
147.5844454926178
 20
-56.83391247494083
 30
0.0
 10
147.5291517100795
 20
-57.72963730110578
 30
0.0
 10
147.4810926280603
 20
-58.64431015243962
 30
0.0
 10
147.4397514822373
 20
-59.57793102894232
 30
0.0
 10
147.3984103364143
 20
-60.5117241602193
 30
0.0
 10
147.3501789996208
 20
-61.47101099808711
 30
0.0
 10
147.2950574718568
 20
-62.45630830686856
 30
0.0
 10
147.26043426223
 20
-62.95929224771504
 30
0.0
 10
147.2364908486075
 20
-63.36064587174664
 30
0.0
 10
147.2227104666665
 20
-63.66036917896338
 30
0.0
 10
147.2087578299513
 20
-63.96009248618011
 30
0.0
 10
147.1917046072993
 20
-64.14785019012623
 30
0.0
 10
147.1710340343878
 20
-64.22364229080173
 30
0.0
 10
147.1021321246828
 20
-64.53370088447421
 30
0.0
 10
146.9315998981629
 20
-64.76452228198596
 30
0.0
 10
146.6594373548282
 20
-64.91610648333694
 30
0.0
 10
146.3871025567192
 20
-65.06751842991367
 30
0.0
 10
146.0686034791078
 20
-65.14348278536343
 30
0.0
 10
145.7034233576713
 20
-65.14348278536343
 30
0.0
 10
145.5380587743793
 20
-65.14348278536343
 30
0.0
 10
145.3830294775431
 20
-65.09852428928093
 30
0.0
 10
145.2383354671626
 20
-65.0091240614387
 30
0.0
 10
145.0936414567821
 20
-64.9195515788222
 30
0.0
 10
144.9678954715705
 20
-64.80913626851993
 30
0.0
 10
144.8610975115277
 20
-64.6783948948547
 30
0.0
 10
144.7541272967107
 20
-64.54765352118947
 30
0.0
 10
144.6698947120964
 20
-64.40812715403686
 30
0.0
 10
144.6078829933619
 20
-64.25981579339685
 30
0.0
 10
144.5458712746274
 20
-64.11167668753112
 30
0.0
 10
144.5148654152601
 20
-63.97559541586375
 30
0.0
 10
144.5148654152601
 20
-63.85157197839475
 30
0.0
 10
144.5148654152601
 20
-63.73443873189625
 30
0.0
 10
144.5215833514564
 20
-63.57251924408951
 30
0.0
 10
144.5355359881717
 20
-63.36581351497452
 30
0.0
 10
144.5493163701127
 20
-63.15910778585953
 30
0.0
 10
144.5680921405072
 20
-62.93018119086468
 30
0.0
 10
144.5923800636783
 20
-62.67851696566718
 30
0.0
 10
144.616495732075
 20
-62.42702499524394
 30
0.0
 10
144.6404391456975
 20
-62.1617526428797
 30
0.0
 10
144.6647270688685
 20
-61.88269990857446
 30
0.0
 10
144.6888427372653
 20
-61.60364717426922
 30
0.0
 10
144.7146809534046
 20
-61.33337943345138
 30
0.0
 10
144.7422417172866
 20
-61.07137992179813
 30
0.0
 10
144.7696302263944
 20
-60.80955266491915
 30
0.0
 10
144.7954684425337
 20
-60.56667343320903
 30
0.0
 10
144.8197563657048
 20
-60.34274222666779
 30
0.0
 10
144.8438720341015
 20
-60.11898327490081
 30
0.0
 10
144.8626478044961
 20
-59.9381157619252
 30
0.0
 10
144.8766004412114
 20
-59.80013968774094
 30
0.0
 10
144.9453300961421
 20
-59.12490097263197
 30
0.0
 10
144.9970065284209
 20
-58.56507295627888
 30
0.0
 10
145.0316297380476
 20
-58.12065563868165
 30
0.0
 10
145.0660806929001
 20
-57.67623832108441
 30
0.0
 10
145.0833061703264
 20
-57.34395886153206
 30
0.0
 10
145.0833061703264
 20
-57.12330049570182
 30
0.0
 10
145.0833061703264
 20
-57.00616724920332
 30
0.0
 10
145.0729708838706
 20
-56.89247909819008
 30
0.0
 10
145.0523003109591
 20
-56.78223604266208
 30
0.0
 10
145.0316297380476
 20
-56.67216524190835
 30
0.0
 10
145.0040689741656
 20
-56.57553031354709
 30
0.0
 10
144.9696180193131
 20
-56.49284802190109
 30
0.0
 10
144.6319986617586
 20
-56.2930324837566
 30
0.0
 10
144.3045423358856
 20
-56.04688041133551
 30
0.0
 10
143.9877658060169
 20
-55.75387504031501
 30
0.0
 10
143.670817021374
 20
-55.46104192406877
 30
0.0
 10
143.3710937141572
 20
-55.15959606910941
 30
0.0
 10
143.0885958843667
 20
-54.84953747543692
 30
0.0
 10
143.012631528917
 20
-54.76013724759469
 30
0.0
 10
142.912896014619
 20
-54.64455429406456
 30
0.0
 10
142.78887257715
 20
-54.50330537916931
 30
0.0
 10
142.664849139681
 20
-54.36222871904833
 30
0.0
 10
142.5339355112415
 20
-54.21236706543997
 30
0.0
 10
142.3961316918315
 20
-54.05372041834421
 30
0.0
 10
142.2581556176472
 20
-53.89524602602271
 30
0.0
 10
142.1205240530115
 20
-53.73332653821598
 30
0.0
 10
141.9827202336015
 20
-53.56796195492399
 30
0.0
 10
141.8447441594173
 20
-53.40259737163199
 30
0.0
 10
141.7207207219483
 20
-53.25118542505526
 30
0.0
 10
141.6106499211946
 20
-53.113209350871
 30
0.0
 10
141.5004068656666
 20
-52.97540553146101
 30
0.0
 10
141.4106621282758
 20
-52.86361218296466
 30
0.0
 10
141.341932473345
 20
-52.77731254105915
 30
0.0
 10
141.2730305636401
 20
-52.6911851539279
 30
0.0
 10
141.2385796087876
 20
-52.64140352416603
 30
0.0
 10
141.2385796087876
 20
-52.62745088745077
 30
0.0
 10
140.9972506700458
 20
-52.34495305766029
 30
0.0
 10
140.7647067247914
 20
-52.08484834852392
 30
0.0
 10
140.5409477730245
 20
-51.84713676004169
 30
0.0
 10
140.3170165664832
 20
-51.60942517155945
 30
0.0
 10
140.120646123824
 20
-51.39410670373134
 30
0.0
 10
139.9518364450468
 20
-51.20118135655735
 30
0.0
 10
139.7828545114952
 20
-51.00842826415761
 30
0.0
 10
139.6469454946021
 20
-50.83944633060611
 30
0.0
 10
139.5435926300446
 20
-50.69475232022561
 30
0.0
 10
139.4402397654872
 20
-50.55005830984512
 30
0.0
 10
139.3885633332084
 20
-50.43292506334663
 30
0.0
 10
139.3885633332084
 20
-50.34335258073014
 30
0.0
 10
139.3885633332084
 20
-50.22621933423164
 30
0.0
 10
139.4436848609724
 20
-50.09375541282379
 30
0.0
 10
139.5539279165004
 20
-49.94544405218378
 30
0.0
 10
139.6639987172541
 20
-49.79730494631803
 30
0.0
 10
139.8433159372614
 20
-49.65450573845443
 30
0.0
 10
140.0913628121994
 20
-49.51652966427017
 30
0.0
 10
140.3047864775106
 20
-49.39939641777169
 30
0.0
 10
140.4875487930031
 20
-49.32894421509832
 30
0.0
 10
140.6391329943541
 20
-49.30465629192731
 30
0.0
 10
140.7905449409308
 20
-49.28054062353056
 30
0.0
 10
140.9216308241446
 20
-49.26848278933219
 30
0.0
 10
141.0318738796726
 20
-49.26848278933219
 30
0.0
 10
141.2316894178171
 20
-49.26848278933219
 30
0.0
 10
141.4280598604763
 20
-49.32188176935356
 30
0.0
 10
141.6209852076503
 20
-49.4286797293963
 30
0.0
 10
141.81373830005
 20
-49.53564994421331
 30
0.0
 10
142.0240613794245
 20
-49.69739717724579
 30
0.0
 10
142.251437681451
 20
-49.91443819281653
 30
0.0
 10
142.4788139834775
 20
-50.13147920838727
 30
0.0
 10
142.7268608584155
 20
-50.40381400649627
 30
0.0
 10
142.995578306265
 20
-50.73092582282074
 30
0.0
 10
143.2642957541145
 20
-51.05820989391947
 30
0.0
 10
143.5707369975274
 20
-51.43889294503958
 30
0.0
 10
143.9154188008267
 20
-51.87297497618106
 30
0.0
 10
144.5215833514564
 20
-52.63778617390652
 30
0.0
 10
145.0435153174717
 20
-53.2441229793105
 30
0.0
 10
145.4812146988727
 20
-53.69198539239298
 30
0.0
 10
145.9187418254995
 20
-54.14002006024972
 30
0.0
 10
146.2511935398261
 20
-54.40167506235444
 30
0.0
 10
146.4785698418526
 20
-54.47746716302994
 30
0.0
 10
146.4646172051373
 20
-54.4707492268337
 30
0.0
 10
146.5095757012198
 20
-54.3880669351877
 30
0.0
 10
146.6129285657773
 20
-54.22942028809195
 30
0.0
 10
146.7162814303348
 20
-54.07094589577045
 30
0.0
 10
146.8573580904558
 20
-53.86424016665547
 30
0.0
 10
147.036675310463
 20
-53.60930310074699
 30
0.0
 10
147.215820275696
 20
-53.35453828961275
 30
0.0
 10
147.4206312022941
 20
-53.06515026885177
 30
0.0
 10
147.6516248545801
 20
-52.74113903846401
 30
0.0
 10
147.8824462520918
 20
-52.41730006285053
 30
0.0
 10
148.1201578405741
 20
-52.08484834852392
 30
0.0
 10
148.3647596200268
 20
-51.74378389548419
 30
0.0
 10
148.6091891447053
 20
-51.40271944244446
 30
0.0
 10
148.8487955357045
 20
-51.07043998289211
 30
0.0
 10
149.0830620287014
 20
-50.74642875250436
 30
0.0
 10
149.3173285216984
 20
-50.42258977689088
 30
0.0
 10
149.5257567985561
 20
-50.13147920838727
 30
0.0
 10
149.7083468592743
 20
-49.87309704699353
 30
0.0
 10
149.8909369199925
 20
-49.61471488559979
 30
0.0
 10
150.0390760258583
 20
-49.40645886351644
 30
0.0
 10
150.1527641768715
 20
-49.24781221642069
 30
0.0
 10
150.2664523278848
 20
-49.0893378240992
 30
0.0
 10
150.3232964033914
 20
-49.0066555324532
 30
0.0
 10
150.3232964033914
 20
-48.9997653414827
 30
0.0
 10
150.4886609866834
 20
-48.77927923042671
 30
0.0
 10
150.6574706654606
 20
-48.55190292840022
 30
0.0
 10
150.8297254397231
 20
-48.31763643540323
 30
0.0
 10
151.0019802139856
 20
-48.08354219718051
 30
0.0
 10
151.1776800837334
 20
-47.8387681629535
 30
0.0
 10
151.3568250489663
 20
-47.58383109704501
 30
0.0
 10
151.4532877225533
 20
-47.43913708666452
 30
0.0
 10
151.5394151096846
 20
-47.30994600596765
 30
0.0
 10
151.6152072103601
 20
-47.1962578549544
 30
0.0
 10
151.6909993110356
 20
-47.08256970394116
 30
0.0
 10
151.7736816026816
 20
-46.98800183287105
 30
0.0
 10
151.8632540852981
 20
-46.9120374774213
 30
0.0
 10
151.9528265679146
 20
-46.8362453767458
 30
0.0
 10
152.0527343369868
 20
-46.77940130123918
 30
0.0
 10
152.1629773925148
 20
-46.74150525090143
 30
0.0
 10
152.2732204480428
 20
-46.70378145533795
 30
0.0
 10
152.4041340764823
 20
-46.6846611753948
 30
0.0
 10
152.5557182778333
 20
-46.6846611753948
 30
0.0
 10
152.8588866805353
 20
-46.6846611753948
 30
0.0
 10
153.117268841929
 20
-46.74322779864406
 30
0.0
 10
153.3308647620145
 20
-46.86036104514255
 30
0.0
 10
153.4962293453065
 20
-46.94304333678855
 30
0.0
 10
153.6236978782607
 20
-47.05156384457391
 30
0.0
 10
153.7132703608772
 20
-47.18592256849865
 30
0.0
 10
153.8028428434937
 20
-47.3202812924234
 30
0.0
 10
153.847629084802
 20
-47.45980765957602
 30
0.0
 10
153.847629084802
 20
-47.60450166995651
 30
0.0
  0
SPLINE
  5
85
330
79
100
AcDbEntity
  8
Layer 1
 62
   250
420
  2301728
370
     9
100
AcDbSpline
210
0.0
220
0.0
230
1.0
 70
     9
 71
     3
 72
    71
 73
    67
 74
     0
 42
0.0000000001
 43
0.0000000001
 40
0.0
 40
0.0
 40
0.0
 40
0.0
 40
1.0
 40
1.0
 40
1.0
 40
2.0
 40
2.0
 40
2.0
 40
3.0
 40
3.0
 40
3.0
 40
4.0
 40
4.0
 40
4.0
 40
5.0
 40
5.0
 40
5.0
 40
6.0
 40
6.0
 40
6.0
 40
7.0
 40
7.0
 40
7.0
 40
8.0
 40
8.0
 40
8.0
 40
9.0
 40
9.0
 40
9.0
 40
10.0
 40
10.0
 40
10.0
 40
11.0
 40
11.0
 40
11.0
 40
12.0
 40
12.0
 40
12.0
 40
13.0
 40
13.0
 40
13.0
 40
14.0
 40
14.0
 40
14.0
 40
15.0
 40
15.0
 40
15.0
 40
16.0
 40
16.0
 40
16.0
 40
17.0
 40
17.0
 40
17.0
 40
18.0
 40
18.0
 40
18.0
 40
19.0
 40
19.0
 40
19.0
 40
20.0
 40
20.0
 40
20.0
 40
21.0
 40
21.0
 40
21.0
 40
22.0
 40
22.0
 40
22.0
 40
22.0
 10
158.963595880398
 20
-55.09758435037491
 30
0.0
 10
158.963595880398
 20
-55.07691377746341
 30
0.0
 10
158.9584282371701
 20
-55.03729517938303
 30
0.0
 10
158.9480929507143
 20
-54.9787285561338
 30
0.0
 10
158.9377576642586
 20
-54.92033418765881
 30
0.0
 10
158.9256998300602
 20
-54.87382539860793
 30
0.0
 10
158.9119194481192
 20
-54.83920218898117
 30
0.0
 10
158.6845431460927
 20
-54.86676295286318
 30
0.0
 10
158.4347737234121
 20
-54.95461288773704
 30
0.0
 10
158.1626111800774
 20
-55.10275199360279
 30
0.0
 10
157.8904486367426
 20
-55.25106335424279
 30
0.0
 10
157.5976155204964
 20
-55.4765448537524
 30
0.0
 10
157.2841118313387
 20
-55.77971325645438
 30
0.0
 10
156.9706081421809
 20
-56.08305391393063
 30
0.0
 10
156.6347113323691
 20
-56.47389999673222
 30
0.0
 10
156.2764214019031
 20
-56.95276826918195
 30
0.0
 10
155.9181314714371
 20
-57.43180879640593
 30
0.0
 10
155.5426160635449
 20
-58.01575248115579
 30
0.0
 10
155.1498751782264
 20
-58.70459932343149
 30
0.0
 10
155.0465223136689
 20
-58.89063447963498
 30
0.0
 10
154.9362792581409
 20
-59.0921725655221
 30
0.0
 10
154.8191460116424
 20
-59.30921358109284
 30
0.0
 10
154.7020127651439
 20
-59.52625459666357
 30
0.0
 10
154.5934922573586
 20
-59.75879854191794
 30
0.0
 10
154.4935844882863
 20
-60.00684541685593
 30
0.0
 10
154.3936767192141
 20
-60.25489229179392
 30
0.0
 10
154.3127169753107
 20
-60.51844209641553
 30
0.0
 10
154.2507052565762
 20
-60.79749483072077
 30
0.0
 10
154.1886935378417
 20
-61.07654756502601
 30
0.0
 10
154.1576876784745
 20
-61.37110322901486
 30
0.0
 10
154.1576876784745
 20
-61.68116182268735
 30
0.0
 10
154.1576876784745
 20
-61.79846732396011
 30
0.0
 10
154.1904160855843
 20
-61.88631725883397
 30
0.0
 10
154.2558728998041
 20
-61.94471162730896
 30
0.0
 10
154.3213297140238
 20
-62.00327825055821
 30
0.0
 10
154.3885090759862
 20
-62.03256156218284
 30
0.0
 10
154.4574109856912
 20
-62.03256156218284
 30
0.0
 10
154.6158853780127
 20
-62.03256156218284
 30
0.0
 10
154.8208685593851
 20
-61.94126653182371
 30
0.0
 10
155.0723605298083
 20
-61.75867647110547
 30
0.0
 10
155.3238525002315
 20
-61.57625866516149
 30
0.0
 10
155.5960150435663
 20
-61.33337943345138
 30
0.0
 10
155.8888481598125
 20
-61.03003877597513
 30
0.0
 10
156.1816812760587
 20
-60.72687037327314
 30
0.0
 10
156.4814045832755
 20
-60.38063827700554
 30
0.0
 10
156.7880180814627
 20
-59.9913424871723
 30
0.0
 10
157.0946315796499
 20
-59.60221895211334
 30
0.0
 10
157.378851957183
 20
-59.20241562105009
 30
0.0
 10
157.640679214062
 20
-58.79244925830536
 30
0.0
 10
157.902506470941
 20
-58.38265515033489
 30
0.0
 10
158.1316053207101
 20
-57.97596162830115
 30
0.0
 10
158.3279757633694
 20
-57.57288545652691
 30
0.0
 10
158.5243462060286
 20
-57.16980928475269
 30
0.0
 10
158.660427477696
 20
-56.80652396583309
 30
0.0
 10
158.7362195783715
 20
-56.48251273544534
 30
0.0
 10
158.756890151283
 20
-56.37915987088785
 30
0.0
 10
158.7810058196797
 20
-56.25875378367837
 30
0.0
 10
158.8085665835617
 20
-56.12077770949412
 30
0.0
 10
158.8361273474437
 20
-55.98297389008411
 30
0.0
 10
158.8619655635831
 20
-55.84689261841675
 30
0.0
 10
158.8860812319799
 20
-55.712533894492
 30
0.0
 10
158.9101969003766
 20
-55.57817517056726
 30
0.0
 10
158.9291449255455
 20
-55.4558742808409
 30
0.0
 10
158.9429253074865
 20
-55.3456312253129
 30
0.0
 10
158.9567056894275
 20
-55.23556042455917
 30
0.0
 10
158.963595880398
 20
-55.15287813291317
 30
0.0
 10
158.963595880398
 20
-55.09758435037491
 30
0.0
  0
SPLINE
  5
86
330
79
100
AcDbEntity
  8
Layer 1
 62
   250
420
  2301728
370
     9
100
AcDbSpline
210
0.0
220
0.0
230
1.0
 70
     9
 71
     3
 72
   188
 73
   184
 74
     0
 42
0.0000000001
 43
0.0000000001
 40
0.0
 40
0.0
 40
0.0
 40
0.0
 40
1.0
 40
1.0
 40
1.0
 40
2.0
 40
2.0
 40
2.0
 40
3.0
 40
3.0
 40
3.0
 40
4.0
 40
4.0
 40
4.0
 40
5.0
 40
5.0
 40
5.0
 40
6.0
 40
6.0
 40
6.0
 40
7.0
 40
7.0
 40
7.0
 40
8.0
 40
8.0
 40
8.0
 40
9.0
 40
9.0
 40
9.0
 40
10.0
 40
10.0
 40
10.0
 40
11.0
 40
11.0
 40
11.0
 40
12.0
 40
12.0
 40
12.0
 40
13.0
 40
13.0
 40
13.0
 40
14.0
 40
14.0
 40
14.0
 40
15.0
 40
15.0
 40
15.0
 40
16.0
 40
16.0
 40
16.0
 40
17.0
 40
17.0
 40
17.0
 40
18.0
 40
18.0
 40
18.0
 40
19.0
 40
19.0
 40
19.0
 40
20.0
 40
20.0
 40
20.0
 40
21.0
 40
21.0
 40
21.0
 40
22.0
 40
22.0
 40
22.0
 40
23.0
 40
23.0
 40
23.0
 40
24.0
 40
24.0
 40
24.0
 40
25.0
 40
25.0
 40
25.0
 40
26.0
 40
26.0
 40
26.0
 40
27.0
 40
27.0
 40
27.0
 40
28.0
 40
28.0
 40
28.0
 40
29.0
 40
29.0
 40
29.0
 40
30.0
 40
30.0
 40
30.0
 40
31.0
 40
31.0
 40
31.0
 40
32.0
 40
32.0
 40
32.0
 40
33.0
 40
33.0
 40
33.0
 40
34.0
 40
34.0
 40
34.0
 40
35.0
 40
35.0
 40
35.0
 40
36.0
 40
36.0
 40
36.0
 40
37.0
 40
37.0
 40
37.0
 40
38.0
 40
38.0
 40
38.0
 40
39.0
 40
39.0
 40
39.0
 40
40.0
 40
40.0
 40
40.0
 40
41.0
 40
41.0
 40
41.0
 40
42.0
 40
42.0
 40
42.0
 40
43.0
 40
43.0
 40
43.0
 40
44.0
 40
44.0
 40
44.0
 40
45.0
 40
45.0
 40
45.0
 40
46.0
 40
46.0
 40
46.0
 40
47.0
 40
47.0
 40
47.0
 40
48.0
 40
48.0
 40
48.0
 40
49.0
 40
49.0
 40
49.0
 40
50.0
 40
50.0
 40
50.0
 40
51.0
 40
51.0
 40
51.0
 40
52.0
 40
52.0
 40
52.0
 40
53.0
 40
53.0
 40
53.0
 40
54.0
 40
54.0
 40
54.0
 40
55.0
 40
55.0
 40
55.0
 40
56.0
 40
56.0
 40
56.0
 40
57.0
 40
57.0
 40
57.0
 40
58.0
 40
58.0
 40
58.0
 40
59.0
 40
59.0
 40
59.0
 40
60.0
 40
60.0
 40
60.0
 40
61.0
 40
61.0
 40
61.0
 40
61.0
 10
167.3041720501878
 20
-56.39983044379935
 30
0.0
 10
167.3041720501878
 20
-56.52385388126834
 30
0.0
 10
167.2835014772763
 20
-56.65476750970784
 30
0.0
 10
167.2421603314533
 20
-56.79257132911783
 30
0.0
 10
167.2008191856303
 20
-56.93054740330208
 30
0.0
 10
167.147420205609
 20
-57.06817896793782
 30
0.0
 10
167.0819633913892
 20
-57.20598278734781
 30
0.0
 10
167.0165065771695
 20
-57.34395886153206
 30
0.0
 10
166.9424370242366
 20
-57.4815904261678
 30
0.0
 10
166.8597547325906
 20
-57.61939424557779
 30
0.0
 10
166.7770724409446
 20
-57.75737031976205
 30
0.0
 10
166.6909450538134
 20
-57.88466659794202
 30
0.0
 10
166.6013725711969
 20
-58.00179984444053
 30
0.0
 10
166.2017414949079
 20
-58.53923474013949
 30
0.0
 10
165.7728271069943
 20
-59.04411348350286
 30
0.0
 10
165.314629407456
 20
-59.51591931020782
 30
0.0
 10
164.8564317079178
 20
-59.98789739168706
 30
0.0
 10
164.396511460637
 20
-60.43059216154166
 30
0.0
 10
163.9348686656135
 20
-60.84400361977164
 30
0.0
 10
163.6868217906755
 20
-61.06466198560189
 30
0.0
 10
163.431884724767
 20
-61.26430526897213
 30
0.0
 10
163.170057467888
 20
-61.44345023420511
 30
0.0
 10
162.908230211009
 20
-61.62276745421237
 30
0.0
 10
162.6464029541301
 20
-61.77779675104861
 30
0.0
 10
162.3845756972511
 20
-61.90853812471384
 30
0.0
 10
162.1227484403721
 20
-62.03945175315333
 30
0.0
 10
161.8678113744636
 20
-62.13953177699984
 30
0.0
 10
161.6197644995256
 20
-62.20826143193058
 30
0.0
 10
161.3717176245876
 20
-62.27716334163557
 30
0.0
 10
161.1408962270759
 20
-62.31161429648807
 30
0.0
 10
160.9273003069904
 20
-62.31161429648807
 30
0.0
 10
160.6654730501114
 20
-62.31161429648807
 30
0.0
 10
160.4139810796882
 20
-62.22893200484207
 30
0.0
 10
160.1728243957207
 20
-62.06356742155008
 30
0.0
 10
159.9316677117532
 20
-61.8982028382581
 30
0.0
 10
159.7197943394103
 20
-61.68994681617474
 30
0.0
 10
159.5372042786921
 20
-61.43828259097723
 30
0.0
 10
159.3546142179738
 20
-61.186790620554
 30
0.0
 10
159.2099202075933
 20
-60.91635062496188
 30
0.0
 10
159.1031222475506
 20
-60.62696260420089
 30
0.0
 10
158.9963242875078
 20
-60.33757458343991
 30
0.0
 10
158.9429253074865
 20
-60.06885713559043
 30
0.0
 10
158.9429253074865
 20
-59.82081026065244
 30
0.0
 10
158.8602430158405
 20
-59.94483369812144
 30
0.0
 10
158.7396646738567
 20
-60.11019828141343
 30
0.0
 10
158.5811902815352
 20
-60.31690401052841
 30
0.0
 10
158.4227158892137
 20
-60.5236097396434
 30
0.0
 10
158.2573513059218
 20
-60.73393281901791
 30
0.0
 10
158.0850965316592
 20
-60.94735648432913
 30
0.0
 10
157.9128417573968
 20
-61.16095240441462
 30
0.0
 10
157.7526448173327
 20
-61.35560029933124
 30
0.0
 10
157.6045057114669
 20
-61.53130016907898
 30
0.0
 10
157.4563666056012
 20
-61.70700003882672
 30
0.0
 10
157.3512911933011
 20
-61.83274602403834
 30
0.0
 10
157.2892794745665
 20
-61.90853812471384
 30
0.0
 10
157.0687933635106
 20
-62.14280461771083
 30
0.0
 10
156.8138562976021
 20
-62.38396130167831
 30
0.0
 10
156.5244682768411
 20
-62.63200817661631
 30
0.0
 10
156.2350802560801
 20
-62.88005505155429
 30
0.0
 10
155.9474147830617
 20
-63.10398625809553
 30
0.0
 10
155.661471857786
 20
-63.30380179624002
 30
0.0
 10
155.3755289325103
 20
-63.50378958915878
 30
0.0
 10
155.1085340324034
 20
-63.66725936993388
 30
0.0
 10
154.8604871574654
 20
-63.79472790288812
 30
0.0
 10
154.6124402825274
 20
-63.92236869061663
 30
0.0
 10
154.4229600308387
 20
-63.9859307023195
 30
0.0
 10
154.2920464023992
 20
-63.9859307023195
 30
0.0
 10
153.9888779996972
 20
-63.9859307023195
 30
0.0
 10
153.696044883451
 20
-63.93787162030026
 30
0.0
 10
153.4135470536605
 20
-63.841236691939
 30
0.0
 10
153.13104922387
 20
-63.744774018352
 30
0.0
 10
152.8812798011894
 20
-63.60524765119938
 30
0.0
 10
152.6642387856186
 20
-63.42265759048114
 30
0.0
 10
152.4471977700479
 20
-63.24023978453716
 30
0.0
 10
152.2732204480428
 20
-63.01441377547903
 30
0.0
 10
152.1423068196033
 20
-62.74569632762955
 30
0.0
 10
152.0113931911638
 20
-62.47697887978006
 30
0.0
 10
151.945936376944
 20
-62.17053763636709
 30
0.0
 10
151.945936376944
 20
-61.82585583306784
 30
0.0
 10
151.945936376944
 20
-61.48840873028762
 30
0.0
 10
151.9924451659949
 20
-61.117888710849
 30
0.0
 10
152.0854627440967
 20
-60.71481253907477
 30
0.0
 10
152.1784803221984
 20
-60.31173636730054
 30
0.0
 10
152.3059488551526
 20
-59.89160697287432
 30
0.0
 10
152.4678683429594
 20
-59.45390759147333
 30
0.0
 10
152.6297878307661
 20
-59.0163804648466
 30
0.0
 10
152.8244357256828
 20
-58.57385794976625
 30
0.0
 10
153.0518120277092
 20
-58.12582328190952
 30
0.0
 10
153.2791883297357
 20
-57.67796086882704
 30
0.0
 10
153.5255126569311
 20
-57.24215628994294
 30
0.0
 10
153.7907850092953
 20
-56.8184095452572
 30
0.0
 10
154.0560573616596
 20
-56.39466280057147
 30
0.0
 10
154.3368326437074
 20
-55.99330917653986
 30
0.0
 10
154.6331108554389
 20
-55.61434867316239
 30
0.0
 10
154.9293890671704
 20
-55.23556042455917
 30
0.0
 10
155.2325574698724
 20
-54.89776881223042
 30
0.0
 10
155.5426160635449
 20
-54.60149060049893
 30
0.0
 10
156.0938313411849
 20
-54.07800834151522
 30
0.0
 10
156.6794975736773
 20
-53.69198539239298
 30
0.0
 10
157.2996147610223
 20
-53.44393851745499
 30
0.0
 10
157.9197319483673
 20
-53.195891642517
 30
0.0
 10
158.5605197086237
 20
-53.071868205048
 30
0.0
 10
159.2219780417917
 20
-53.071868205048
 30
0.0
 10
159.3942328160542
 20
-53.071868205048
 30
0.0
 10
159.5389268264347
 20
-53.09615612821902
 30
0.0
 10
159.6560600729332
 20
-53.14421521023825
 30
0.0
 10
159.7731933194317
 20
-53.19244654703175
 30
0.0
 10
159.8731010885039
 20
-53.25635306828313
 30
0.0
 10
159.9557833801499
 20
-53.33541800966962
 30
0.0
 10
160.0384656717959
 20
-53.41465520583036
 30
0.0
 10
160.1090901292435
 20
-53.50595023618948
 30
0.0
 10
160.1676567524928
 20
-53.60930310074699
 30
0.0
 10
160.226223375742
 20
-53.71265596530448
 30
0.0
 10
160.2796223557634
 20
-53.81600882986197
 30
0.0
 10
160.3278536925569
 20
-53.91936169441946
 30
0.0
 10
160.3623046474094
 20
-53.96759303121296
 30
0.0
 10
160.419148722916
 20
-54.03477239317534
 30
0.0
 10
160.4983859190768
 20
-54.12089978030658
 30
0.0
 10
160.5776231152375
 20
-54.20719942221209
 30
0.0
 10
160.6585828591409
 20
-54.3017672932822
 30
0.0
 10
160.7412651507869
 20
-54.40512015783969
 30
0.0
 10
160.8239474424329
 20
-54.50847302239719
 30
0.0
 10
160.8962944476231
 20
-54.61182588695468
 30
0.0
 10
160.9583061663576
 20
-54.71517875151217
 30
0.0
 10
161.0203178850921
 20
-54.81853161606967
 30
0.0
 10
161.0513237444594
 20
-54.91154919417142
 30
0.0
 10
161.0513237444594
 20
-54.99423148581741
 30
0.0
 10
161.0513237444594
 20
-55.13892549619791
 30
0.0
 10
161.0306531715479
 20
-55.29567734077677
 30
0.0
 10
160.9893120257249
 20
-55.46448701955402
 30
0.0
 10
160.9479708799019
 20
-55.63346895310552
 30
0.0
 10
160.9049071863363
 20
-55.82794459324787
 30
0.0
 10
160.860120945028
 20
-56.04843070430387
 30
0.0
 10
160.8153347037198
 20
-56.26908907013412
 30
0.0
 10
160.7722710101541
 20
-56.51868623804047
 30
0.0
 10
160.7309298643311
 20
-56.79773897234571
 30
0.0
 10
160.6895887185081
 20
-57.07679170665095
 30
0.0
 10
160.6689181455966
 20
-57.39890813452181
 30
0.0
 10
160.6689181455966
 20
-57.76408825595829
 30
0.0
 10
160.6689181455966
 20
-57.97079398507328
 30
0.0
 10
160.6844210752803
 20
-58.21212292381503
 30
0.0
 10
160.7154269346475
 20
-58.48755830786075
 30
0.0
 10
160.7464327940148
 20
-58.76316594668073
 30
0.0
 10
160.7929415830656
 20
-59.02154810807448
 30
0.0
 10
160.8549533018001
 20
-59.26270479204196
 30
0.0
 10
160.9169650205346
 20
-59.50403373078372
 30
0.0
 10
160.9944796689527
 20
-59.70884465738182
 30
0.0
 10
161.0874972470545
 20
-59.87765433615906
 30
0.0
 10
161.1805148251562
 20
-60.04663626971057
 30
0.0
 10
161.2855902374564
 20
-60.13086885432493
 30
0.0
 10
161.4027234839548
 20
-60.13086885432493
 30
0.0
 10
161.5474174943354
 20
-60.13086885432493
 30
0.0
 10
161.6766085750322
 20
-60.1153659246413
 30
0.0
 10
161.7902967260454
 20
-60.08436006527405
 30
0.0
 10
161.9039848770587
 20
-60.0533542059068
 30
0.0
 10
162.0125053848441
 20
-60.00856796459856
 30
0.0
 10
162.1158582494016
 20
-59.9500013413493
 30
0.0
 10
162.2192111139591
 20
-59.89160697287432
 30
0.0
 10
162.3242865262592
 20
-59.82081026065244
 30
0.0
 10
162.4310844863019
 20
-59.73812796900644
 30
0.0
 10
162.5378824463447
 20
-59.65544567736045
 30
0.0
 10
162.6601833360711
 20
-59.56604544951821
 30
0.0
 10
162.797987155481
 20
-59.46941052115695
 30
0.0
 10
163.225178995652
 20
-59.15935192748447
 30
0.0
 10
163.6540933835656
 20
-58.80123425179275
 30
0.0
 10
164.0847303192219
 20
-58.394540729759
 30
0.0
 10
164.5153672548781
 20
-57.98801946249952
 30
0.0
 10
164.9546169292474
 20
-57.57133516355856
 30
0.0
 10
165.4024793423299
 20
-57.14397106861332
 30
0.0
 10
165.5265027797989
 20
-57.02683782211482
 30
0.0
 10
165.6556938604958
 20
-56.89592419367532
 30
0.0
 10
165.7900525844205
 20
-56.75123018329483
 30
0.0
 10
165.9244113083453
 20
-56.60653617291433
 30
0.0
 10
166.0622151277553
 20
-56.47217744898959
 30
0.0
 10
166.2034640426505
 20
-56.3481540115206
 30
0.0
 10
166.3447129575457
 20
-56.22413057405161
 30
0.0
 10
166.4842393246984
 20
-56.12077770949412
 30
0.0
 10
166.6220431441083
 20
-56.03809541784812
 30
0.0
 10
166.7598469635184
 20
-55.95541312620213
 30
0.0
 10
166.8907605919578
 20
-55.91407198037912
 30
0.0
 10
167.0147840294268
 20
-55.91407198037912
 30
0.0
 10
167.2077093766008
 20
-55.91407198037912
 30
0.0
 10
167.3041720501878
 20
-56.07599146818587
 30
0.0
 10
167.3041720501878
 20
-56.39983044379935
 30
0.0
  0
SPLINE
  5
87
330
79
100
AcDbEntity
  8
Layer 1
 62
   250
420
  2301728
370
     9
100
AcDbSpline
210
0.0
220
0.0
230
1.0
 70
     9
 71
     3
 72
   359
 73
   355
 74
     0
 42
0.0000000001
 43
0.0000000001
 40
0.0
 40
0.0
 40
0.0
 40
0.0
 40
1.0
 40
1.0
 40
1.0
 40
2.0
 40
2.0
 40
2.0
 40
3.0
 40
3.0
 40
3.0
 40
4.0
 40
4.0
 40
4.0
 40
5.0
 40
5.0
 40
5.0
 40
6.0
 40
6.0
 40
6.0
 40
7.0
 40
7.0
 40
7.0
 40
8.0
 40
8.0
 40
8.0
 40
9.0
 40
9.0
 40
9.0
 40
10.0
 40
10.0
 40
10.0
 40
11.0
 40
11.0
 40
11.0
 40
12.0
 40
12.0
 40
12.0
 40
13.0
 40
13.0
 40
13.0
 40
14.0
 40
14.0
 40
14.0
 40
15.0
 40
15.0
 40
15.0
 40
16.0
 40
16.0
 40
16.0
 40
17.0
 40
17.0
 40
17.0
 40
18.0
 40
18.0
 40
18.0
 40
19.0
 40
19.0
 40
19.0
 40
20.0
 40
20.0
 40
20.0
 40
21.0
 40
21.0
 40
21.0
 40
22.0
 40
22.0
 40
22.0
 40
23.0
 40
23.0
 40
23.0
 40
24.0
 40
24.0
 40
24.0
 40
25.0
 40
25.0
 40
25.0
 40
26.0
 40
26.0
 40
26.0
 40
27.0
 40
27.0
 40
27.0
 40
28.0
 40
28.0
 40
28.0
 40
29.0
 40
29.0
 40
29.0
 40
30.0
 40
30.0
 40
30.0
 40
31.0
 40
31.0
 40
31.0
 40
32.0
 40
32.0
 40
32.0
 40
33.0
 40
33.0
 40
33.0
 40
34.0
 40
34.0
 40
34.0
 40
35.0
 40
35.0
 40
35.0
 40
36.0
 40
36.0
 40
36.0
 40
37.0
 40
37.0
 40
37.0
 40
38.0
 40
38.0
 40
38.0
 40
39.0
 40
39.0
 40
39.0
 40
40.0
 40
40.0
 40
40.0
 40
41.0
 40
41.0
 40
41.0
 40
42.0
 40
42.0
 40
42.0
 40
43.0
 40
43.0
 40
43.0
 40
44.0
 40
44.0
 40
44.0
 40
45.0
 40
45.0
 40
45.0
 40
46.0
 40
46.0
 40
46.0
 40
47.0
 40
47.0
 40
47.0
 40
48.0
 40
48.0
 40
48.0
 40
49.0
 40
49.0
 40
49.0
 40
50.0
 40
50.0
 40
50.0
 40
51.0
 40
51.0
 40
51.0
 40
52.0
 40
52.0
 40
52.0
 40
53.0
 40
53.0
 40
53.0
 40
54.0
 40
54.0
 40
54.0
 40
55.0
 40
55.0
 40
55.0
 40
56.0
 40
56.0
 40
56.0
 40
57.0
 40
57.0
 40
57.0
 40
58.0
 40
58.0
 40
58.0
 40
59.0
 40
59.0
 40
59.0
 40
60.0
 40
60.0
 40
60.0
 40
61.0
 40
61.0
 40
61.0
 40
62.0
 40
62.0
 40
62.0
 40
63.0
 40
63.0
 40
63.0
 40
64.0
 40
64.0
 40
64.0
 40
65.0
 40
65.0
 40
65.0
 40
66.0
 40
66.0
 40
66.0
 40
67.0
 40
67.0
 40
67.0
 40
68.0
 40
68.0
 40
68.0
 40
69.0
 40
69.0
 40
69.0
 40
70.0
 40
70.0
 40
70.0
 40
71.0
 40
71.0
 40
71.0
 40
72.0
 40
72.0
 40
72.0
 40
73.0
 40
73.0
 40
73.0
 40
74.0
 40
74.0
 40
74.0
 40
75.0
 40
75.0
 40
75.0
 40
76.0
 40
76.0
 40
76.0
 40
77.0
 40
77.0
 40
77.0
 40
78.0
 40
78.0
 40
78.0
 40
79.0
 40
79.0
 40
79.0
 40
80.0
 40
80.0
 40
80.0
 40
81.0
 40
81.0
 40
81.0
 40
82.0
 40
82.0
 40
82.0
 40
83.0
 40
83.0
 40
83.0
 40
84.0
 40
84.0
 40
84.0
 40
85.0
 40
85.0
 40
85.0
 40
86.0
 40
86.0
 40
86.0
 40
87.0
 40
87.0
 40
87.0
 40
88.0
 40
88.0
 40
88.0
 40
89.0
 40
89.0
 40
89.0
 40
90.0
 40
90.0
 40
90.0
 40
91.0
 40
91.0
 40
91.0
 40
92.0
 40
92.0
 40
92.0
 40
93.0
 40
93.0
 40
93.0
 40
94.0
 40
94.0
 40
94.0
 40
95.0
 40
95.0
 40
95.0
 40
96.0
 40
96.0
 40
96.0
 40
97.0
 40
97.0
 40
97.0
 40
98.0
 40
98.0
 40
98.0
 40
99.0
 40
99.0
 40
99.0
 40
100.0
 40
100.0
 40
100.0
 40
101.0
 40
101.0
 40
101.0
 40
102.0
 40
102.0
 40
102.0
 40
103.0
 40
103.0
 40
103.0
 40
104.0
 40
104.0
 40
104.0
 40
105.0
 40
105.0
 40
105.0
 40
106.0
 40
106.0
 40
106.0
 40
107.0
 40
107.0
 40
107.0
 40
108.0
 40
108.0
 40
108.0
 40
109.0
 40
109.0
 40
109.0
 40
110.0
 40
110.0
 40
110.0
 40
111.0
 40
111.0
 40
111.0
 40
112.0
 40
112.0
 40
112.0
 40
113.0
 40
113.0
 40
113.0
 40
114.0
 40
114.0
 40
114.0
 40
115.0
 40
115.0
 40
115.0
 40
116.0
 40
116.0
 40
116.0
 40
117.0
 40
117.0
 40
117.0
 40
118.0
 40
118.0
 40
118.0
 40
118.0
 10
188.7705620187796
 20
-57.40235323000705
 30
0.0
 10
188.7705620187796
 20
-57.46436494874155
 30
0.0
 10
188.755059089096
 20
-57.54549694741918
 30
0.0
 10
188.7240532297287
 20
-57.64523246171716
 30
0.0
 10
188.6930473703614
 20
-57.74514023078941
 30
0.0
 10
188.6534287722811
 20
-57.85193819083215
 30
0.0
 10
188.6051974354876
 20
-57.9656263418454
 30
0.0
 10
188.5569660986941
 20
-58.07931449285864
 30
0.0
 10
188.5001220231875
 20
-58.19472519161451
 30
0.0
 10
188.4346652089677
 20
-58.31185843811301
 30
0.0
 10
188.369208394748
 20
-58.42916393938576
 30
0.0
 10
188.3054741282709
 20
-58.53923474013949
 30
0.0
 10
188.2434624095363
 20
-58.64258760469699
 30
0.0
 10
188.1332193540083
 20
-58.81484237895949
 30
0.0
 10
187.9850802481426
 20
-59.01465791710397
 30
0.0
 10
187.7990450919391
 20
-59.24203421913047
 30
0.0
 10
187.6130099357356
 20
-59.46941052115695
 30
0.0
 10
187.4063042066206
 20
-59.70712210963919
 30
0.0
 10
187.1789279045941
 20
-59.95516898457719
 30
0.0
 10
186.9515516025677
 20
-60.20321585951517
 30
0.0
 10
186.7103949186002
 20
-60.45126273445315
 30
0.0
 10
186.4554578526917
 20
-60.69930960939115
 30
0.0
 10
186.2005207867832
 20
-60.94735648432913
 30
0.0
 10
185.9490288163599
 20
-61.17835013661514
 30
0.0
 10
185.700981941422
 20
-61.39177380192636
 30
0.0
 10
185.5011664032775
 20
-61.55713838521836
 30
0.0
 10
185.2668999102805
 20
-61.73972844593659
 30
0.0
 10
184.998182462431
 20
-61.93954398408109
 30
0.0
 10
184.7294650145815
 20
-62.13953177699984
 30
0.0
 10
184.4435220893058
 20
-62.32556693320333
 30
0.0
 10
184.1403536866038
 20
-62.49764945269156
 30
0.0
 10
183.8371852839018
 20
-62.66990422695405
 30
0.0
 10
183.5288492379719
 20
-62.81287568959192
 30
0.0
 10
183.2153455488142
 20
-62.92656384060517
 30
0.0
 10
182.9018418596565
 20
-63.04025199161841
 30
0.0
 10
182.6003960046971
 20
-63.09709606712504
 30
0.0
 10
182.3110079839361
 20
-63.09709606712504
 30
0.0
 10
182.0422905360866
 20
-63.09709606712504
 30
0.0
 10
181.7821858269503
 20
-63.04386934187792
 30
0.0
 10
181.530693856527
 20
-62.93689912706092
 30
0.0
 10
181.2792018861038
 20
-62.83010116701817
 30
0.0
 10
181.0449353931068
 20
-62.62856308113105
 30
0.0
 10
180.8278943775361
 20
-62.33228486939957
 30
0.0
 10
180.6108533619653
 20
-62.03617891244235
 30
0.0
 10
180.4196505625339
 20
-61.62276745421237
 30
0.0
 10
180.254285979242
 20
-61.09205049470963
 30
0.0
 10
180.08892139595
 20
-60.56150578998115
 30
0.0
 10
179.9580077675105
 20
-59.87248669293119
 30
0.0
 10
179.8615450939235
 20
-59.02499320355972
 30
0.0
 10
179.854654902953
 20
-58.94231091191373
 30
0.0
 10
179.8460421642399
 20
-58.81311983121686
 30
0.0
 10
179.8357068777841
 20
-58.63741996146912
 30
0.0
 10
179.8253715913284
 20
-58.46172009172137
 30
0.0
 10
179.8150363048726
 20
-58.28602022197364
 30
0.0
 10
179.8047010184169
 20
-58.1103203522259
 30
0.0
 10
179.7943657319611
 20
-57.93462048247815
 30
0.0
 10
179.7823078977627
 20
-57.78131373338453
 30
0.0
 10
179.7685275158217
 20
-57.65040010494504
 30
0.0
 10
179.7547471338807
 20
-57.51965873127981
 30
0.0
 10
179.7409667519398
 20
-57.4540296622858
 30
0.0
 10
179.7271863699988
 20
-57.4540296622858
 30
0.0
 10
179.6720648422347
 20
-57.4540296622858
 30
0.0
 10
179.5807698118756
 20
-57.5367119539318
 30
0.0
 10
179.4533012789214
 20
-57.70207653722379
 30
0.0
 10
179.3258327459671
 20
-57.86744112051578
 30
0.0
 10
179.1742485446162
 20
-58.08620468382915
 30
0.0
 10
178.9985486748684
 20
-58.35836722716388
 30
0.0
 10
178.8228488051207
 20
-58.63070202527288
 30
0.0
 10
178.6316460056893
 20
-58.94403345965635
 30
0.0
 10
178.4249402765743
 20
-59.29887829463709
 30
0.0
 10
178.2182345474593
 20
-59.65389538439208
 30
0.0
 10
178.0046386273738
 20
-60.02079805357119
 30
0.0
 10
177.7841525163178
 20
-60.39958630217441
 30
0.0
 10
177.5085448774978
 20
-60.88189967010939
 30
0.0
 10
177.2484401683615
 20
-61.31425915350824
 30
0.0
 10
177.0038383889088
 20
-61.69666475237097
 30
0.0
 10
176.759236609456
 20
-62.07907035123371
 30
0.0
 10
176.5284152119443
 20
-62.39946423136194
 30
0.0
 10
176.3113741963735
 20
-62.65784639275568
 30
0.0
 10
176.0943331808028
 20
-62.91622855414942
 30
0.0
 10
175.8841823562026
 20
-63.11432154455128
 30
0.0
 10
175.6809217225728
 20
-63.25212536396128
 30
0.0
 10
175.4776610889431
 20
-63.39010143814554
 30
0.0
 10
175.2726779075707
 20
-63.45883109307627
 30
0.0
 10
175.0659721784557
 20
-63.45883109307627
 30
0.0
 10
174.7490233938127
 20
-63.45883109307627
 30
0.0
 10
174.490641232419
 20
-63.3985419220844
 30
0.0
 10
174.2908256942745
 20
-63.27796358010065
 30
0.0
 10
174.09101015613
 20
-63.15755749289117
 30
0.0
 10
173.9325357638085
 20
-62.97152233668768
 30
0.0
 10
173.81540251731
 20
-62.71985811149018
 30
0.0
 10
173.6982692708115
 20
-62.46836614106694
 30
0.0
 10
173.6155869791655
 20
-62.14469942022772
 30
0.0
 10
173.567355642372
 20
-61.74834118464972
 30
0.0
 10
173.5191243055785
 20
-61.35215520384599
 30
0.0
 10
173.4881184462113
 20
-60.88189967010939
 30
0.0
 10
173.4743380642703
 20
-60.33757458343991
 30
0.0
 10
173.4536674913588
 20
-59.42806937533395
 30
0.0
 10
173.4243841797342
 20
-58.71855196014675
 30
0.0
 10
173.3864881293964
 20
-58.20850557355552
 30
0.0
 10
173.3485920790587
 20
-57.69863144173854
 30
0.0
 10
173.2951930990373
 20
-57.44369437583005
 30
0.0
 10
173.2262911893323
 20
-57.44369437583005
 30
0.0
 10
173.1436088976863
 20
-57.44369437583005
 30
0.0
 10
173.0058050782763
 20
-57.55066459064706
 30
0.0
 10
172.8128797311023
 20
-57.76408825595829
 30
0.0
 10
172.6199543839283
 20
-57.97768417604377
 30
0.0
 10
172.3908555341592
 20
-58.27051729229001
 30
0.0
 10
172.125583181795
 20
-58.64258760469699
 30
0.0
 10
171.8603108294308
 20
-59.01465791710397
 30
0.0
 10
171.5709228086697
 20
-59.45235729850497
 30
0.0
 10
171.257419119512
 20
-59.95516898457719
 30
0.0
 10
170.9439154303543
 20
-60.45815292542366
 30
0.0
 10
170.6217990024834
 20
-60.99903291660788
 30
0.0
 10
170.2910698358994
 20
-61.57780895812986
 30
0.0
 10
170.2083875442534
 20
-61.72939315948084
 30
0.0
 10
170.1084797751812
 20
-61.90509302922858
 30
0.0
 10
169.9913465286827
 20
-62.10490856737308
 30
0.0
 10
169.8742132821842
 20
-62.30489636029183
 30
0.0
 10
169.7536349402005
 20
-62.50798473914731
 30
0.0
 10
169.6296115027315
 20
-62.7146904682623
 30
0.0
 10
169.5055880652625
 20
-62.92139619737729
 30
0.0
 10
169.3832871755361
 20
-63.12138399029604
 30
0.0
 10
169.2627088335524
 20
-63.31413708269577
 30
0.0
 10
169.1421304915686
 20
-63.50706242986976
 30
0.0
 10
169.0336099837832
 20
-63.67242701316175
 30
0.0
 10
168.9371473101963
 20
-63.81023083257175
 30
0.0
 10
168.8131238727273
 20
-63.98954805257901
 30
0.0
 10
168.6615396713763
 20
-64.1254570694721
 30
0.0
 10
168.4823947061433
 20
-64.21847464757385
 30
0.0
 10
168.3032497409103
 20
-64.31149222567561
 30
0.0
 10
168.1137694892215
 20
-64.35800101472647
 30
0.0
 10
167.9139539510771
 20
-64.35800101472647
 30
0.0
 10
167.6314561212866
 20
-64.35800101472647
 30
0.0
 10
167.3902994373191
 20
-64.29771184373461
 30
0.0
 10
167.1904838991746
 20
-64.17713350175086
 30
0.0
 10
166.9906683610301
 20
-64.05672741454137
 30
0.0
 10
166.8287488732234
 20
-63.89291312421775
 30
0.0
 10
166.7047254357543
 20
-63.68620739510276
 30
0.0
 10
166.5807019982854
 20
-63.47950166598777
 30
0.0
 10
166.4894069679262
 20
-63.23507214130929
 30
0.0
 10
166.430840344677
 20
-62.95240205674454
 30
0.0
 10
166.3722737214277
 20
-62.66990422695405
 30
0.0
 10
166.3429904098031
 20
-62.37018091973732
 30
0.0
 10
166.3429904098031
 20
-62.05323213509434
 30
0.0
 10
166.3429904098031
 20
-61.77073430530384
 30
0.0
 10
166.3498806007736
 20
-61.51579723939536
 30
0.0
 10
166.3636609827146
 20
-61.28842093736887
 30
0.0
 10
166.3774413646556
 20
-61.06104463534238
 30
0.0
 10
166.3981119375671
 20
-60.83211804034753
 30
0.0
 10
166.4256727014491
 20
-60.60112438806153
 30
0.0
 10
166.4532334653311
 20
-60.37030299054979
 30
0.0
 10
166.485961872441
 20
-60.12742375883967
 30
0.0
 10
166.5238579227787
 20
-59.87248669293119
 30
0.0
 10
166.5617539731165
 20
-59.61772188179696
 30
0.0
 10
166.6048176666821
 20
-59.32471651077646
 30
0.0
 10
166.6530490034756
 20
-58.99398734419247
 30
0.0
 10
166.6943901492986
 20
-58.70459932343149
 30
0.0
 10
166.7253960086659
 20
-58.39970837298688
 30
0.0
 10
166.7460665815774
 20
-58.07931449285864
 30
0.0
 10
166.7667371544889
 20
-57.75892061273041
 30
0.0
 10
166.7874077274003
 20
-57.44541692357268
 30
0.0
 10
166.8080783003119
 20
-57.13880342538544
 30
0.0
 10
166.8287488732234
 20
-56.83236218197247
 30
0.0
 10
166.8528645416201
 20
-56.54814180443935
 30
0.0
 10
166.8804253055021
 20
-56.2861422927861
 30
0.0
 10
166.9079860693841
 20
-56.02431503590711
 30
0.0
 10
166.9458821197218
 20
-55.80727402033637
 30
0.0
 10
166.9941134565154
 20
-55.63501924607389
 30
0.0
 10
167.0285644113678
 20
-55.51788599957539
 30
0.0
 10
167.0733506526761
 20
-55.39214001436377
 30
0.0
 10
167.1284721804401
 20
-55.25778129043903
 30
0.0
 10
167.1835937082041
 20
-55.12342256651429
 30
0.0
 10
167.2628309043648
 20
-54.9993991290453
 30
0.0
 10
167.3661837689223
 20
-54.88571097803204
 30
0.0
 10
167.4695366334798
 20
-54.7720228270188
 30
0.0
 10
167.6004502619193
 20
-54.67556015343181
 30
0.0
 10
167.7589246542408
 20
-54.59632295727106
 30
0.0
 10
167.9173990465623
 20
-54.51725801588458
 30
0.0
 10
168.1137694892215
 20
-54.47746716302994
 30
0.0
 10
168.3480359822185
 20
-54.47746716302994
 30
0.0
 10
168.561631902304
 20
-54.47746716302994
 30
0.0
 10
168.7338866765665
 20
-54.51725801588458
 30
0.0
 10
168.864800305006
 20
-54.59632295727106
 30
0.0
 10
168.9957139334455
 20
-54.67556015343181
 30
0.0
 10
169.0956217025177
 20
-54.78235811347455
 30
0.0
 10
169.1645236122227
 20
-54.91671683739929
 30
0.0
 10
169.2334255219277
 20
-55.05107556132404
 30
0.0
 10
169.2799343109786
 20
-55.20610485816028
 30
0.0
 10
169.3040499793753
 20
-55.38180472790802
 30
0.0
 10
169.3281656477721
 20
-55.55750459765576
 30
0.0
 10
169.3402234819705
 20
-55.74198946089089
 30
0.0
 10
169.3402234819705
 20
-55.93474255329063
 30
0.0
 10
169.3402234819705
 20
-56.10010713658262
 30
0.0
 10
169.3178303613164
 20
-56.32403834312385
 30
0.0
 10
169.2730441200081
 20
-56.60653617291433
 30
0.0
 10
169.2282578786999
 20
-56.88920625747909
 30
0.0
 10
169.1731363509359
 20
-57.20081514411994
 30
0.0
 10
169.1076795367161
 20
-57.54187959715967
 30
0.0
 10
169.0422227224964
 20
-57.8829440501994
 30
0.0
 10
168.9681531695635
 20
-58.2379611399544
 30
0.0
 10
168.8854708779175
 20
-58.60641410210187
 30
0.0
 10
168.8027885862715
 20
-58.9750393190236
 30
0.0
 10
168.7252739378534
 20
-59.32833386103597
 30
0.0
 10
168.6529269326632
 20
-59.6657809638162
 30
0.0
 10
168.5805799274729
 20
-60.00340032137068
 30
0.0
 10
168.5168456609958
 20
-60.30829127181529
 30
0.0
 10
168.4617241332318
 20
-60.58045381515003
 30
0.0
 10
168.4066026054678
 20
-60.85278861325903
 30
0.0
 10
168.36870655513
 20
-61.06466198560189
 30
0.0
 10
168.3480359822185
 20
-61.21607393217862
 30
0.0
 10
168.3618163641595
 20
-61.18868542307088
 30
0.0
 10
168.4014349622399
 20
-61.11961125859163
 30
0.0
 10
168.4668917764597
 20
-61.00936820306363
 30
0.0
 10
168.5323485906794
 20
-60.89929740230989
 30
0.0
 10
168.6115857868402
 20
-60.76493867838515
 30
0.0
 10
168.7046033649419
 20
-60.60629203128939
 30
0.0
 10
168.7976209430436
 20
-60.44781763896791
 30
0.0
 10
168.8958061643733
 20
-60.27918021496493
 30
0.0
 10
168.9991590289307
 20
-60.09986299495768
 30
0.0
 10
169.1025118934883
 20
-59.92071802972468
 30
0.0
 10
169.2006971148179
 20
-59.7520806057217
 30
0.0
 10
169.2937146929196
 20
-59.59343395862595
 30
0.0
 10
169.3867322710213
 20
-59.43495956630446
 30
0.0
 10
169.4676920149247
 20
-59.29732800166872
 30
0.0
 10
169.5365939246297
 20
-59.18002250039597
 30
0.0
 10
169.6054958343347
 20
-59.06288925389747
 30
0.0
 10
169.6468369801577
 20
-58.99054224870723
 30
0.0
 10
169.6606173620987
 20
-58.96298148482522
 30
0.0
 10
169.7846407995677
 20
-58.75627575571024
 30
0.0
 10
169.9293348099482
 20
-58.52373181045588
 30
0.0
 10
170.0946993932402
 20
-58.26534964906214
 30
0.0
 10
170.2600639765322
 20
-58.00696748766839
 30
0.0
 10
170.4323187507947
 20
-57.74514023078941
 30
0.0
 10
170.6114637160277
 20
-57.47986787842517
 30
0.0
 10
170.7906086812607
 20
-57.2147677808352
 30
0.0
 10
170.968031098751
 20
-56.96155326266933
 30
0.0
 10
171.1437309684988
 20
-56.72022432392759
 30
0.0
 10
171.3194308382465
 20
-56.4790676399601
 30
0.0
 10
171.4796277783106
 20
-56.27580700633036
 30
0.0
 10
171.6243217886911
 20
-56.11044242303837
 30
0.0
 10
171.9343803823636
 20
-55.75904268354288
 30
0.0
 10
172.263387001205
 20
-55.49394258595291
 30
0.0
 10
172.6113416452152
 20
-55.31462536594565
 30
0.0
 10
172.9592962892254
 20
-55.13548040071266
 30
0.0
 10
173.3296440538898
 20
-55.04590791809616
 30
0.0
 10
173.7223849392083
 20
-55.04590791809616
 30
0.0
 10
174.1426865884088
 20
-55.04590791809616
 30
0.0
 10
174.4940863279042
 20
-55.19060192847666
 30
0.0
 10
174.7765841576947
 20
-55.47998994923764
 30
0.0
 10
175.0590819874852
 20
-55.76937796999863
 30
0.0
 10
175.248562239174
 20
-56.14833847337611
 30
0.0
 10
175.345024912761
 20
-56.61687145937008
 30
0.0
 10
175.3794758676135
 20
-56.78912623363258
 30
0.0
 10
175.4070366314954
 20
-57.00616724920332
 30
0.0
 10
175.4277072044069
 20
-57.26799450608231
 30
0.0
 10
175.4483777773184
 20
-57.52999401773556
 30
0.0
 10
175.4638807070021
 20
-57.80387910881292
 30
0.0
 10
175.4742159934578
 20
-58.08964977931439
 30
0.0
 10
175.4845512799136
 20
-58.37559270459014
 30
0.0
 10
175.4931640186267
 20
-58.66325817760849
 30
0.0
 10
175.5000542095972
 20
-58.95264619836948
 30
0.0
 10
175.5069444005677
 20
-59.24203421913047
 30
0.0
 10
175.5121120437955
 20
-59.50041638052421
 30
0.0
 10
175.5155571392808
 20
-59.72779268255069
 30
0.0
 10
175.5190022347661
 20
-59.95516898457719
 30
0.0
 10
175.5241698779939
 20
-60.14120414078067
 30
0.0
 10
175.5310600689645
 20
-60.28589815116117
 30
0.0
 10
175.5379502599349
 20
-60.43059216154166
 30
0.0
 10
175.5517306418759
 20
-60.5029391667319
 30
0.0
 10
175.5724012147874
 20
-60.5029391667319
 30
0.0
 10
175.6344129335219
 20
-60.5029391667319
 30
0.0
 10
175.7239854161384
 20
-60.41681177960066
 30
0.0
 10
175.8411186626369
 20
-60.24455700533817
 30
0.0
 10
175.9582519091354
 20
-60.07247448584994
 30
0.0
 10
176.0891655375749
 20
-59.8554334702792
 30
0.0
 10
176.2338595479554
 20
-59.59343395862595
 30
0.0
 10
176.3785535583359
 20
-59.33160670174697
 30
0.0
 10
176.5301377596869
 20
-59.04928112673074
 30
0.0
 10
176.6886121520084
 20
-58.74594046925449
 30
0.0
 10
176.8470865443299
 20
-58.44277206655251
 30
0.0
 10
176.9986707456809
 20
-58.16371933224727
 30
0.0
 10
177.1433647560614
 20
-57.90878226633878
 30
0.0
 10
177.3845214400289
 20
-57.5022609990793
 30
0.0
 10
177.6394585059373
 20
-57.1114149162777
 30
0.0
 10
177.9081759537868
 20
-56.73572725361121
 30
0.0
 10
178.1768934016363
 20
-56.36021184571898
 30
0.0
 10
178.4438883017432
 20
-56.02948267913499
 30
0.0
 10
178.7091606541074
 20
-55.74353975385926
 30
0.0
 10
178.9744330064717
 20
-55.45776908335778
 30
0.0
 10
179.2276475246375
 20
-55.23039278133129
 30
0.0
 10
179.468804208605
 20
-55.06141084777979
 30
0.0
 10
179.7099608925725
 20
-54.89260116900254
 30
0.0
 10
179.923556812658
 20
-54.80819632961392
 30
0.0
 10
180.1095919688615
 20
-54.80819632961392
 30
0.0
 10
180.240505597301
 20
-54.80819632961392
 30
0.0
 10
180.3748643212257
 20
-54.82214896632918
 30
0.0
 10
180.5126681406357
 20
-54.84953747543692
 30
0.0
 10
180.6504719600457
 20
-54.87709823931893
 30
0.0
 10
180.7831081362278
 20
-54.91671683739929
 30
0.0
 10
180.9105766691821
 20
-54.96839326967805
 30
0.0
 10
181.0380452021363
 20
-55.02006970195679
 30
0.0
 10
181.1534559008922
 20
-55.08208142069129
 30
0.0
 10
181.2568087654497
 20
-55.15442842588154
 30
0.0
 10
181.3601616300072
 20
-55.22677543107178
 30
0.0
 10
181.4393988261679
 20
-55.30790742974941
 30
0.0
 10
181.4945203539319
 20
-55.39730765759165
 30
0.0
 10
181.6116536004304
 20
-55.58334281379514
 30
0.0
 10
181.6977809875617
 20
-55.78660344742488
 30
0.0
 10
181.7529025153256
 20
-56.00708955848087
 30
0.0
 10
181.8080240430896
 20
-56.22774792431112
 30
0.0
 10
181.84764264117
 20
-56.47217744898959
 30
0.0
 10
181.8717583095668
 20
-56.74089489683908
 30
0.0
 10
181.8958739779635
 20
-57.00961234468857
 30
0.0
 10
181.9130994553898
 20
-57.30589055642006
 30
0.0
 10
181.9234347418455
 20
-57.62972953203354
 30
0.0
 10
181.9337700283013
 20
-57.95374076242129
 30
0.0
 10
181.9596082444406
 20
-58.31185843811301
 30
0.0
 10
182.0009493902636
 20
-58.70459932343149
 30
0.0
 10
182.0767414909391
 20
-59.42135143913772
 30
0.0
 10
182.1869845464671
 20
-59.98272974845917
 30
0.0
 10
182.3316785568476
 20
-60.38925101571866
 30
0.0
 10
182.4763725672281
 20
-60.7959445377524
 30
0.0
 10
182.6830782963431
 20
-60.99903291660788
 30
0.0
 10
182.9517957441926
 20
-60.99903291660788
 30
0.0
 10
183.0689289906911
 20
-60.99903291660788
 30
0.0
 10
183.2222357397847
 20
-60.95614147781653
 30
0.0
 10
183.4117159914734
 20
-60.86984183591102
 30
0.0
 10
183.6011962431622
 20
-60.78371444877976
 30
0.0
 10
183.8079019722772
 20
-60.67347139325177
 30
0.0
 10
184.0318331788184
 20
-60.53911266932703
 30
0.0
 10
184.2557643853596
 20
-60.40475394540228
 30
0.0
 10
184.4865857828714
 20
-60.25489229179392
 30
0.0
 10
184.7242973713536
 20
-60.08952770850193
 30
0.0
 10
184.9620089598358
 20
-59.92416312520994
 30
0.0
 10
185.1842176186345
 20
-59.75879854191794
 30
0.0
 10
185.3909233477495
 20
-59.59343395862595
 30
0.0
 10
185.618299649776
 20
-59.41428899339296
 30
0.0
 10
185.8353406653467
 20
-59.23014863970635
 30
0.0
 10
186.0420463944617
 20
-59.04049613324335
 30
0.0
 10
186.2487521235767
 20
-58.8510158815546
 30
0.0
 10
186.4537353049491
 20
-58.65654024141226
 30
0.0
 10
186.6569959385788
 20
-58.4565524484935
 30
0.0
 10
186.8602565722085
 20
-58.25673691034901
 30
0.0
 10
187.0669623013235
 20
-58.04830863349139
 30
0.0
 10
187.2771131259238
 20
-57.83126761792066
 30
0.0
 10
187.487263950524
 20
-57.61422660234991
 30
0.0
 10
187.7094726093226
 20
-57.38530000735506
 30
0.0
 10
187.9437391023196
 20
-57.14397106861332
 30
0.0
 10
188.0884331127001
 20
-56.99927705823282
 30
0.0
 10
188.2537976959921
 20
-56.92693005304257
 30
0.0
 10
188.4398328521956
 20
-56.92693005304257
 30
0.0
 10
188.6603189632516
 20
-56.92693005304257
 30
0.0
 10
188.7705620187796
 20
-57.08557670013833
 30
0.0
 10
188.7705620187796
 20
-57.40235323000705
 30
0.0
  0
SPLINE
  5
88
330
79
100
AcDbEntity
  8
Layer 1
 62
   250
420
  2301728
370
     9
100
AcDbSpline
210
0.0
220
0.0
230
1.0
 70
     9
 71
     3
 72
    65
 73
    61
 74
     0
 42
0.0000000001
 43
0.0000000001
 40
0.0
 40
0.0
 40
0.0
 40
0.0
 40
1.0
 40
1.0
 40
1.0
 40
2.0
 40
2.0
 40
2.0
 40
3.0
 40
3.0
 40
3.0
 40
4.0
 40
4.0
 40
4.0
 40
5.0
 40
5.0
 40
5.0
 40
6.0
 40
6.0
 40
6.0
 40
7.0
 40
7.0
 40
7.0
 40
8.0
 40
8.0
 40
8.0
 40
9.0
 40
9.0
 40
9.0
 40
10.0
 40
10.0
 40
10.0
 40
11.0
 40
11.0
 40
11.0
 40
12.0
 40
12.0
 40
12.0
 40
13.0
 40
13.0
 40
13.0
 40
14.0
 40
14.0
 40
14.0
 40
15.0
 40
15.0
 40
15.0
 40
16.0
 40
16.0
 40
16.0
 40
17.0
 40
17.0
 40
17.0
 40
18.0
 40
18.0
 40
18.0
 40
19.0
 40
19.0
 40
19.0
 40
20.0
 40
20.0
 40
20.0
 40
20.0
 10
193.3904350644996
 20
-56.55485974063559
 30
0.0
 10
193.3904350644996
 20
-56.49284802190109
 30
0.0
 10
193.3783772303012
 20
-56.42050101671085
 30
0.0
 10
193.3542615619045
 20
-56.33781872506485
 30
0.0
 10
193.3301458935077
 20
-56.25513643341886
 30
0.0
 10
193.2991400341405
 20
-56.17762178500074
 30
0.0
 10
193.2612439838027
 20
-56.10527477981048
 30
0.0
 10
193.223347933465
 20
-56.03292777462024
 30
0.0
 10
193.1802842398994
 20
-55.97091605588574
 30
0.0
 10
193.1320529031059
 20
-55.91923962360699
 30
0.0
 10
193.0838215663124
 20
-55.86756319132825
 30
0.0
 10
193.0390353250041
 20
-55.84172497518888
 30
0.0
 10
192.9976941791811
 20
-55.84172497518888
 30
0.0
 10
192.5429415751281
 20
-55.84172497518888
 30
0.0
 10
192.1278075691555
 20
-55.9641981196895
 30
0.0
 10
191.7522921612633
 20
-56.20862764436798
 30
0.0
 10
191.3767767533711
 20
-56.45322942382072
 30
0.0
 10
190.9857584157952
 20
-56.78585339292159
 30
0.0
 10
190.5792371485357
 20
-57.20598278734781
 30
0.0
 10
190.3518608465092
 20
-57.4333590893743
 30
0.0
 10
190.1089816147991
 20
-57.73997258756153
 30
0.0
 10
189.8505994534054
 20
-58.12582328190952
 30
0.0
 10
189.5922172920116
 20
-58.51184623103176
 30
0.0
 10
189.3527831557868
 20
-58.92164033900223
 30
0.0
 10
189.1322970447308
 20
-59.35572237014371
 30
0.0
 10
188.9118109336748
 20
-59.78980440128519
 30
0.0
 10
188.7292208729566
 20
-60.22388643242667
 30
0.0
 10
188.5845268625761
 20
-60.65796846356815
 30
0.0
 10
188.4398328521956
 20
-61.09205049470963
 30
0.0
 10
188.3674858470053
 20
-61.47445609357236
 30
0.0
 10
188.3674858470053
 20
-61.80518526015634
 30
0.0
 10
188.3674858470053
 20
-61.88786755180235
 30
0.0
 10
188.3726534902332
 20
-61.96899955047998
 30
0.0
 10
188.382988776689
 20
-62.04806449186646
 30
0.0
 10
188.3933240631447
 20
-62.1273016880272
 30
0.0
 10
188.4139946360562
 20
-62.19792614547483
 30
0.0
 10
188.4450004954235
 20
-62.25993786420932
 30
0.0
 10
188.4760063547907
 20
-62.32194958294382
 30
0.0
 10
188.5190700483563
 20
-62.37362601522256
 30
0.0
 10
188.5741915761203
 20
-62.41496716104556
 30
0.0
 10
188.6293131038843
 20
-62.45630830686856
 30
0.0
 10
188.7016601090746
 20
-62.47697887978006
 30
0.0
 10
188.7912325916911
 20
-62.47697887978006
 30
0.0
 10
189.0530598485701
 20
-62.47697887978006
 30
0.0
 10
189.3493380603015
 20
-62.39274629516571
 30
0.0
 10
189.6800672268855
 20
-62.2237643616142
 30
0.0
 10
190.0107963934695
 20
-62.05495468283696
 30
0.0
 10
190.3432481077961
 20
-61.83464082655523
 30
0.0
 10
190.6774223698653
 20
-61.56230602844622
 30
0.0
 10
191.0115966319346
 20
-61.29014348511149
 30
0.0
 10
191.3354356075481
 20
-60.97681205072802
 30
0.0
 10
191.6489392967058
 20
-60.62179496097303
 30
0.0
 10
191.9624429858635
 20
-60.2669501259923
 30
0.0
 10
192.2259927904852
 20
-59.90349255229844
 30
0.0
 10
192.4395887105706
 20
-59.53142223989146
 30
0.0
 10
192.7014159674497
 20
-59.07666963583847
 30
0.0
 10
192.9253471739909
 20
-58.60124645887399
 30
0.0
 10
193.1113823301943
 20
-58.10515270899802
 30
0.0
 10
193.2974174863979
 20
-57.60905895912205
 30
0.0
 10
193.3904350644996
 20
-57.09229463633456
 30
0.0
 10
193.3904350644996
 20
-56.55485974063559
 30
0.0
  0
SPLINE
  5
89
330
79
100
AcDbEntity
  8
Layer 1
 62
   250
420
  2301728
370
     9
100
AcDbSpline
210
0.0
220
0.0
230
1.0
 70
     9
 71
     3
 72
   191
 73
   187
 74
     0
 42
0.0000000001
 43
0.0000000001
 40
0.0
 40
0.0
 40
0.0
 40
0.0
 40
1.0
 40
1.0
 40
1.0
 40
2.0
 40
2.0
 40
2.0
 40
3.0
 40
3.0
 40
3.0
 40
4.0
 40
4.0
 40
4.0
 40
5.0
 40
5.0
 40
5.0
 40
6.0
 40
6.0
 40
6.0
 40
7.0
 40
7.0
 40
7.0
 40
8.0
 40
8.0
 40
8.0
 40
9.0
 40
9.0
 40
9.0
 40
10.0
 40
10.0
 40
10.0
 40
11.0
 40
11.0
 40
11.0
 40
12.0
 40
12.0
 40
12.0
 40
13.0
 40
13.0
 40
13.0
 40
14.0
 40
14.0
 40
14.0
 40
15.0
 40
15.0
 40
15.0
 40
16.0
 40
16.0
 40
16.0
 40
17.0
 40
17.0
 40
17.0
 40
18.0
 40
18.0
 40
18.0
 40
19.0
 40
19.0
 40
19.0
 40
20.0
 40
20.0
 40
20.0
 40
21.0
 40
21.0
 40
21.0
 40
22.0
 40
22.0
 40
22.0
 40
23.0
 40
23.0
 40
23.0
 40
24.0
 40
24.0
 40
24.0
 40
25.0
 40
25.0
 40
25.0
 40
26.0
 40
26.0
 40
26.0
 40
27.0
 40
27.0
 40
27.0
 40
28.0
 40
28.0
 40
28.0
 40
29.0
 40
29.0
 40
29.0
 40
30.0
 40
30.0
 40
30.0
 40
31.0
 40
31.0
 40
31.0
 40
32.0
 40
32.0
 40
32.0
 40
33.0
 40
33.0
 40
33.0
 40
34.0
 40
34.0
 40
34.0
 40
35.0
 40
35.0
 40
35.0
 40
36.0
 40
36.0
 40
36.0
 40
37.0
 40
37.0
 40
37.0
 40
38.0
 40
38.0
 40
38.0
 40
39.0
 40
39.0
 40
39.0
 40
40.0
 40
40.0
 40
40.0
 40
41.0
 40
41.0
 40
41.0
 40
42.0
 40
42.0
 40
42.0
 40
43.0
 40
43.0
 40
43.0
 40
44.0
 40
44.0
 40
44.0
 40
45.0
 40
45.0
 40
45.0
 40
46.0
 40
46.0
 40
46.0
 40
47.0
 40
47.0
 40
47.0
 40
48.0
 40
48.0
 40
48.0
 40
49.0
 40
49.0
 40
49.0
 40
50.0
 40
50.0
 40
50.0
 40
51.0
 40
51.0
 40
51.0
 40
52.0
 40
52.0
 40
52.0
 40
53.0
 40
53.0
 40
53.0
 40
54.0
 40
54.0
 40
54.0
 40
55.0
 40
55.0
 40
55.0
 40
56.0
 40
56.0
 40
56.0
 40
57.0
 40
57.0
 40
57.0
 40
58.0
 40
58.0
 40
58.0
 40
59.0
 40
59.0
 40
59.0
 40
60.0
 40
60.0
 40
60.0
 40
61.0
 40
61.0
 40
61.0
 40
62.0
 40
62.0
 40
62.0
 40
62.0
 10
202.7852104527759
 20
-57.61939424557779
 30
0.0
 10
202.7852104527759
 20
-57.70207653722379
 30
0.0
 10
202.7697075230923
 20
-57.80026175855341
 30
0.0
 10
202.7387016637251
 20
-57.91394990956665
 30
0.0
 10
202.7076958043578
 20
-58.02763806057989
 30
0.0
 10
202.6680772062774
 20
-58.14132621159314
 30
0.0
 10
202.6198458694839
 20
-58.25501436260639
 30
0.0
 10
202.5716145326904
 20
-58.36870251361963
 30
0.0
 10
202.5182155526691
 20
-58.47894556914763
 30
0.0
 10
202.4596489294198
 20
-58.58574352919037
 30
0.0
 10
202.4010823061705
 20
-58.69271374400738
 30
0.0
 10
202.344238230664
 20
-58.78383651959223
 30
0.0
 10
202.2891167028999
 20
-58.85962862026773
 30
0.0
 10
202.2546657480475
 20
-58.90785995706123
 30
0.0
 10
202.1995442202835
 20
-58.9750393190236
 30
0.0
 10
202.123752119608
 20
-59.06116670615485
 30
0.0
 10
202.0479600189325
 20
-59.14746634806036
 30
0.0
 10
201.9618326318012
 20
-59.24375676687309
 30
0.0
 10
201.8653699582142
 20
-59.35055472691583
 30
0.0
 10
201.7689072846272
 20
-59.45752494173284
 30
0.0
 10
201.6603867768418
 20
-59.57276338571445
 30
0.0
 10
201.5398084348581
 20
-59.69678682318344
 30
0.0
 10
201.4192300928744
 20
-59.82081026065244
 30
0.0
 10
201.296929203148
 20
-59.94483369812144
 30
0.0
 10
201.172905765679
 20
-60.06885713559043
 30
0.0
 10
200.77327468939
 20
-60.44092744799741
 30
0.0
 10
200.3684759698732
 20
-60.80783011717652
 30
0.0
 10
199.9585096071284
 20
-61.16956514312775
 30
0.0
 10
199.5485432443837
 20
-61.53130016907898
 30
0.0
 10
199.1196288564701
 20
-61.85169404920721
 30
0.0
 10
198.6717664433876
 20
-62.13074678351246
 30
0.0
 10
198.2239040303051
 20
-62.40979951781769
 30
0.0
 10
197.7553710443111
 20
-62.63562552687582
 30
0.0
 10
197.2661674854057
 20
-62.80770804636405
 30
0.0
 10
196.7769639265002
 20
-62.97996282062654
 30
0.0
 10
196.2567545082275
 20
-63.06609020775779
 30
0.0
 10
195.7055392305875
 20
-63.06609020775779
 30
0.0
 10
195.4712727375905
 20
-63.06609020775779
 30
0.0
 10
195.2335611491083
 20
-63.01441377547903
 30
0.0
 10
194.9924044651408
 20
-62.91106091092154
 30
0.0
 10
194.7512477811733
 20
-62.80770804636405
 30
0.0
 10
194.527316574632
 20
-62.66663138624307
 30
0.0
 10
194.3206108455171
 20
-62.48731416623581
 30
0.0
 10
194.1139051164021
 20
-62.30816920100282
 30
0.0
 10
193.9330376034265
 20
-62.09302298794897
 30
0.0
 10
193.7780083065902
 20
-61.84135876275147
 30
0.0
 10
193.622979009754
 20
-61.58986679232823
 30
0.0
 10
193.5144585019686
 20
-61.31942679673612
 30
0.0
 10
193.4524467832341
 20
-61.03003877597513
 30
0.0
 10
193.3284233457651
 20
-61.23674450509012
 30
0.0
 10
193.1665038579584
 20
-61.45895316388873
 30
0.0
 10
192.9666883198139
 20
-61.69666475237097
 30
0.0
 10
192.7668727816694
 20
-61.93437634085321
 30
0.0
 10
192.548109218356
 20
-62.17053763636709
 30
0.0
 10
192.3103976298738
 20
-62.40463187458981
 30
0.0
 10
192.0726860413915
 20
-62.6388983675868
 30
0.0
 10
191.8263617141962
 20
-62.86110702638541
 30
0.0
 10
191.5714246482877
 20
-63.07125785098566
 30
0.0
 10
191.3164875823792
 20
-63.28158093036016
 30
0.0
 10
191.0787759938969
 20
-63.46244844333578
 30
0.0
 10
190.858289882841
 20
-63.61386038991251
 30
0.0
 10
190.70670568149
 20
-63.71721325447
 30
0.0
 10
190.5223930730291
 20
-63.82418346928702
 30
0.0
 10
190.3053520574584
 20
-63.93425427004075
 30
0.0
 10
190.0883110418876
 20
-64.04449732556874
 30
0.0
 10
189.8592121921185
 20
-64.1461276423836
 30
0.0
 10
189.618055508151
 20
-64.23914522048535
 30
0.0
 10
189.3768988241836
 20
-64.33216279858711
 30
0.0
 10
189.1340195924734
 20
-64.40812715403686
 30
0.0
 10
188.8894178130207
 20
-64.46652152251184
 30
0.0
 10
188.644816033568
 20
-64.52508814576109
 30
0.0
 10
188.4191622792841
 20
-64.55437145738571
 30
0.0
 10
188.2124565501691
 20
-64.55437145738571
 30
0.0
 10
187.8817273835851
 20
-64.55437145738571
 30
0.0
 10
187.5923393628241
 20
-64.4598035863156
 30
0.0
 10
187.3442924878861
 20
-64.27015107985261
 30
0.0
 10
187.0962456129482
 20
-64.08067082816386
 30
0.0
 10
186.8912624315758
 20
-63.84812688290949
 30
0.0
 10
186.7293429437691
 20
-63.57251924408951
 30
0.0
 10
186.5674234559623
 20
-63.29708386004378
 30
0.0
 10
186.4468451139785
 20
-63.00407848902328
 30
0.0
 10
186.3676079178178
 20
-62.6940198953508
 30
0.0
 10
186.2883707216571
 20
-62.38396130167831
 30
0.0
 10
186.2487521235767
 20
-62.10490856737308
 30
0.0
 10
186.2487521235767
 20
-61.8568616924351
 30
0.0
 10
186.2487521235767
 20
-61.40210908838211
 30
0.0
 10
186.315931485539
 20
-60.938743745616
 30
0.0
 10
186.4502902094638
 20
-60.46676566413679
 30
0.0
 10
186.5846489333885
 20
-59.99495983743182
 30
0.0
 10
186.756903707651
 20
-59.53503959015097
 30
0.0
 10
186.9670545322513
 20
-59.08700492229423
 30
0.0
 10
187.1772053568515
 20
-58.63914250921174
 30
0.0
 10
187.4114718498485
 20
-58.21212292381503
 30
0.0
 10
187.6698540112423
 20
-57.80542940178128
 30
0.0
 10
187.928236172636
 20
-57.39890813452181
 30
0.0
 10
188.1814506908018
 20
-57.03717310857057
 30
0.0
 10
188.4294975657399
 20
-56.72022432392759
 30
0.0
 10
188.6913248226188
 20
-56.3894951573436
 30
0.0
 10
189.0048285117766
 20
-56.06048853850224
 30
0.0
 10
189.370008633213
 20
-55.73320446740351
 30
0.0
 10
189.7351887546495
 20
-55.40609265107903
 30
0.0
 10
190.1175943535123
 20
-55.11308728005854
 30
0.0
 10
190.5172254298013
 20
-54.8547051186648
 30
0.0
 10
190.9168565060902
 20
-54.59632295727106
 30
0.0
 10
191.3113199391513
 20
-54.3880669351877
 30
0.0
 10
191.7006157289845
 20
-54.22942028809195
 30
0.0
 10
192.0899115188178
 20
-54.07094589577045
 30
0.0
 10
192.4361436150854
 20
-53.99170869960972
 30
0.0
 10
192.7393120177874
 20
-53.99170869960972
 30
0.0
 10
192.9046766010794
 20
-53.99170869960972
 30
0.0
 10
193.0752088275992
 20
-53.99687634283758
 30
0.0
 10
193.250908697347
 20
-54.00721162929333
 30
0.0
 10
193.4266085670947
 20
-54.01754691574908
 30
0.0
 10
193.6005858890998
 20
-54.03304984543272
 30
0.0
 10
193.7728406633623
 20
-54.05372041834421
 30
0.0
 10
193.9450954376248
 20
-54.07439099125571
 30
0.0
 10
194.1104600209168
 20
-54.10539685062296
 30
0.0
 10
194.2689344132383
 20
-54.14673799644596
 30
0.0
 10
194.4274088055598
 20
-54.18807914226896
 30
0.0
 10
194.568657720455
 20
-54.2397555745477
 30
0.0
 10
194.692681157924
 20
-54.3017672932822
 30
0.0
 10
194.77536344957
 20
-54.35706107582046
 30
0.0
 10
194.8666584799292
 20
-54.45524629715008
 30
0.0
 10
194.9665662490014
 20
-54.59632295727106
 30
0.0
 10
195.0664740180737
 20
-54.7375718721663
 30
0.0
 10
195.1594915961754
 20
-54.88932832829156
 30
0.0
 10
195.2456189833066
 20
-55.05107556132404
 30
0.0
 10
195.3317463704379
 20
-55.21299504913078
 30
0.0
 10
195.4058159233707
 20
-55.3731919891949
 30
0.0
 10
195.4678276421052
 20
-55.5316663815164
 30
0.0
 10
195.5298393608397
 20
-55.69031302861215
 30
0.0
 10
195.560845220207
 20
-55.81433646608114
 30
0.0
 10
195.560845220207
 20
-55.90373669392337
 30
0.0
 10
195.560845220207
 20
-56.09666204109736
 30
0.0
 10
195.5315619085824
 20
-56.32593314564074
 30
0.0
 10
195.4729952853331
 20
-56.59103324323072
 30
0.0
 10
195.4144286620839
 20
-56.85630559559495
 30
0.0
 10
195.3489718478641
 20
-57.13363578215757
 30
0.0
 10
195.2766248426739
 20
-57.42302380291855
 30
0.0
 10
195.2042778374836
 20
-57.71241182367954
 30
0.0
 10
195.1370984755213
 20
-58.00869003541102
 30
0.0
 10
195.0750867567868
 20
-58.31185843811301
 30
0.0
 10
195.0130750380523
 20
-58.61519909558926
 30
0.0
 10
194.982069178685
 20
-58.90458711635024
 30
0.0
 10
194.982069178685
 20
-59.18002250039597
 30
0.0
 10
194.982069178685
 20
-59.37294784756996
 30
0.0
 10
195.009629942567
 20
-59.5693182902292
 30
0.0
 10
195.064751470331
 20
-59.76913382837369
 30
0.0
 10
195.119872998095
 20
-59.96912162129245
 30
0.0
 10
195.1991101942557
 20
-60.14998913426806
 30
0.0
 10
195.3024630588133
 20
-60.31173636730054
 30
0.0
 10
195.4058159233707
 20
-60.47365585510728
 30
0.0
 10
195.5298393608397
 20
-60.60629203128939
 30
0.0
 10
195.6745333712202
 20
-60.7096448958469
 30
0.0
 10
195.8192273816008
 20
-60.81299776040439
 30
0.0
 10
195.9811468694075
 20
-60.86467419268314
 30
0.0
 10
196.1602918346405
 20
-60.86467419268314
 30
0.0
 10
196.5668131019
 20
-60.86467419268314
 30
0.0
 10
196.9698892736742
 20
-60.78888209200765
 30
0.0
 10
197.3695203499632
 20
-60.63729789065664
 30
0.0
 10
197.7691514262522
 20
-60.48588594407991
 30
0.0
 10
198.1687825025411
 20
-60.27728541244805
 30
0.0
 10
198.5684135788301
 20
-60.0120130600838
 30
0.0
 10
198.9680446551191
 20
-59.74691296249383
 30
0.0
 10
199.3676757314081
 20
-59.43323701856183
 30
0.0
 10
199.767306807697
 20
-59.0715019926106
 30
0.0
 10
200.166937883986
 20
-58.70976696665937
 30
0.0
 10
200.5700140557603
 20
-58.3187486290835
 30
0.0
 10
200.9765353230198
 20
-57.89844697988304
 30
0.0
 10
200.9903157049607
 20
-57.89844697988304
 30
0.0
 10
201.0454372327248
 20
-57.84677054760428
 30
0.0
 10
201.1418999063117
 20
-57.74341768304679
 30
0.0
 10
201.2383625798987
 20
-57.64006481848929
 30
0.0
 10
201.3537732786546
 20
-57.52637666747605
 30
0.0
 10
201.4881320025794
 20
-57.40235323000705
 30
0.0
 10
201.6224907265041
 20
-57.27832979253806
 30
0.0
 10
201.7637396413994
 20
-57.16464164152482
 30
0.0
 10
201.9118787472651
 20
-57.06128877696731
 30
0.0
 10
202.0600178531308
 20
-56.95793591240982
 30
0.0
 10
202.1892089338277
 20
-56.90625948013107
 30
0.0
 10
202.2994519893557
 20
-56.90625948013107
 30
0.0
 10
202.4992675275002
 20
-56.90625948013107
 30
0.0
 10
202.6301811559397
 20
-56.96482610338033
 30
0.0
 10
202.6921928746742
 20
-57.08195934987881
 30
0.0
 10
202.7542045934087
 20
-57.19926485115157
 30
0.0
 10
202.7852104527759
 20
-57.37823756161031
 30
0.0
 10
202.7852104527759
 20
-57.61939424557779
 30
0.0
  0
SPLINE
  5
8A
330
79
100
AcDbEntity
  8
Layer 1
 62
   250
420
  2301728
370
     9
100
AcDbSpline
210
0.0
220
0.0
230
1.0
 70
     9
 71
     3
 72
    89
 73
    85
 74
     0
 42
0.0000000001
 43
0.0000000001
 40
0.0
 40
0.0
 40
0.0
 40
0.0
 40
1.0
 40
1.0
 40
1.0
 40
2.0
 40
2.0
 40
2.0
 40
3.0
 40
3.0
 40
3.0
 40
4.0
 40
4.0
 40
4.0
 40
5.0
 40
5.0
 40
5.0
 40
6.0
 40
6.0
 40
6.0
 40
7.0
 40
7.0
 40
7.0
 40
8.0
 40
8.0
 40
8.0
 40
9.0
 40
9.0
 40
9.0
 40
10.0
 40
10.0
 40
10.0
 40
11.0
 40
11.0
 40
11.0
 40
12.0
 40
12.0
 40
12.0
 40
13.0
 40
13.0
 40
13.0
 40
14.0
 40
14.0
 40
14.0
 40
15.0
 40
15.0
 40
15.0
 40
16.0
 40
16.0
 40
16.0
 40
17.0
 40
17.0
 40
17.0
 40
18.0
 40
18.0
 40
18.0
 40
19.0
 40
19.0
 40
19.0
 40
20.0
 40
20.0
 40
20.0
 40
21.0
 40
21.0
 40
21.0
 40
22.0
 40
22.0
 40
22.0
 40
23.0
 40
23.0
 40
23.0
 40
24.0
 40
24.0
 40
24.0
 40
25.0
 40
25.0
 40
25.0
 40
26.0
 40
26.0
 40
26.0
 40
27.0
 40
27.0
 40
27.0
 40
28.0
 40
28.0
 40
28.0
 40
28.0
 10
206.9296603215315
 20
-59.06633434938272
 30
0.0
 10
206.9847818492955
 20
-59.00432263064822
 30
0.0
 10
207.0450710202873
 20
-58.92853052997273
 30
0.0
 10
207.1105278345071
 20
-58.83895804735623
 30
0.0
 10
207.1759846487268
 20
-58.749557819514
 30
0.0
 10
207.2414414629466
 20
-58.65292289115274
 30
0.0
 10
207.3068982771663
 20
-58.54957002659524
 30
0.0
 10
207.3723550913861
 20
-58.44621716203775
 30
0.0
 10
207.4378119056058
 20
-58.34131400451189
 30
0.0
 10
207.5032687198256
 20
-58.23434378969489
 30
0.0
 10
207.5687255340453
 20
-58.12754582965214
 30
0.0
 10
207.6221245140667
 20
-58.02936060832252
 30
0.0
 10
207.6634656598897
 20
-57.93978812570603
 30
0.0
 10
207.5187716495092
 20
-57.84332545211903
 30
0.0
 10
207.4136962372091
 20
-57.71413437142216
 30
0.0
 10
207.3482394229893
 20
-57.55221488361542
 30
0.0
 10
207.2827826087696
 20
-57.39046765058294
 30
0.0
 10
207.2500542016597
 20
-57.22665336025931
 30
0.0
 10
207.2500542016597
 20
-57.06128877696731
 30
0.0
 10
207.2500542016597
 20
-56.99255912203658
 30
0.0
 10
207.2552218448876
 20
-56.91314967110158
 30
0.0
 10
207.2655571313434
 20
-56.82357718848508
 30
0.0
 10
207.2758924177991
 20
-56.73417696064285
 30
0.0
 10
207.2879502519975
 20
-56.64270967550947
 30
0.0
 10
207.3017306339385
 20
-56.54969209740772
 30
0.0
 10
207.3155110158794
 20
-56.45667451930597
 30
0.0
 10
207.3275688500778
 20
-56.3688245844321
 30
0.0
 10
207.3379041365336
 20
-56.2861422927861
 30
0.0
 10
207.3482394229893
 20
-56.20346000114011
 30
0.0
 10
207.3534070662172
 20
-56.14144828240561
 30
0.0
 10
207.3534070662172
 20
-56.10010713658262
 30
0.0
 10
207.3534070662172
 20
-56.01070690874038
 30
0.0
 10
207.3258463023352
 20
-55.91579452812175
 30
0.0
 10
207.2707247745712
 20
-55.8158867590495
 30
0.0
 10
207.2156032468072
 20
-55.71615124475152
 30
0.0
 10
207.1484238848448
 20
-55.62468395961814
 30
0.0
 10
207.0691866886841
 20
-55.54200166797214
 30
0.0
 10
206.9899494925234
 20
-55.45931937632614
 30
0.0
 10
206.9038221053921
 20
-55.39058972139541
 30
0.0
 10
206.8108045272904
 20
-55.33529593885715
 30
0.0
 10
206.7177869491886
 20
-55.28017441109316
 30
0.0
 10
206.6333821098
 20
-55.25261364721115
 30
0.0
 10
206.5575900091245
 20
-55.25261364721115
 30
0.0
 10
206.3922254258325
 20
-55.25261364721115
 30
0.0
 10
206.1993000786585
 20
-55.35079886854077
 30
0.0
 10
205.9788139676025
 20
-55.54716931120001
 30
0.0
 10
205.7583278565465
 20
-55.74353975385926
 30
0.0
 10
205.5275064590348
 20
-55.99003633582888
 30
0.0
 10
205.2863497750673
 20
-56.2861422927861
 30
0.0
 10
205.0451930910998
 20
-56.58242050451759
 30
0.0
 10
204.805758954875
 20
-56.90625948013107
 30
0.0
 10
204.5680473663928
 20
-57.25765921962656
 30
0.0
 10
204.3303357779105
 20
-57.60905895912205
 30
0.0
 10
204.1115722145971
 20
-57.93634303022077
 30
0.0
 10
203.9117566764526
 20
-58.23951143292276
 30
0.0
 10
203.6912705653966
 20
-58.58419323622201
 30
0.0
 10
203.5017903137079
 20
-58.90613740931861
 30
0.0
 10
203.3433159213864
 20
-59.20586071653534
 30
0.0
 10
203.1848415290649
 20
-59.50558402375207
 30
0.0
 10
203.0470377096549
 20
-59.77602401934419
 30
0.0
 10
202.9299044631564
 20
-60.01718070331168
 30
0.0
 10
202.5647243417199
 20
-60.80266247394864
 30
0.0
 10
202.3821342810017
 20
-61.42277966129361
 30
0.0
 10
202.3821342810017
 20
-61.8775322653466
 30
0.0
 10
202.3821342810017
 20
-62.29094372357657
 30
0.0
 10
202.4579263816772
 20
-62.49764945269156
 30
0.0
 10
202.6095105830282
 20
-62.49764945269156
 30
0.0
 10
202.7473144024382
 20
-62.49764945269156
 30
0.0
 10
202.9264593676712
 20
-62.44959037067232
 30
0.0
 10
203.1469454787272
 20
-62.35295544231107
 30
0.0
 10
203.3674315897831
 20
-62.25649276872407
 30
0.0
 10
203.6258137511769
 20
-62.10852591763259
 30
0.0
 10
203.9220919629084
 20
-61.90853812471384
 30
0.0
 10
204.2321505565809
 20
-61.69511445940261
 30
0.0
 10
204.5129258386287
 20
-61.48995902325598
 30
0.0
 10
204.764417809052
 20
-61.29358858059674
 30
0.0
 10
205.0159097794752
 20
-61.09721813793751
 30
0.0
 10
205.2312282473033
 20
-60.90601533850613
 30
0.0
 10
205.4103732125363
 20
-60.71998018230265
 30
0.0
 10
205.7962239068843
 20
-60.32723929698416
 30
0.0
 10
206.109727596042
 20
-59.99495983743182
 30
0.0
 10
206.3508842800095
 20
-59.72262503932282
 30
0.0
 10
206.592040963977
 20
-59.45046249598808
 30
0.0
 10
206.784966311151
 20
-59.23169893267472
 30
0.0
 10
206.9296603215315
 20
-59.06633434938272
 30
0.0
  0
SPLINE
  5
8B
330
79
100
AcDbEntity
  8
Layer 1
 62
   250
420
  2301728
370
     9
100
AcDbSpline
210
0.0
220
0.0
230
1.0
 70
     9
 71
     3
 72
   239
 73
   235
 74
     0
 42
0.0000000001
 43
0.0000000001
 40
0.0
 40
0.0
 40
0.0
 40
0.0
 40
1.0
 40
1.0
 40
1.0
 40
2.0
 40
2.0
 40
2.0
 40
3.0
 40
3.0
 40
3.0
 40
4.0
 40
4.0
 40
4.0
 40
5.0
 40
5.0
 40
5.0
 40
6.0
 40
6.0
 40
6.0
 40
7.0
 40
7.0
 40
7.0
 40
8.0
 40
8.0
 40
8.0
 40
9.0
 40
9.0
 40
9.0
 40
10.0
 40
10.0
 40
10.0
 40
11.0
 40
11.0
 40
11.0
 40
12.0
 40
12.0
 40
12.0
 40
13.0
 40
13.0
 40
13.0
 40
14.0
 40
14.0
 40
14.0
 40
15.0
 40
15.0
 40
15.0
 40
16.0
 40
16.0
 40
16.0
 40
17.0
 40
17.0
 40
17.0
 40
18.0
 40
18.0
 40
18.0
 40
19.0
 40
19.0
 40
19.0
 40
20.0
 40
20.0
 40
20.0
 40
21.0
 40
21.0
 40
21.0
 40
22.0
 40
22.0
 40
22.0
 40
23.0
 40
23.0
 40
23.0
 40
24.0
 40
24.0
 40
24.0
 40
25.0
 40
25.0
 40
25.0
 40
26.0
 40
26.0
 40
26.0
 40
27.0
 40
27.0
 40
27.0
 40
28.0
 40
28.0
 40
28.0
 40
29.0
 40
29.0
 40
29.0
 40
30.0
 40
30.0
 40
30.0
 40
31.0
 40
31.0
 40
31.0
 40
32.0
 40
32.0
 40
32.0
 40
33.0
 40
33.0
 40
33.0
 40
34.0
 40
34.0
 40
34.0
 40
35.0
 40
35.0
 40
35.0
 40
36.0
 40
36.0
 40
36.0
 40
37.0
 40
37.0
 40
37.0
 40
38.0
 40
38.0
 40
38.0
 40
39.0
 40
39.0
 40
39.0
 40
40.0
 40
40.0
 40
40.0
 40
41.0
 40
41.0
 40
41.0
 40
42.0
 40
42.0
 40
42.0
 40
43.0
 40
43.0
 40
43.0
 40
44.0
 40
44.0
 40
44.0
 40
45.0
 40
45.0
 40
45.0
 40
46.0
 40
46.0
 40
46.0
 40
47.0
 40
47.0
 40
47.0
 40
48.0
 40
48.0
 40
48.0
 40
49.0
 40
49.0
 40
49.0
 40
50.0
 40
50.0
 40
50.0
 40
51.0
 40
51.0
 40
51.0
 40
52.0
 40
52.0
 40
52.0
 40
53.0
 40
53.0
 40
53.0
 40
54.0
 40
54.0
 40
54.0
 40
55.0
 40
55.0
 40
55.0
 40
56.0
 40
56.0
 40
56.0
 40
57.0
 40
57.0
 40
57.0
 40
58.0
 40
58.0
 40
58.0
 40
59.0
 40
59.0
 40
59.0
 40
60.0
 40
60.0
 40
60.0
 40
61.0
 40
61.0
 40
61.0
 40
62.0
 40
62.0
 40
62.0
 40
63.0
 40
63.0
 40
63.0
 40
64.0
 40
64.0
 40
64.0
 40
65.0
 40
65.0
 40
65.0
 40
66.0
 40
66.0
 40
66.0
 40
67.0
 40
67.0
 40
67.0
 40
68.0
 40
68.0
 40
68.0
 40
69.0
 40
69.0
 40
69.0
 40
70.0
 40
70.0
 40
70.0
 40
71.0
 40
71.0
 40
71.0
 40
72.0
 40
72.0
 40
72.0
 40
73.0
 40
73.0
 40
73.0
 40
74.0
 40
74.0
 40
74.0
 40
75.0
 40
75.0
 40
75.0
 40
76.0
 40
76.0
 40
76.0
 40
77.0
 40
77.0
 40
77.0
 40
78.0
 40
78.0
 40
78.0
 40
78.0
 10
217.6163465167765
 20
-57.4126885164628
 30
0.0
 10
217.6163465167765
 20
-57.5367119539318
 30
0.0
 10
217.5991210393502
 20
-57.65918509843243
 30
0.0
 10
217.5646700844977
 20
-57.77959118564191
 30
0.0
 10
217.5302191296452
 20
-57.90016952762566
 30
0.0
 10
217.4664848631681
 20
-58.0345282515504
 30
0.0
 10
217.3734672850664
 20
-58.18266735741614
 30
0.0
 10
217.2804497069646
 20
-58.33097871805614
 30
0.0
 10
217.1564262694956
 20
-58.504783785287
 30
0.0
 10
217.0013969726594
 20
-58.70459932343149
 30
0.0
 10
216.8463676758231
 20
-58.90458711635024
 30
0.0
 10
216.644829589936
 20
-59.14901664102872
 30
0.0
 10
216.396782714998
 20
-59.4384046617897
 30
0.0
 10
216.396782714998
 20
-59.4384046617897
 30
0.0
 10
216.396782714998
 20
-59.42806937533395
 30
0.0
 10
216.396782714998
 20
-59.42806937533395
 30
0.0
 10
216.1418456490896
 20
-59.72434758706544
 30
0.0
 10
215.8714056534975
 20
-60.0189032510543
 30
0.0
 10
215.5854627282217
 20
-60.31173636730054
 30
0.0
 10
215.299519802946
 20
-60.60474173832104
 30
0.0
 10
214.9911837570161
 20
-60.90601533850613
 30
0.0
 10
214.6604545904321
 20
-61.21607393217862
 30
0.0
 10
214.3435058057892
 20
-61.51941458965487
 30
0.0
 10
214.0265570211461
 20
-61.79846732396011
 30
0.0
 10
213.7096082365032
 20
-62.05323213509434
 30
0.0
 10
213.3926594518602
 20
-62.30816920100282
 30
0.0
 10
213.0860459536729
 20
-62.5286553120588
 30
0.0
 10
212.7897677419415
 20
-62.7146904682623
 30
0.0
 10
212.49348953021
 20
-62.90072562446579
 30
0.0
 10
212.2144367959047
 20
-63.04714218258891
 30
0.0
 10
211.9526095390257
 20
-63.15394014263166
 30
0.0
 10
211.6907822821468
 20
-63.26091035744866
 30
0.0
 10
211.4565157891497
 20
-63.31413708269577
 30
0.0
 10
211.2498100600348
 20
-63.31413708269577
 30
0.0
 10
210.7743868830703
 20
-63.31413708269577
 30
0.0
 10
210.3954263796928
 20
-63.20406628194204
 30
0.0
 10
210.1129285499023
 20
-62.98340791611178
 30
0.0
 10
209.8304307201118
 20
-62.7629218050558
 30
0.0
 10
209.604776965828
 20
-62.46319849783906
 30
0.0
 10
209.4359672870508
 20
-62.08423799446158
 30
0.0
 10
209.2671576082735
 20
-61.70544974585836
 30
0.0
 10
209.1379665275766
 20
-61.25913762574424
 30
0.0
 10
209.0483940449601
 20
-60.74581839844202
 30
0.0
 10
208.9588215623436
 20
-60.23267142591405
 30
0.0
 10
208.8761392706977
 20
-59.6864515367277
 30
0.0
 10
208.8003471700222
 20
-59.10767549520572
 30
0.0
 10
208.6143120138186
 20
-59.39034557977048
 30
0.0
 10
208.4162190234168
 20
-59.69161917995557
 30
0.0
 10
208.2060681988166
 20
-60.0120130600838
 30
0.0
 10
207.9959173742163
 20
-60.33240694021204
 30
0.0
 10
207.7754312631603
 20
-60.65125052737191
 30
0.0
 10
207.5446098656485
 20
-60.96802705724063
 30
0.0
 10
207.3137884681368
 20
-61.28497584188362
 30
0.0
 10
207.0726317841693
 20
-61.59176159484512
 30
0.0
 10
206.8211398137461
 20
-61.88786755180235
 30
0.0
 10
206.5696478433229
 20
-62.18414576353382
 30
0.0
 10
206.3129882296717
 20
-62.45286321138332
 30
0.0
 10
206.0511609727928
 20
-62.6940198953508
 30
0.0
 10
205.3621418757428
 20
-63.32102727366628
 30
0.0
 10
204.6541747535239
 20
-63.79128280740288
 30
0.0
 10
203.9272596061362
 20
-64.1047864965606
 30
0.0
 10
203.2003444587485
 20
-64.4184624404926
 30
0.0
 10
202.4510361907067
 20
-64.57504203029721
 30
0.0
 10
201.6793348020108
 20
-64.57504203029721
 30
0.0
 10
201.4106173541613
 20
-64.57504203029721
 30
0.0
 10
201.1763508611643
 20
-64.50631237536647
 30
0.0
 10
200.9765353230198
 20
-64.36833630118222
 30
0.0
 10
200.7767197848753
 20
-64.23053248177223
 30
0.0
 10
200.6113552015833
 20
-64.05311006428187
 30
0.0
 10
200.4804415731438
 20
-63.83606904871112
 30
0.0
 10
200.3495279447043
 20
-63.61902803314038
 30
0.0
 10
200.2513427233747
 20
-63.38131644465814
 30
0.0
 10
200.1858859091549
 20
-63.12293428326441
 30
0.0
 10
200.1204290949352
 20
-62.86455212187068
 30
0.0
 10
200.0877006878253
 20
-62.61495495396432
 30
0.0
 10
200.0877006878253
 20
-62.37362601522256
 30
0.0
 10
200.0877006878253
 20
-62.04978703960908
 30
0.0
 10
200.1014810697663
 20
-61.77262910782073
 30
0.0
 10
200.1290418336483
 20
-61.54163545553473
 30
0.0
 10
200.1566025975303
 20
-61.31081405802299
 30
0.0
 10
200.1979437433533
 20
-61.11633841788064
 30
0.0
 10
200.2530652711173
 20
-60.95769177078488
 30
0.0
 10
200.5493434828488
 20
-60.11019828141343
 30
0.0
 10
200.8783501016901
 20
-59.30576848560758
 30
0.0
 10
201.2400851276414
 20
-58.54440238336738
 30
0.0
 10
201.6018201535926
 20
-57.78320853590142
 30
0.0
 10
202.0479600189325
 20
-57.03390026785958
 30
0.0
 10
202.5785047236609
 20
-56.29647757924185
 30
0.0
 10
202.9092338902449
 20
-55.82794459324787
 30
0.0
 10
203.2365179613436
 20
-55.4145331350179
 30
0.0
 10
203.5603569369571
 20
-55.05624320455191
 30
0.0
 10
203.8841959125706
 20
-54.69812552886019
 30
0.0
 10
204.226982913353
 20
-54.39650741912657
 30
0.0
 10
204.5887179393042
 20
-54.15190563967383
 30
0.0
 10
204.9504529652554
 20
-53.90747611499535
 30
0.0
 10
205.3414713028313
 20
-53.72299125176023
 30
0.0
 10
205.7617729520318
 20
-53.59896781429124
 30
0.0
 10
206.1820746012323
 20
-53.47494437682223
 30
0.0
 10
206.6540526827115
 20
-53.41293265808774
 30
0.0
 10
207.1777071964695
 20
-53.41293265808774
 30
0.0
 10
207.6186794185815
 20
-53.41293265808774
 30
0.0
 10
207.9804144445327
 20
-53.57485214589448
 30
0.0
 10
208.2629122743231
 20
-53.89869112150797
 30
0.0
 10
208.5454101041137
 20
-54.22270235189571
 30
0.0
 10
208.7452256422581
 20
-54.67383760568917
 30
0.0
 10
208.8623588887566
 20
-55.25261364721115
 30
0.0
 10
208.9105902255501
 20
-54.99078639033217
 30
0.0
 10
208.957099014601
 20
-54.69450817860067
 30
0.0
 10
209.0018852559093
 20
-54.36377901201669
 30
0.0
 10
209.0466714972175
 20
-54.03304984543272
 30
0.0
 10
209.0897351907831
 20
-53.68526745619674
 30
0.0
 10
209.1310763366061
 20
-53.31991507998599
 30
0.0
 10
209.1724174824291
 20
-52.95473495854952
 30
0.0
 10
209.2103135327669
 20
-52.57577445517203
 30
0.0
 10
209.2447644876194
 20
-52.18303356985355
 30
0.0
 10
209.2792154424718
 20
-51.79029268453507
 30
0.0
 10
209.3102213018391
 20
-51.4011691494761
 30
0.0
 10
209.3377820657211
 20
-51.01514620035385
 30
0.0
 10
209.3722330205736
 20
-50.47771130465488
 30
0.0
 10
209.4170192618819
 20
-50.02295870060191
 30
0.0
 10
209.4721407896459
 20
-49.65088838819492
 30
0.0
 10
209.5272623174099
 20
-49.27881807578794
 30
0.0
 10
209.5961642271149
 20
-49.02405326465371
 30
0.0
 10
209.6788465187608
 20
-48.88607719046945
 30
0.0
 10
209.7890895742888
 20
-48.70693222523646
 30
0.0
 10
209.9268933936988
 20
-48.55896537414498
 30
0.0
 10
210.0922579769908
 20
-48.44165987287222
 30
0.0
 10
210.2576225602828
 20
-48.32452662637373
 30
0.0
 10
210.4815537668241
 20
-48.26596000312449
 30
0.0
 10
210.7640515966146
 20
-48.26596000312449
 30
0.0
 10
210.936306370877
 20
-48.26596000312449
 30
0.0
 10
211.0999484064264
 20
-48.29179821926386
 30
0.0
 10
211.2549777032627
 20
-48.34347465154261
 30
0.0
 10
211.4100070000989
 20
-48.39515108382135
 30
0.0
 10
211.5478108195089
 20
-48.46078015281536
 30
0.0
 10
211.6683891614926
 20
-48.53984509420184
 30
0.0
 10
211.7889675034764
 20
-48.61908229036259
 30
0.0
 10
211.8837076293207
 20
-48.70882702775335
 30
0.0
 10
211.9526095390257
 20
-48.80856254205133
 30
0.0
 10
212.0215114487308
 20
-48.90847031112357
 30
0.0
 10
212.0559624035832
 20
-49.0066555324532
 30
0.0
 10
212.0559624035832
 20
-49.10311820604019
 30
0.0
 10
212.0559624035832
 20
-49.19269068865669
 30
0.0
 10
212.038736926157
 20
-49.32704941258143
 30
0.0
 10
212.0042859713045
 20
-49.50619437781442
 30
0.0
 10
211.969835016452
 20
-49.68551159782168
 30
0.0
 10
211.9233262274011
 20
-49.92132838378703
 30
0.0
 10
211.8647596041519
 20
-50.21416150003327
 30
0.0
 10
211.8061929809026
 20
-50.50716687105377
 30
0.0
 10
211.735568523455
 20
-50.86528454674549
 30
0.0
 10
211.652886231809
 20
-51.28903129143122
 30
0.0
 10
211.570203940163
 20
-51.71277803611694
 30
0.0
 10
211.4771863620613
 20
-52.2140394292208
 30
0.0
 10
211.3738334975038
 20
-52.79281547074277
 30
0.0
 10
211.3738334975038
 20
-52.83415661656577
 30
0.0
 10
211.3652207587906
 20
-52.91012097201552
 30
0.0
 10
211.3479952813644
 20
-53.02019177276926
 30
0.0
 10
211.3307698039382
 20
-53.13043482829725
 30
0.0
 10
211.3100992310267
 20
-53.25635306828313
 30
0.0
 10
211.2859835626299
 20
-53.39742972840411
 30
0.0
 10
211.2618678942332
 20
-53.53867864329936
 30
0.0
 10
211.2377522258364
 20
-53.68526745619674
 30
0.0
 10
211.2136365574396
 20
-53.83667940277347
 30
0.0
 10
211.1895208890429
 20
-53.98826360412446
 30
0.0
 10
211.1654052206461
 20
-54.13123506676233
 30
0.0
 10
211.1412895522494
 20
-54.26559379068708
 30
0.0
 10
211.1171738838527
 20
-54.39995251461182
 30
0.0
 10
211.0965033109411
 20
-54.51536321336769
 30
0.0
 10
211.0792778335149
 20
-54.61182588695468
 30
0.0
 10
211.0620523560887
 20
-54.70846081531594
 30
0.0
 10
211.0499945218903
 20
-54.76685518379093
 30
0.0
 10
211.0431043309198
 20
-54.78752575670243
 30
0.0
 10
210.9604220392738
 20
-55.3249606524014
 30
0.0
 10
210.8915201295688
 20
-55.8246717525369
 30
0.0
 10
210.8363986018048
 20
-56.2861422927861
 30
0.0
 10
210.7812770740408
 20
-56.74778508780958
 30
0.0
 10
210.7537163101588
 20
-57.20960013760732
 30
0.0
 10
210.7537163101588
 20
-57.67107067785654
 30
0.0
 10
210.7537163101588
 20
-57.87777640697153
 30
0.0
 10
210.7554388579014
 20
-58.09843477280178
 30
0.0
 10
210.7588839533867
 20
-58.33252901102451
 30
0.0
 10
210.7623290488719
 20
-58.5667955040215
 30
0.0
 10
210.7674966920998
 20
-58.80278454476111
 30
0.0
 10
210.7743868830703
 20
-59.04049613324335
 30
0.0
 10
210.7812770740408
 20
-59.27820772172559
 30
0.0
 10
210.7916123604965
 20
-59.51436901723947
 30
0.0
 10
210.8053927424375
 20
-59.74846325546219
 30
0.0
 10
210.8191731243786
 20
-59.98272974845917
 30
0.0
 10
210.83984369729
 20
-60.20683320977468
 30
0.0
 10
210.867404461172
 20
-60.42025687508591
 30
0.0
 10
210.8742946521426
 20
-60.46848821187941
 30
0.0
 10
210.8915201295688
 20
-60.52533228738603
 30
0.0
 10
210.9190808934508
 20
-60.59078910160578
 30
0.0
 10
210.9466416573328
 20
-60.65641817059979
 30
0.0
 10
210.9828151599279
 20
-60.71842988933428
 30
0.0
 10
211.0276014012362
 20
-60.77682425780927
 30
0.0
 10
211.0723876425444
 20
-60.83539088105851
 30
0.0
 10
211.1257866225658
 20
-60.88534476559464
 30
0.0
 10
211.1877983413003
 20
-60.92668591141763
 30
0.0
 10
211.2498100600348
 20
-60.96802705724063
 30
0.0
 10
211.3187119697398
 20
-60.98869763015213
 30
0.0
 10
211.3945040704153
 20
-60.98869763015213
 30
0.0
 10
211.4909667440023
 20
-60.98869763015213
 30
0.0
 10
211.5943196085598
 20
-60.96974960498325
 30
0.0
 10
211.7045626640877
 20
-60.93185355464552
 30
0.0
 10
211.8148057196158
 20
-60.89412975908203
 30
0.0
 10
211.9302164183716
 20
-60.84572616751426
 30
0.0
 10
212.0507947603554
 20
-60.78715954426502
 30
0.0
 10
212.1713731023391
 20
-60.72876517579003
 30
0.0
 10
212.2885063488376
 20
-60.66675345705554
 30
0.0
 10
212.4021944998509
 20
-60.60112438806153
 30
0.0
 10
212.5158826508641
 20
-60.53566757384178
 30
0.0
 10
212.617512967679
 20
-60.47193330736465
 30
0.0
 10
212.7070854502955
 20
-60.40992158863016
 30
0.0
 10
213.072265571732
 20
-60.16876490466267
 30
0.0
 10
213.4322780499406
 20
-59.90866019552631
 30
0.0
 10
213.7871228849213
 20
-59.62960746122107
 30
0.0
 10
214.141967719902
 20
-59.35055472691583
 30
0.0
 10
214.4985351026253
 20
-59.04566377647122
 30
0.0
 10
214.8568250330914
 20
-58.71493460988724
 30
0.0
 10
215.2082247725868
 20
-58.39109563427375
 30
0.0
 10
215.5596245120823
 20
-58.0758693973734
 30
0.0
 10
215.9110242515778
 20
-57.76925589918616
 30
0.0
 10
216.2624239910733
 20
-57.46281465577318
 30
0.0
 10
216.5724825847458
 20
-57.16464164152482
 30
0.0
 10
216.8412000325953
 20
-56.87525362076383
 30
0.0
 10
216.9445528971527
 20
-56.77190075620633
 30
0.0
 10
217.0754665255922
 20
-56.72022432392759
 30
0.0
 10
217.2339409179137
 20
-56.72022432392759
 30
0.0
 10
217.3441839734417
 20
-56.72022432392759
 30
0.0
 10
217.4354790038008
 20
-56.77190075620633
 30
0.0
 10
217.5078260089911
 20
-56.87525362076383
 30
0.0
 10
217.5801730141813
 20
-56.97860648532132
 30
0.0
 10
217.6163465167765
 20
-57.15792370532858
 30
0.0
 10
217.6163465167765
 20
-57.4126885164628
 30
0.0
  0
SPLINE
  5
8C
330
79
100
AcDbEntity
  8
Layer 1
 62
   250
420
  2301728
370
     9
100
AcDbSpline
210
0.0
220
0.0
230
1.0
 70
     9
 71
     3
 72
    71
 73
    67
 74
     0
 42
0.0000000001
 43
0.0000000001
 40
0.0
 40
0.0
 40
0.0
 40
0.0
 40
1.0
 40
1.0
 40
1.0
 40
2.0
 40
2.0
 40
2.0
 40
3.0
 40
3.0
 40
3.0
 40
4.0
 40
4.0
 40
4.0
 40
5.0
 40
5.0
 40
5.0
 40
6.0
 40
6.0
 40
6.0
 40
7.0
 40
7.0
 40
7.0
 40
8.0
 40
8.0
 40
8.0
 40
9.0
 40
9.0
 40
9.0
 40
10.0
 40
10.0
 40
10.0
 40
11.0
 40
11.0
 40
11.0
 40
12.0
 40
12.0
 40
12.0
 40
13.0
 40
13.0
 40
13.0
 40
14.0
 40
14.0
 40
14.0
 40
15.0
 40
15.0
 40
15.0
 40
16.0
 40
16.0
 40
16.0
 40
17.0
 40
17.0
 40
17.0
 40
18.0
 40
18.0
 40
18.0
 40
19.0
 40
19.0
 40
19.0
 40
20.0
 40
20.0
 40
20.0
 40
21.0
 40
21.0
 40
21.0
 40
22.0
 40
22.0
 40
22.0
 40
22.0
 10
221.6161023751515
 20
-56.75123018329483
 30
0.0
 10
221.6161023751515
 20
-56.33781872506485
 30
0.0
 10
221.5799288725564
 20
-56.03981796559074
 30
0.0
 10
221.5075818673662
 20
-55.8572279048725
 30
0.0
 10
221.4352348621759
 20
-55.67481009892852
 30
0.0
 10
221.3508300227873
 20
-55.58334281379514
 30
0.0
 10
221.2543673492003
 20
-55.58334281379514
 30
0.0
 10
221.1303439117313
 20
-55.58334281379514
 30
0.0
 10
220.9977077355492
 20
-55.61279838019402
 30
0.0
 10
220.8564588206539
 20
-55.671192748669
 30
0.0
 10
220.7152099057587
 20
-55.72975937191825
 30
0.0
 10
220.5791286340914
 20
-55.80555147259375
 30
0.0
 10
220.4482150056518
 20
-55.8985690506955
 30
0.0
 10
220.3173013772123
 20
-55.99158662879724
 30
0.0
 10
220.195000487486
 20
-56.09338920038638
 30
0.0
 10
220.0813123364727
 20
-56.20346000114011
 30
0.0
 10
219.9676241854595
 20
-56.3137030566681
 30
0.0
 10
219.8728840596151
 20
-56.42050101671085
 30
0.0
 10
219.7970919589396
 20
-56.52385388126834
 30
0.0
 10
219.6592881395296
 20
-56.7238416741871
 30
0.0
 10
219.5042588426934
 20
-56.95121797621358
 30
0.0
 10
219.3320040684309
 20
-57.20598278734781
 30
0.0
 10
219.1597492941684
 20
-57.4609198532563
 30
0.0
 10
218.9840494244207
 20
-57.73308239659104
 30
0.0
 10
218.8049044591877
 20
-58.02247041735203
 30
0.0
 10
218.6257594939547
 20
-58.31185843811301
 30
0.0
 10
218.4517821719496
 20
-58.60813664984449
 30
0.0
 10
218.2829724931723
 20
-58.91130505254648
 30
0.0
 10
218.1141628143951
 20
-59.21464571002273
 30
0.0
 10
217.9643011607867
 20
-59.51436901723947
 30
0.0
 10
217.8333875323472
 20
-59.81047497419669
 30
0.0
 10
217.7024739039077
 20
-60.10675318592817
 30
0.0
 10
217.595675943865
 20
-60.39286836597817
 30
0.0
 10
217.512993652219
 20
-60.6683037500239
 30
0.0
 10
217.430311360573
 20
-60.94391138884389
 30
0.0
 10
217.38897021475
 20
-61.19195826378188
 30
0.0
 10
217.38897021475
 20
-61.41244437483786
 30
0.0
 10
217.38897021475
 20
-61.64671086783485
 30
0.0
 10
217.4234211696025
 20
-61.83464082655523
 30
0.0
 10
217.4923230793075
 20
-61.97571748667621
 30
0.0
 10
217.5612249890125
 20
-62.11696640157145
 30
0.0
 10
217.6852484264815
 20
-62.18759085901908
 30
0.0
 10
217.8643933917145
 20
-62.18759085901908
 30
0.0
 10
217.9608560653015
 20
-62.18759085901908
 30
0.0
 10
218.1072726234246
 20
-62.11886120408834
 30
0.0
 10
218.3036430660838
 20
-61.98088512990409
 30
0.0
 10
218.5000135087431
 20
-61.84308131049409
 30
0.0
 10
218.7136094288286
 20
-61.66927624326324
 30
0.0
 10
218.9444308263403
 20
-61.45895316388873
 30
0.0
 10
219.175252223852
 20
-61.24880233928849
 30
0.0
 10
219.4043510736211
 20
-61.01970348951938
 30
0.0
 10
219.6317273756477
 20
-60.77165661458139
 30
0.0
 10
219.8591036776741
 20
-60.5236097396434
 30
0.0
 10
220.0485839293629
 20
-60.28589815116117
 30
0.0
 10
220.2001681307138
 20
-60.05852184913468
 30
0.0
 10
220.3655327140058
 20
-59.81047497419669
 30
0.0
 10
220.5308972972979
 20
-59.54537487660672
 30
0.0
 10
220.6962618805898
 20
-59.26270479204196
 30
0.0
 10
220.8616264638818
 20
-58.98020696225148
 30
0.0
 10
221.0132106652328
 20
-58.69426403697574
 30
0.0
 10
221.1510144846428
 20
-58.40487601621475
 30
0.0
 10
221.2888183040528
 20
-58.11548799545377
 30
0.0
 10
221.4007839073234
 20
-57.8297173249523
 30
0.0
 10
221.4869112944547
 20
-57.54704724038755
 30
0.0
 10
221.5730386815859
 20
-57.26454941059706
 30
0.0
 10
221.6161023751515
 20
-56.99927705823282
 30
0.0
 10
221.6161023751515
 20
-56.75123018329483
 30
0.0
  0
SPLINE
  5
8D
330
79
100
AcDbEntity
  8
Layer 1
 62
   250
420
  2301728
370
     9
100
AcDbSpline
210
0.0
220
0.0
230
1.0
 70
     9
 71
     3
 72
   179
 73
   175
 74
     0
 42
0.0000000001
 43
0.0000000001
 40
0.0
 40
0.0
 40
0.0
 40
0.0
 40
1.0
 40
1.0
 40
1.0
 40
2.0
 40
2.0
 40
2.0
 40
3.0
 40
3.0
 40
3.0
 40
4.0
 40
4.0
 40
4.0
 40
5.0
 40
5.0
 40
5.0
 40
6.0
 40
6.0
 40
6.0
 40
7.0
 40
7.0
 40
7.0
 40
8.0
 40
8.0
 40
8.0
 40
9.0
 40
9.0
 40
9.0
 40
10.0
 40
10.0
 40
10.0
 40
11.0
 40
11.0
 40
11.0
 40
12.0
 40
12.0
 40
12.0
 40
13.0
 40
13.0
 40
13.0
 40
14.0
 40
14.0
 40
14.0
 40
15.0
 40
15.0
 40
15.0
 40
16.0
 40
16.0
 40
16.0
 40
17.0
 40
17.0
 40
17.0
 40
18.0
 40
18.0
 40
18.0
 40
19.0
 40
19.0
 40
19.0
 40
20.0
 40
20.0
 40
20.0
 40
21.0
 40
21.0
 40
21.0
 40
22.0
 40
22.0
 40
22.0
 40
23.0
 40
23.0
 40
23.0
 40
24.0
 40
24.0
 40
24.0
 40
25.0
 40
25.0
 40
25.0
 40
26.0
 40
26.0
 40
26.0
 40
27.0
 40
27.0
 40
27.0
 40
28.0
 40
28.0
 40
28.0
 40
29.0
 40
29.0
 40
29.0
 40
30.0
 40
30.0
 40
30.0
 40
31.0
 40
31.0
 40
31.0
 40
32.0
 40
32.0
 40
32.0
 40
33.0
 40
33.0
 40
33.0
 40
34.0
 40
34.0
 40
34.0
 40
35.0
 40
35.0
 40
35.0
 40
36.0
 40
36.0
 40
36.0
 40
37.0
 40
37.0
 40
37.0
 40
38.0
 40
38.0
 40
38.0
 40
39.0
 40
39.0
 40
39.0
 40
40.0
 40
40.0
 40
40.0
 40
41.0
 40
41.0
 40
41.0
 40
42.0
 40
42.0
 40
42.0
 40
43.0
 40
43.0
 40
43.0
 40
44.0
 40
44.0
 40
44.0
 40
45.0
 40
45.0
 40
45.0
 40
46.0
 40
46.0
 40
46.0
 40
47.0
 40
47.0
 40
47.0
 40
48.0
 40
48.0
 40
48.0
 40
49.0
 40
49.0
 40
49.0
 40
50.0
 40
50.0
 40
50.0
 40
51.0
 40
51.0
 40
51.0
 40
52.0
 40
52.0
 40
52.0
 40
53.0
 40
53.0
 40
53.0
 40
54.0
 40
54.0
 40
54.0
 40
55.0
 40
55.0
 40
55.0
 40
56.0
 40
56.0
 40
56.0
 40
57.0
 40
57.0
 40
57.0
 40
58.0
 40
58.0
 40
58.0
 40
58.0
 10
227.8172742486013
 20
-61.18506807281137
 30
0.0
 10
227.8172742486013
 20
-61.30909151028037
 30
0.0
 10
227.7931585802045
 20
-61.45223522769249
 30
0.0
 10
227.744927243411
 20
-61.61398246072497
 30
0.0
 10
227.6966959066175
 20
-61.77590194853172
 30
0.0
 10
227.6140136149715
 20
-61.93954398408109
 30
0.0
 10
227.496880368473
 20
-62.10490856737308
 30
0.0
 10
227.3659667400335
 20
-62.32556693320333
 30
0.0
 10
227.193711965771
 20
-62.55104843271293
 30
0.0
 10
226.9801160456855
 20
-62.78186983022467
 30
0.0
 10
226.7665201256
 20
-63.01286348251068
 30
0.0
 10
226.5236408938899
 20
-63.22473685485354
 30
0.0
 10
226.2514783505552
 20
-63.41748994725326
 30
0.0
 10
225.9793158072205
 20
-63.61041529442726
 30
0.0
 10
225.683037595489
 20
-63.76733939378039
 30
0.0
 10
225.3626437153608
 20
-63.88774548098987
 30
0.0
 10
225.0422498352325
 20
-64.00832382297362
 30
0.0
 10
224.7063530254207
 20
-64.06861299396549
 30
0.0
 10
224.3549532859252
 20
-64.06861299396549
 30
0.0
 10
223.9553222096362
 20
-64.06861299396549
 30
0.0
 10
223.6004773746554
 20
-63.9859307023195
 30
0.0
 10
223.290418780983
 20
-63.82056611902751
 30
0.0
 10
222.9803601873105
 20
-63.65520153573551
 30
0.0
 10
222.711642739461
 20
-63.42954778145164
 30
0.0
 10
222.4842664374345
 20
-63.14360485617591
 30
0.0
 10
222.256890135408
 20
-62.85783418567444
 30
0.0
 10
222.0743000746898
 20
-62.52710501909045
 30
0.0
 10
221.9364962552798
 20
-62.15141735642395
 30
0.0
 10
221.7986924358698
 20
-61.77590194853172
 30
0.0
 10
221.705674857768
 20
-61.38143851547061
 30
0.0
 10
221.6574435209746
 20
-60.96802705724063
 30
0.0
 10
221.3680555002135
 20
-61.39539115218588
 30
0.0
 10
221.0390488813722
 20
-61.80363496718798
 30
0.0
 10
220.6704236644505
 20
-62.19275850224695
 30
0.0
 10
220.3017984475287
 20
-62.58205429208018
 30
0.0
 10
219.9159477531807
 20
-62.92656384060517
 30
0.0
 10
219.5128715814065
 20
-63.2262871478219
 30
0.0
 10
219.1097954096323
 20
-63.52601045503863
 30
0.0
 10
218.7015515946302
 20
-63.76372204352088
 30
0.0
 10
218.2881401364002
 20
-63.93942191326861
 30
0.0
 10
217.8747286781702
 20
-64.11512178301636
 30
0.0
 10
217.4819877928517
 20
-64.20297171789023
 30
0.0
 10
217.1099174804448
 20
-64.20297171789023
 30
0.0
 10
216.8412000325953
 20
-64.20297171789023
 30
0.0
 10
216.5862629666868
 20
-64.14268254689836
 30
0.0
 10
216.3451062827193
 20
-64.02210420491461
 30
0.0
 10
216.1039495987518
 20
-63.90169811770513
 30
0.0
 10
215.8920762264089
 20
-63.7378838273815
 30
0.0
 10
215.7094861656907
 20
-63.53117809826652
 30
0.0
 10
215.5268961049725
 20
-63.32447236915152
 30
0.0
 10
215.3804795468493
 20
-63.08676078066929
 30
0.0
 10
215.2702364913213
 20
-62.81804333281979
 30
0.0
 10
215.1599934357934
 20
-62.5493258849703
 30
0.0
 10
215.1048719080293
 20
-62.26682805517982
 30
0.0
 10
215.1048719080293
 20
-61.97054984344834
 30
0.0
 10
215.1048719080293
 20
-61.70872258656935
 30
0.0
 10
215.1272650286835
 20
-61.43156465478099
 30
0.0
 10
215.1720512699917
 20
-61.1385592837605
 30
0.0
 10
215.2168375112999
 20
-60.84572616751426
 30
0.0
 10
215.2909070642329
 20
-60.53049993061391
 30
0.0
 10
215.3942599287903
 20
-60.19288057305942
 30
0.0
 10
215.4976127933478
 20
-59.8554334702792
 30
0.0
 10
215.6336940650152
 20
-59.48663599858321
 30
0.0
 10
215.8025037437925
 20
-59.08700492229423
 30
0.0
 10
215.9713134225697
 20
-58.6875461007795
 30
0.0
 10
216.1797416994273
 20
-58.24984671937851
 30
0.0
 10
216.4277885743653
 20
-57.77442354241403
 30
0.0
 10
216.7033962131853
 20
-57.24387883768557
 30
0.0
 10
217.0375704752545
 20
-56.73934460387072
 30
0.0
 10
217.430311360573
 20
-56.26030407664673
 30
0.0
 10
217.8230522458914
 20
-55.781435804197
 30
0.0
 10
218.2226833221804
 20
-55.36113415499652
 30
0.0
 10
218.6292045894399
 20
-54.9993991290453
 30
0.0
 10
219.0357258566994
 20
-54.63766410309406
 30
0.0
 10
219.4284667420179
 20
-54.34999863007569
 30
0.0
 10
219.8074272453954
 20
-54.13640270999021
 30
0.0
 10
220.1863877487729
 20
-53.92297904467898
 30
0.0
 10
220.4964463424453
 20
-53.81600882986197
 30
0.0
 10
220.7376030264128
 20
-53.81600882986197
 30
0.0
 10
220.8133951270883
 20
-53.81600882986197
 30
0.0
 10
220.897799966477
 20
-53.82806666406034
 30
0.0
 10
220.9908175445787
 20
-53.85218233245709
 30
0.0
 10
221.0838351226804
 20
-53.8764702556281
 30
0.0
 10
221.1716850575543
 20
-53.90385876473584
 30
0.0
 10
221.2543673492003
 20
-53.93486462410309
 30
0.0
 10
221.3370496408463
 20
-53.96587048347034
 30
0.0
 10
221.4093966460366
 20
-53.99532604986923
 30
0.0
 10
221.471408364771
 20
-54.02271455897697
 30
0.0
 10
221.5334200835056
 20
-54.05027532285895
 30
0.0
 10
221.5747612293285
 20
-54.06405570479996
 30
0.0
 10
221.59543180224
 20
-54.06405570479996
 30
0.0
 10
221.6023219932106
 20
-54.06405570479996
 30
0.0
 10
221.6264376616073
 20
-54.05027532285895
 30
0.0
 10
221.6677788074303
 20
-54.02271455897697
 30
0.0
 10
221.7091199532533
 20
-53.99532604986923
 30
0.0
 10
221.760796385532
 20
-53.96587048347034
 30
0.0
 10
221.8228081042665
 20
-53.93486462410309
 30
0.0
 10
221.8848198230011
 20
-53.90385876473584
 30
0.0
 10
221.9519991849634
 20
-53.8764702556281
 30
0.0
 10
222.0243461901536
 20
-53.85218233245709
 30
0.0
 10
222.0966931953439
 20
-53.82806666406034
 30
0.0
 10
222.1707627482768
 20
-53.81600882986197
 30
0.0
 10
222.2465548489523
 20
-53.81600882986197
 30
0.0
 10
222.3636880954507
 20
-53.81600882986197
 30
0.0
 10
222.4894340806624
 20
-53.84873723697184
 30
0.0
 10
222.6237928045871
 20
-53.91419405119159
 30
0.0
 10
222.7581515285119
 20
-53.9798231201856
 30
0.0
 10
222.8873426092087
 20
-54.06577825254259
 30
0.0
 10
223.0113660466777
 20
-54.17257621258533
 30
0.0
 10
223.1353894841467
 20
-54.27954642740234
 30
0.0
 10
223.2456325396747
 20
-54.39840222164345
 30
0.0
 10
223.3420952132617
 20
-54.52914359530868
 30
0.0
 10
223.4385578868487
 20
-54.66005722374818
 30
0.0
 10
223.5005696055832
 20
-54.79114310696194
 30
0.0
 10
223.5281303694652
 20
-54.92188448062717
 30
0.0
 10
223.5488009423767
 20
-55.00456677227316
 30
0.0
 10
223.5660264198029
 20
-55.06141084777979
 30
0.0
 10
223.579806801744
 20
-55.09241670714704
 30
0.0
 10
223.5935871836849
 20
-55.12342256651429
 30
0.0
 10
223.607367565626
 20
-55.14926078265366
 30
0.0
 10
223.621147947567
 20
-55.16993135556516
 30
0.0
 10
223.7107204301834
 20
-55.25261364721115
 30
0.0
 10
223.7830674353737
 20
-55.34408093234453
 30
0.0
 10
223.8381889631377
 20
-55.44381644664252
 30
0.0
 10
223.8933104909017
 20
-55.54372421571477
 30
0.0
 10
223.9208712547837
 20
-55.68325058286738
 30
0.0
 10
223.9208712547837
 20
-55.86239554810037
 30
0.0
 10
223.9208712547837
 20
-55.94507783974638
 30
0.0
 10
223.8984781341295
 20
-56.09493949335473
 30
0.0
 10
223.8536918928213
 20
-56.31198050892548
 30
0.0
 10
223.8089056515131
 20
-56.52902152449622
 30
0.0
 10
223.7572292192343
 20
-56.77551810646584
 30
0.0
 10
223.698662595985
 20
-57.05095349051156
 30
0.0
 10
223.6400959727358
 20
-57.32656112933156
 30
0.0
 10
223.5884195404571
 20
-57.61422660234991
 30
0.0
 10
223.5436332991489
 20
-57.91394990956665
 30
0.0
 10
223.4988470578406
 20
-58.21367321678339
 30
0.0
 10
223.4764539371865
 20
-58.48755830786075
 30
0.0
 10
223.4764539371865
 20
-58.73560518279874
 30
0.0
 10
223.4764539371865
 20
-59.37639294305521
 30
0.0
 10
223.5160725352668
 20
-59.91555038649681
 30
0.0
 10
223.5953097314276
 20
-60.35307751312354
 30
0.0
 10
223.6745469275883
 20
-60.79077689452454
 30
0.0
 10
223.7761772444032
 20
-61.14372692698838
 30
0.0
 10
223.9002006818722
 20
-61.41244437483786
 30
0.0
 10
224.0242241193412
 20
-61.68116182268735
 30
0.0
 10
224.1654730342364
 20
-61.87236462211871
 30
0.0
 10
224.3239474265579
 20
-61.98605277313196
 30
0.0
 10
224.4824218188794
 20
-62.09974092414521
 30
0.0
 10
224.6408962112009
 20
-62.15658499965183
 30
0.0
 10
224.7993706035224
 20
-62.15658499965183
 30
0.0
 10
225.2196722527229
 20
-62.15658499965183
 30
0.0
 10
225.5796847309315
 20
-62.07045761252058
 30
0.0
 10
225.8794080381482
 20
-61.8982028382581
 30
0.0
 10
226.1791313453649
 20
-61.72612031876986
 30
0.0
 10
226.4426811499866
 20
-61.49168157099861
 30
0.0
 10
226.6700574520131
 20
-61.19540335926712
 30
0.0
 10
226.7320691707475
 20
-61.11961125859163
 30
0.0
 10
226.7854681507689
 20
-61.05243189662926
 30
0.0
 10
226.8302543920772
 20
-60.99386527338001
 30
0.0
 10
226.8750406333854
 20
-60.93547090490503
 30
0.0
 10
226.9198268746936
 20
-60.88534476559464
 30
0.0
 10
226.9646131160019
 20
-60.84400361977164
 30
0.0
 10
227.0093993573102
 20
-60.80266247394864
 30
0.0
 10
227.0610757895889
 20
-60.77165661458139
 30
0.0
 10
227.1196424128381
 20
-60.75098604166989
 30
0.0
 10
227.1782090360874
 20
-60.7303154687584
 30
0.0
 10
227.248833493535
 20
-60.71998018230265
 30
0.0
 10
227.331515785181
 20
-60.71998018230265
 30
0.0
 10
227.4348686497385
 20
-60.71998018230265
 30
0.0
 10
227.5416666097813
 20
-60.76304387586827
 30
0.0
 10
227.6519096653093
 20
-60.84917126299951
 30
0.0
 10
227.7621527208373
 20
-60.93547090490503
 30
0.0
 10
227.8172742486013
 20
-61.04726425340138
 30
0.0
 10
227.8172742486013
 20
-61.18506807281137
 30
0.0
  0
ENDBLK
  5
7C
330
79
100
AcDbEntity
  8
0
100
AcDbBlockEnd
  0
ENDSEC
  0
SECTION
  2
ENTITIES
  0
INSERT
  5
7A
330
70
100
AcDbEntity
  8
Layer 1
100
AcDbBlockReference
  2
Block_0
 10
0.0
 20
0.0
 30
0.0
  0
ENDSEC
  0
SECTION
  2
OBJECTS
  0
DICTIONARY
  5
C
330
0
100
AcDbDictionary
281
     1
  3
ACAD_COLOR
350
63
  3
ACAD_DETAILVIEWSTYLE
350
6A
  3
ACAD_GROUP
350
D
  3
ACAD_LAYOUT
350
62
  3
ACAD_MATERIAL
350
10
  3
ACAD_MLEADERSTYLE
350
66
  3
ACAD_MLINESTYLE
350
5F
  3
ACAD_PLOTSETTINGS
350
61
  3
ACAD_PLOTSTYLENAME
350
E
  3
ACAD_SCALELIST
350
42
  3
ACAD_SECTIONVIEWSTYLE
350
68
  3
ACAD_TABLESTYLE
350
64
  3
ACAD_VISUALSTYLE
350
29
  3
ACDB_RECOMPOSE_DATA
350
96
  3
AcDbVariableDictionary
350
8E
  0
DICTIONARY
  5
63
102
{ACAD_REACTORS
330
C
102
}
330
C
100
AcDbDictionary
281
     1
  0
DICTIONARY
  5
6A
102
{ACAD_REACTORS
330
C
102
}
330
C
100
AcDbDictionary
281
     1
  3
Imperial24
350
6B
  0
DICTIONARY
  5
D
102
{ACAD_REACTORS
330
C
102
}
330
C
100
AcDbDictionary
281
     1
  0
DICTIONARY
  5
62
102
{ACAD_REACTORS
330
C
102
}
330
C
100
AcDbDictionary
281
     1
  3
Layout1
350
6F
  3
Layout2
350
77
  3
Model
350
73
  0
DICTIONARY
  5
10
102
{ACAD_REACTORS
330
C
102
}
330
C
100
AcDbDictionary
281
     1
  3
ByBlock
350
19
  3
ByLayer
350
11
  3
Global
350
21
  0
DICTIONARY
  5
66
102
{ACAD_REACTORS
330
C
102
}
330
C
100
AcDbDictionary
281
     1
  3
Standard
350
67
  0
DICTIONARY
  5
5F
102
{ACAD_REACTORS
330
C
102
}
330
C
100
AcDbDictionary
281
     1
  3
Standard
350
60
  0
DICTIONARY
  5
61
102
{ACAD_REACTORS
330
C
102
}
330
C
100
AcDbDictionary
281
     1
  0
ACDBDICTIONARYWDFLT
  5
E
102
{ACAD_REACTORS
330
C
102
}
330
C
100
AcDbDictionary
281
     1
  3
Normal
350
F
100
AcDbDictionaryWithDefault
340
F
  0
DICTIONARY
  5
42
102
{ACAD_REACTORS
330
C
102
}
330
C
100
AcDbDictionary
281
     1
  3
A0
350
43
  3
A1
350
44
  3
A2
350
45
  3
A3
350
46
  3
A4
350
47
  3
A5
350
48
  3
A6
350
49
  3
A7
350
4A
  3
A8
350
4B
  3
A9
350
4C
  3
B0
350
4D
  3
B1
350
4E
  3
B2
350
4F
  3
B3
350
50
  3
B4
350
51
  3
B5
350
52
  3
B6
350
53
  0
DICTIONARY
  5
68
102
{ACAD_REACTORS
330
C
102
}
330
C
100
AcDbDictionary
281
     1
  3
Imperial24
350
69
  0
DICTIONARY
  5
64
102
{ACAD_REACTORS
330
C
102
}
330
C
100
AcDbDictionary
281
     1
  3
Standard
350
65
  0
DICTIONARY
  5
29
102
{ACAD_REACTORS
330
C
102
}
330
C
100
AcDbDictionary
281
     1
  3
2dWireframe
350
2F
  3
Basic
350
2E
  3
Brighten
350
35
  3
ColorChange
350
39
  3
Conceptual
350
32
  3
Dim
350
34
  3
EdgeColorOff
350
41
  3
Facepattern
350
38
  3
Flat
350
2A
  3
FlatWithEdges
350
2B
  3
Gouraud
350
2C
  3
GouraudWithEdges
350
2D
  3
Hidden
350
31
  3
JitterOff
350
3F
  3
Linepattern
350
37
  3
OverhangOff
350
40
  3
Realistic
350
33
  3
Shaded
350
3E
  3
Shaded with edges
350
3D
  3
Shades of Gray
350
3A
  3
Sketchy
350
3B
  3
Thicken
350
36
  3
Wireframe
350
30
  3
X-Ray
350
3C
  0
XRECORD
  5
96
102
{ACAD_REACTORS
330
C
102
}
330
C
100
AcDbXrecord
280
     1
 90
        1
330
65
  0
DICTIONARY
  5
8E
102
{ACAD_REACTORS
330
C
102
}
330
C
100
AcDbDictionary
281
     1
  3
CANNOSCALE
350
93
  3
CMLEADERSTYLE
350
90
  3
CTABLESTYLE
350
8F
  3
CVIEWDETAILSTYLE
350
91
  3
CVIEWSECTIONSTYLE
350
92
  0
ACDBDETAILVIEWSTYLE
  5
6B
102
{ACAD_REACTORS
330
6A
102
}
330
6A
100
AcDbModelDocViewStyle
 70
     0
  3
Imperial24
290
     1
300
Imperial24
 90
        0
100
AcDbDetailViewStyle
 70
     0
 71
     0
 90
        3
 71
     1
340
55
 62
   256
 40
0.24
340
0
 62
   256
 40
0.24
300

 40
0.36
280
     3
 71
     2
340
5D
 90
       25
 62
   256
 71
     3
340
55
 62
   256
 40
0.24
 90
        1
 40
0.75
 90
        1
300
%<\AcVar ViewType \f "%tc1">% %<\AcVar ViewDetailId>%\PSCALE %<\AcVar ViewScale \f "%sn">%
 71
     4
340
5D
 90
       25
 62
   256
340
5D
 90
       25
 62
   256
280
     0
  0
LAYOUT
  5
6F
102
{ACAD_REACTORS
330
62
102
}
330
62
100
AcDbPlotSettings
  1

  2

  4

  6

 40
0.0
 41
0.0
 42
0.0
 43
0.0
 44
0.0
 45
0.0
 46
0.0
 47
0.0
 48
0.0
 49
0.0
140
0.0
141
0.0
142
1.0
143
1.0
 70
   688
 72
     0
 73
     0
 74
     5
  7

 75
    16
147
1.0
 76
     0
 77
     2
 78
   300
148
0.0
149
0.0
100
AcDbLayout
  1
Layout1
 70
     1
 71
     1
 10
0.0
 20
0.0
 11
12.0
 21
9.0
 12
0.0
 22
0.0
 32
0.0
 14
0.0
 24
0.0
 34
0.0
 15
0.0
 25
0.0
 35
0.0
146
0.0
 13
0.0
 23
0.0
 33
0.0
 16
1.0
 26
0.0
 36
0.0
 17
0.0
 27
1.0
 37
0.0
 76
     0
330
6C
  0
LAYOUT
  5
77
102
{ACAD_REACTORS
330
62
102
}
330
62
100
AcDbPlotSettings
  1

  2

  4

  6

 40
0.0
 41
0.0
 42
0.0
 43
0.0
 44
0.0
 45
0.0
 46
0.0
 47
0.0
 48
0.0
 49
0.0
140
0.0
141
0.0
142
1.0
143
1.0
 70
   688
 72
     0
 73
     0
 74
     5
  7

 75
    16
147
1.0
 76
     0
 77
     2
 78
   300
148
0.0
149
0.0
100
AcDbLayout
  1
Layout2
 70
     1
 71
     2
 10
0.0
 20
0.0
 11
12.0
 21
9.0
 12
0.0
 22
0.0
 32
0.0
 14
0.0
 24
0.0
 34
0.0
 15
0.0
 25
0.0
 35
0.0
146
0.0
 13
0.0
 23
0.0
 33
0.0
 16
1.0
 26
0.0
 36
0.0
 17
0.0
 27
1.0
 37
0.0
 76
     0
330
74
  0
LAYOUT
  5
73
102
{ACAD_REACTORS
330
62
102
}
330
62
100
AcDbPlotSettings
  1

  2

  4

  6

 40
0.0
 41
0.0
 42
0.0
 43
0.0
 44
0.0
 45
0.0
 46
0.0
 47
0.0
 48
0.0
 49
0.0
140
0.0
141
0.0
142
1.0
143
1.0
 70
  1712
 72
     0
 73
     0
 74
     0
  7

 75
     0
147
1.0
 76
     0
 77
     2
 78
   300
148
0.0
149
0.0
100
AcDbLayout
  1
Model
 70
     1
 71
     0
 10
0.0
 20
0.0
 11
12.0
 21
9.0
 12
0.0
 22
0.0
 32
0.0
 14
0.0
 24
0.0
 34
0.0
 15
0.0
 25
0.0
 35
0.0
146
0.0
 13
0.0
 23
0.0
 33
0.0
 16
1.0
 26
0.0
 36
0.0
 17
0.0
 27
1.0
 37
0.0
 76
     0
330
70
  0
MATERIAL
  5
19
102
{ACAD_XDICTIONARY
360
1A
102
}
102
{ACAD_REACTORS
330
10
102
}
330
10
100
AcDbMaterial
  1
ByBlock
 72
     0
 43
0.0208333333333333
 43
0.0
 43
0.0
 43
0.0
 43
0.0
 43
0.0208333333333333
 43
0.0
 43
0.0
 43
0.0
 43
0.0
 43
1.0
 43
0.0
 43
0.0
 43
0.0
 43
0.0
 43
1.0
 77
     0
 47
0.0208333333333333
 47
0.0
 47
0.0
 47
0.0
 47
0.0
 47
0.0208333333333333
 47
0.0
 47
0.0
 47
0.0
 47
0.0
 47
1.0
 47
0.0
 47
0.0
 47
0.0
 47
0.0
 47
1.0
171
     0
 49
0.0208333333333333
 49
0.0
 49
0.0
 49
0.0
 49
0.0
 49
0.0208333333333333
 49
0.0
 49
0.0
 49
0.0
 49
0.0
 49
1.0
 49
0.0
 49
0.0
 49
0.0
 49
0.0
 49
1.0
175
     0
142
0.0208333333333333
142
0.0
142
0.0
142
0.0
142
0.0
142
0.0208333333333333
142
0.0
142
0.0
142
0.0
142
0.0
142
1.0
142
0.0
142
0.0
142
0.0
142
0.0
142
1.0
179
     0
144
0.0208333333333333
144
0.0
144
0.0
144
0.0
144
0.0
144
0.0208333333333333
144
0.0
144
0.0
144
0.0
144
0.0
144
1.0
144
0.0
144
0.0
144
0.0
144
0.0
144
1.0
147
0.0208333333333333
147
0.0
147
0.0
147
0.0
147
0.0
147
0.0208333333333333
147
0.0
147
0.0
147
0.0
147
0.0
147
1.0
147
0.0
147
0.0
147
0.0
147
0.0
147
1.0
  0
MATERIAL
  5
11
102
{ACAD_XDICTIONARY
360
12
102
}
102
{ACAD_REACTORS
330
10
102
}
330
10
100
AcDbMaterial
  1
ByLayer
 72
     0
 43
0.0208333333333333
 43
0.0
 43
0.0
 43
0.0
 43
0.0
 43
0.0208333333333333
 43
0.0
 43
0.0
 43
0.0
 43
0.0
 43
1.0
 43
0.0
 43
0.0
 43
0.0
 43
0.0
 43
1.0
 77
     0
 47
0.0208333333333333
 47
0.0
 47
0.0
 47
0.0
 47
0.0
 47
0.0208333333333333
 47
0.0
 47
0.0
 47
0.0
 47
0.0
 47
1.0
 47
0.0
 47
0.0
 47
0.0
 47
0.0
 47
1.0
171
     0
 49
0.0208333333333333
 49
0.0
 49
0.0
 49
0.0
 49
0.0
 49
0.0208333333333333
 49
0.0
 49
0.0
 49
0.0
 49
0.0
 49
1.0
 49
0.0
 49
0.0
 49
0.0
 49
0.0
 49
1.0
175
     0
142
0.0208333333333333
142
0.0
142
0.0
142
0.0
142
0.0
142
0.0208333333333333
142
0.0
142
0.0
142
0.0
142
0.0
142
1.0
142
0.0
142
0.0
142
0.0
142
0.0
142
1.0
179
     0
144
0.0208333333333333
144
0.0
144
0.0
144
0.0
144
0.0
144
0.0208333333333333
144
0.0
144
0.0
144
0.0
144
0.0
144
1.0
144
0.0
144
0.0
144
0.0
144
0.0
144
1.0
147
0.0208333333333333
147
0.0
147
0.0
147
0.0
147
0.0
147
0.0208333333333333
147
0.0
147
0.0
147
0.0
147
0.0
147
1.0
147
0.0
147
0.0
147
0.0
147
0.0
147
1.0
  0
MATERIAL
  5
21
102
{ACAD_XDICTIONARY
360
22
102
}
102
{ACAD_REACTORS
330
10
102
}
330
10
100
AcDbMaterial
  1
Global
 72
     0
 43
0.0208333333333333
 43
0.0
 43
0.0
 43
0.0
 43
0.0
 43
0.0208333333333333
 43
0.0
 43
0.0
 43
0.0
 43
0.0
 43
1.0
 43
0.0
 43
0.0
 43
0.0
 43
0.0
 43
1.0
 77
     0
 47
0.0208333333333333
 47
0.0
 47
0.0
 47
0.0
 47
0.0
 47
0.0208333333333333
 47
0.0
 47
0.0
 47
0.0
 47
0.0
 47
1.0
 47
0.0
 47
0.0
 47
0.0
 47
0.0
 47
1.0
171
     0
 49
0.0208333333333333
 49
0.0
 49
0.0
 49
0.0
 49
0.0
 49
0.0208333333333333
 49
0.0
 49
0.0
 49
0.0
 49
0.0
 49
1.0
 49
0.0
 49
0.0
 49
0.0
 49
0.0
 49
1.0
175
     0
142
0.0208333333333333
142
0.0
142
0.0
142
0.0
142
0.0
142
0.0208333333333333
142
0.0
142
0.0
142
0.0
142
0.0
142
1.0
142
0.0
142
0.0
142
0.0
142
0.0
142
1.0
179
     0
144
0.0208333333333333
144
0.0
144
0.0
144
0.0
144
0.0
144
0.0208333333333333
144
0.0
144
0.0
144
0.0
144
0.0
144
1.0
144
0.0
144
0.0
144
0.0
144
0.0
144
1.0
147
0.0208333333333333
147
0.0
147
0.0
147
0.0
147
0.0
147
0.0208333333333333
147
0.0
147
0.0
147
0.0
147
0.0
147
1.0
147
0.0
147
0.0
147
0.0
147
0.0
147
1.0
  0
MLEADERSTYLE
  5
67
102
{ACAD_REACTORS
330
66
102
}
330
66
100
AcDbMLeaderStyle
179
     2
170
     2
171
     1
172
     0
 90
        2
 40
0.0
 41
0.0
173
     1
 91
-1056964608
340
5B
 92
       -2
290
     1
 42
0.09
291
     1
 43
0.36
  3
Standard
 44
0.18
300

342
55
174
     1
178
     6
175
     1
176
     0
 93
-1056964608
 45
0.18
292
     0
297
     0
 46
0.18
 94
-1056964608
 47
1.0
 49
1.0
140
1.0
293
     1
141
0.0
294
     1
177
     0
142
1.0
295
     1
296
     0
143
0.125
271
     0
272
     9
273
     9
298
     1
  0
MLINESTYLE
  5
60
102
{ACAD_REACTORS
330
5F
102
}
330
5F
100
AcDbMlineStyle
  2
STANDARD
 70
     0
  3

 62
   256
 51
90.0
 52
90.0
 71
     2
 49
0.5
 62
   256
  6
BYLAYER
 49
-0.5
 62
   256
  6
BYLAYER
  0
ACDBPLACEHOLDER
  5
F
102
{ACAD_REACTORS
330
E
102
}
330
E
  0
SCALE
  5
43
102
{ACAD_REACTORS
330
42
102
}
330
42
100
AcDbScale
 70
     0
300
1:1
140
1.0
141
1.0
290
     1
  0
SCALE
  5
44
102
{ACAD_REACTORS
330
42
102
}
330
42
100
AcDbScale
 70
     0
300
1/128" = 1'-0"
140
0.0078125
141
12.0
290
     0
  0
SCALE
  5
45
102
{ACAD_REACTORS
330
42
102
}
330
42
100
AcDbScale
 70
     0
300
1/64" = 1'-0"
140
0.015625
141
12.0
290
     0
  0
SCALE
  5
46
102
{ACAD_REACTORS
330
42
102
}
330
42
100
AcDbScale
 70
     0
300
1/32" = 1'-0"
140
0.03125
141
12.0
290
     0
  0
SCALE
  5
47
102
{ACAD_REACTORS
330
42
102
}
330
42
100
AcDbScale
 70
     0
300
1/16" = 1'-0"
140
0.0625
141
12.0
290
     0
  0
SCALE
  5
48
102
{ACAD_REACTORS
330
42
102
}
330
42
100
AcDbScale
 70
     0
300
3/32" = 1'-0"
140
0.09375
141
12.0
290
     0
  0
SCALE
  5
49
102
{ACAD_REACTORS
330
42
102
}
330
42
100
AcDbScale
 70
     0
300
1/8" = 1'-0"
140
0.125
141
12.0
290
     0
  0
SCALE
  5
4A
102
{ACAD_REACTORS
330
42
102
}
330
42
100
AcDbScale
 70
     0
300
3/16" = 1'-0"
140
0.1875
141
12.0
290
     0
  0
SCALE
  5
4B
102
{ACAD_REACTORS
330
42
102
}
330
42
100
AcDbScale
 70
     0
300
1/4" = 1'-0"
140
0.25
141
12.0
290
     0
  0
SCALE
  5
4C
102
{ACAD_REACTORS
330
42
102
}
330
42
100
AcDbScale
 70
     0
300
3/8" = 1'-0"
140
0.375
141
12.0
290
     0
  0
SCALE
  5
4D
102
{ACAD_REACTORS
330
42
102
}
330
42
100
AcDbScale
 70
     0
300
1/2" = 1'-0"
140
0.5
141
12.0
290
     0
  0
SCALE
  5
4E
102
{ACAD_REACTORS
330
42
102
}
330
42
100
AcDbScale
 70
     0
300
3/4" = 1'-0"
140
0.75
141
12.0
290
     0
  0
SCALE
  5
4F
102
{ACAD_REACTORS
330
42
102
}
330
42
100
AcDbScale
 70
     0
300
1" = 1'-0"
140
1.0
141
12.0
290
     0
  0
SCALE
  5
50
102
{ACAD_REACTORS
330
42
102
}
330
42
100
AcDbScale
 70
     0
300
1-1/2" = 1'-0"
140
1.5
141
12.0
290
     0
  0
SCALE
  5
51
102
{ACAD_REACTORS
330
42
102
}
330
42
100
AcDbScale
 70
     0
300
3" = 1'-0"
140
3.0
141
12.0
290
     0
  0
SCALE
  5
52
102
{ACAD_REACTORS
330
42
102
}
330
42
100
AcDbScale
 70
     0
300
6" = 1'-0"
140
6.0
141
12.0
290
     0
  0
SCALE
  5
53
102
{ACAD_REACTORS
330
42
102
}
330
42
100
AcDbScale
 70
     0
300
1'-0" = 1'-0"
140
12.0
141
12.0
290
     0
  0
ACDBSECTIONVIEWSTYLE
  5
69
102
{ACAD_REACTORS
330
68
102
}
330
68
100
AcDbModelDocViewStyle
 70
     0
  3
Imperial24
290
     1
300
Imperial24
 90
        0
100
AcDbSectionViewStyle
 70
     0
 71
     0
 90
       78
 71
     1
340
55
 62
   256
 40
0.24
340
0
340
0
 62
   256
 40
0.24
300
I, O, Q, S, X, Z
 40
0.48
 90
        3
 40
0.18
 90
        1
 71
     2
340
5D
 90
       25
 62
   256
340
5D
 90
       50
 62
   256
 40
0.24
 40
0.0
 40
0.24
 71
     3
340
55
 62
   256
 40
0.24
 90
        1
 40
0.75
 90
        1
300
%<\AcVar ViewType \f "%tc1">% %<\AcVar ViewSectionStartId>%-%<\AcVar ViewSectionEndId>%\PSCALE %<\AcVar ViewScale \f "%sn">%
 71
     4
 62
   256
 62
   257
300
ANSI31
 40
1.0
 90
        0
290
     0
290
     0
 90
        6
 40
0.0
 40
1.570796326794896
 40
0.2617993877991494
 40
1.308996938995747
 40
-0.2617993877991494
 40
1.832595714594046
  0
TABLESTYLE
  5
65
102
{ACAD_XDICTIONARY
360
94
102
}
102
{ACAD_REACTORS
330
64
102
}
330
64
100
AcDbTableStyle
280
     0
  3
Standard
 70
     0
 71
     0
 40
0.06
 41
0.06
280
     0
281
     0
  7
Standard
140
0.18
170
     2
 62
     0
 63
     7
283
     0
 90
      512
 91
        0
  1

274
    -2
284
     1
 64
     0
275
    -2
285
     1
 65
     0
276
    -2
286
     1
 66
     0
277
    -2
287
     1
 67
     0
278
    -2
288
     1
 68
     0
279
    -2
289
     1
 69
     0
  7
Standard
140
0.25
170
     5
 62
     0
 63
     7
283
     0
 90
      512
 91
        0
  1

274
    -2
284
     1
 64
     0
275
    -2
285
     1
 65
     0
276
    -2
286
     1
 66
     0
277
    -2
287
     1
 67
     0
278
    -2
288
     1
 68
     0
279
    -2
289
     1
 69
     0
  7
Standard
140
0.18
170
     5
 62
     0
 63
     7
283
     0
 90
      512
 91
        0
  1

274
    -2
284
     1
 64
     0
275
    -2
285
     1
 65
     0
276
    -2
286
     1
 66
     0
277
    -2
287
     1
 67
     0
278
    -2
288
     1
 68
     0
279
    -2
289
     1
 69
     0
  0
VISUALSTYLE
  5
2F
102
{ACAD_REACTORS
330
29
102
}
330
29
100
AcDbVisualStyle
  2
2dWireframe
 70
     4
177
     3
291
     0
 70
    58
 90
        0
176
     1
 90
        2
176
     1
 90
        0
176
     1
 90
        0
176
     1
 40
0.6
176
     1
 40
30.0
176
     1
 62
     7
420
 16777215
176
     1
 90
        1
176
     1
 90
        4
176
     1
 62
     7
176
     1
 62
   257
176
     1
 90
        1
176
     1
 90
        1
176
     1
 40
1.0
176
     1
 90
        0
176
     1
 62
   257
176
     1
 40
1.0
176
     1
 90
        1
176
     1
 90
        6
176
     1
 90
        2
176
     1
 62
     7
176
     1
 90
        5
176
     1
 90
        0
176
     1
 90
        0
176
     1
290
     0
176
     1
 90
        1
176
     1
 40
0.0
176
     1
 90
        0
176
     1
290
     1
176
     1
290
     1
176
     1
290
     0
176
     1
290
     0
176
     1
290
     0
176
     1
290
     0
176
     1
290
     0
176
     1
290
     0
176
     1
290
     0
176
     1
 90
       50
176
     1
 40
0.0
176
     1
 40
1.0
176
     1
 90
        0
176
     1
 62
    18
420
        0
176
     1
 90
       50
176
     1
 90
        3
176
     1
 62
     5
420
      255
176
     1
290
     0
176
     1
 90
       50
176
     1
 90
       50
176
     1
 90
       50
176
     1
290
     0
176
     1
 90
       50
176
     1
 62
   256
176
     0
 40
1.0
176
     0
 90
        2
176
     1
  1
strokes_ogs.tif
176
     1
290
     0
176
     1
 40
1.0
176
     1
 40
1.0
176
     1
  0
VISUALSTYLE
  5
2E
102
{ACAD_REACTORS
330
29
102
}
330
29
100
AcDbVisualStyle
  2
Basic
 70
     7
177
     3
291
     1
 70
    58
 90
        1
176
     1
 90
        0
176
     1
 90
        1
176
     1
 90
        0
176
     1
 40
0.6
176
     1
 40
30.0
176
     1
 62
     7
420
 16777215
176
     1
 90
        0
176
     1
 90
        4
176
     1
 62
     7
176
     1
 62
   257
176
     1
 90
        1
176
     1
 90
        1
176
     1
 40
1.0
176
     1
 90
        8
176
     1
 62
     7
176
     1
 40
1.0
176
     1
 90
        1
176
     1
 90
        6
176
     1
 90
        2
176
     1
 62
     7
176
     1
 90
        5
176
     1
 90
        0
176
     1
 90
        0
176
     1
290
     0
176
     1
 90
        1
176
     1
 40
0.0
176
     1
 90
        0
176
     1
290
     0
176
     1
290
     1
176
     1
290
     1
176
     1
290
     0
176
     1
290
     0
176
     1
290
     0
176
     1
290
     0
176
     1
290
     0
176
     1
290
     0
176
     1
 90
       50
176
     1
 40
0.0
176
     1
 40
1.0
176
     1
 90
        0
176
     1
 62
    18
420
        0
176
     1
 90
       50
176
     1
 90
        3
176
     1
 62
     5
420
      255
176
     1
290
     0
176
     1
 90
       50
176
     1
 90
       50
176
     1
 90
       50
176
     1
290
     0
176
     1
 90
       50
176
     1
 62
   256
176
     0
 40
1.0
176
     0
 90
        2
176
     1
  1
strokes_ogs.tif
176
     1
290
     0
176
     1
 40
1.0
176
     1
 40
1.0
176
     1
  0
VISUALSTYLE
  5
35
102
{ACAD_REACTORS
330
29
102
}
330
29
100
AcDbVisualStyle
  2
Brighten
 70
    12
177
     3
291
     1
 70
    58
 90
        2
176
     1
 90
        2
176
     1
 90
        0
176
     1
 90
        0
176
     1
 40
0.6
176
     1
 40
30.0
176
     1
 62
     7
420
 16777215
176
     1
 90
        1
176
     1
 90
        4
176
     1
 62
     7
176
     1
 62
   257
176
     1
 90
        1
176
     1
 90
        1
176
     1
 40
1.0
176
     1
 90
        8
176
     1
 62
     7
176
     1
 40
1.0
176
     1
 90
        1
176
     1
 90
        6
176
     1
 90
        2
176
     1
 62
     7
176
     1
 90
        5
176
     1
 90
        0
176
     1
 90
        0
176
     1
290
     0
176
     1
 90
        1
176
     1
 40
50.0
176
     1
 90
        0
176
     1
290
     0
176
     1
290
     1
176
     1
290
     1
176
     1
290
     0
176
     1
290
     0
176
     1
290
     0
176
     1
290
     0
176
     1
290
     0
176
     1
290
     0
176
     1
 90
       50
176
     1
 40
0.0
176
     1
 40
1.0
176
     1
 90
        0
176
     1
 62
    18
420
        0
176
     1
 90
       50
176
     1
 90
        3
176
     1
 62
     5
420
      255
176
     1
290
     0
176
     1
 90
       50
176
     1
 90
       50
176
     1
 90
       50
176
     1
290
     0
176
     1
 90
       50
176
     1
 62
   256
176
     0
 40
1.0
176
     0
 90
        2
176
     1
  1
strokes_ogs.tif
176
     1
290
     0
176
     1
 40
1.0
176
     1
 40
1.0
176
     1
  0
VISUALSTYLE
  5
39
102
{ACAD_REACTORS
330
29
102
}
330
29
100
AcDbVisualStyle
  2
ColorChange
 70
    16
177
     3
291
     1
 70
    58
 90
        2
176
     1
 90
        2
176
     1
 90
        3
176
     1
 90
        0
176
     1
 40
0.6
176
     1
 40
30.0
176
     1
 62
     8
420
  8421504
176
     1
 90
        1
176
     1
 90
        4
176
     1
 62
     7
176
     1
 62
   257
176
     1
 90
        1
176
     1
 90
        1
176
     1
 40
1.0
176
     1
 90
        8
176
     1
 62
     8
420
  8421504
176
     1
 40
1.0
176
     1
 90
        1
176
     1
 90
        6
176
     1
 90
        2
176
     1
 62
     7
176
     1
 90
        5
176
     1
 90
        0
176
     1
 90
        0
176
     1
290
     0
176
     1
 90
        1
176
     1
 40
0.0
176
     1
 90
        0
176
     1
290
     0
176
     1
290
     1
176
     1
290
     1
176
     1
290
     0
176
     1
290
     0
176
     1
290
     0
176
     1
290
     0
176
     1
290
     0
176
     1
290
     0
176
     1
 90
       50
176
     1
 40
0.0
176
     1
 40
1.0
176
     1
 90
        0
176
     1
 62
    18
420
        0
176
     1
 90
       50
176
     1
 90
        3
176
     1
 62
     5
420
      255
176
     1
290
     0
176
     1
 90
       50
176
     1
 90
       50
176
     1
 90
       50
176
     1
290
     0
176
     1
 90
       50
176
     1
 62
   256
176
     0
 40
1.0
176
     0
 90
        2
176
     1
  1
strokes_ogs.tif
176
     1
290
     0
176
     1
 40
1.0
176
     1
 40
1.0
176
     1
  0
VISUALSTYLE
  5
32
102
{ACAD_REACTORS
330
29
102
}
330
29
100
AcDbVisualStyle
  2
Conceptual
 70
     9
177
     3
291
     0
 70
    58
 90
        3
176
     1
 90
        2
176
     1
 90
        0
176
     1
 90
        0
176
     1
 40
0.6
176
     1
 40
30.0
176
     1
 62
     7
420
 16777215
176
     1
 90
        2
176
     1
 90
        2
176
     1
 62
     7
176
     1
 62
   257
176
     1
 90
        1
176
     1
 90
        1
176
     1
 40
179.0
176
     1
 90
        8
176
     1
 62
     7
176
     1
 40
1.0
176
     1
 90
        1
176
     1
 90
        6
176
     1
 90
        2
176
     1
 62
     7
176
     1
 90
        3
176
     1
 90
        0
176
     1
 90
        0
176
     1
290
     0
176
     1
 90
        1
176
     1
 40
0.0
176
     1
 90
        0
176
     1
290
     0
176
     1
290
     1
176
     1
290
     1
176
     1
290
     0
176
     1
290
     0
176
     1
290
     0
176
     1
290
     0
176
     1
290
     0
176
     1
290
     0
176
     1
 90
       50
176
     1
 40
0.0
176
     1
 40
1.0
176
     1
 90
        0
176
     1
 62
    18
420
        0
176
     1
 90
       50
176
     1
 90
        3
176
     1
 62
     5
420
      255
176
     1
290
     0
176
     1
 90
       50
176
     1
 90
       50
176
     1
 90
       50
176
     1
290
     0
176
     1
 90
       50
176
     1
 62
   256
176
     0
 40
1.0
176
     0
 90
        2
176
     1
  1
strokes_ogs.tif
176
     1
290
     0
176
     1
 40
1.0
176
     1
 40
1.0
176
     1
  0
VISUALSTYLE
  5
34
102
{ACAD_REACTORS
330
29
102
}
330
29
100
AcDbVisualStyle
  2
Dim
 70
    11
177
     3
291
     1
 70
    58
 90
        2
176
     1
 90
        2
176
     1
 90
        0
176
     1
 90
        0
176
     1
 40
0.6
176
     1
 40
30.0
176
     1
 62
     7
420
 16777215
176
     1
 90
        1
176
     1
 90
        4
176
     1
 62
     7
176
     1
 62
   257
176
     1
 90
        1
176
     1
 90
        1
176
     1
 40
1.0
176
     1
 90
        8
176
     1
 62
     7
176
     1
 40
1.0
176
     1
 90
        1
176
     1
 90
        6
176
     1
 90
        2
176
     1
 62
     7
176
     1
 90
        5
176
     1
 90
        0
176
     1
 90
        0
176
     1
290
     0
176
     1
 90
        1
176
     1
 40
-50.0
176
     1
 90
        0
176
     1
290
     0
176
     1
290
     1
176
     1
290
     1
176
     1
290
     0
176
     1
290
     0
176
     1
290
     0
176
     1
290
     0
176
     1
290
     0
176
     1
290
     0
176
     1
 90
       50
176
     1
 40
0.0
176
     1
 40
1.0
176
     1
 90
        0
176
     1
 62
    18
420
        0
176
     1
 90
       50
176
     1
 90
        3
176
     1
 62
     5
420
      255
176
     1
290
     0
176
     1
 90
       50
176
     1
 90
       50
176
     1
 90
       50
176
     1
290
     0
176
     1
 90
       50
176
     1
 62
   256
176
     0
 40
1.0
176
     0
 90
        2
176
     1
  1
strokes_ogs.tif
176
     1
290
     0
176
     1
 40
1.0
176
     1
 40
1.0
176
     1
  0
VISUALSTYLE
  5
41
102
{ACAD_REACTORS
330
29
102
}
330
29
100
AcDbVisualStyle
  2
EdgeColorOff
 70
    22
177
     3
291
     1
 70
    58
 90
        2
176
     0
 90
        2
176
     0
 90
        0
176
     0
 90
        0
176
     0
 40
0.6
176
     0
 40
30.0
176
     0
 62
     7
420
 16777215
176
     0
 90
        1
176
     0
 90
        4
176
     0
 62
     7
176
     0
 62
   257
176
     0
 90
        1
176
     0
 90
        1
176
     0
 40
1.0
176
     0
 90
        8
176
     2
 62
     7
176
     0
 40
1.0
176
     0
 90
        1
176
     0
 90
        6
176
     0
 90
        2
176
     0
 62
     7
176
     0
 90
        5
176
     0
 90
        0
176
     0
 90
        0
176
     0
290
     0
176
     0
 90
        1
176
     0
 40
0.0
176
     0
 90
        0
176
     0
290
     0
176
     0
290
     1
176
     0
290
     1
176
     0
290
     0
176
     0
290
     0
176
     0
290
     0
176
     0
290
     0
176
     0
290
     0
176
     0
290
     0
176
     0
 90
       50
176
     0
 40
0.0
176
     0
 40
1.0
176
     0
 90
        0
176
     0
 62
    18
420
        0
176
     0
 90
       50
176
     0
 90
        3
176
     0
 62
     5
420
      255
176
     0
290
     0
176
     0
 90
       50
176
     0
 90
       50
176
     0
 90
       50
176
     0
290
     0
176
     0
 90
       50
176
     0
 62
   256
176
     0
 40
1.0
176
     0
 90
        2
176
     0
  1
strokes_ogs.tif
176
     0
290
     0
176
     0
 40
1.0
176
     0
 40
1.0
176
     0
  0
VISUALSTYLE
  5
38
102
{ACAD_REACTORS
330
29
102
}
330
29
100
AcDbVisualStyle
  2
Facepattern
 70
    15
177
     3
291
     1
 70
    58
 90
        2
176
     1
 90
        2
176
     1
 90
        0
176
     1
 90
        0
176
     1
 40
0.6
176
     1
 40
30.0
176
     1
 62
     7
420
 16777215
176
     1
 90
        1
176
     1
 90
        4
176
     1
 62
     7
176
     1
 62
   257
176
     1
 90
        1
176
     1
 90
        1
176
     1
 40
1.0
176
     1
 90
        8
176
     1
 62
     7
176
     1
 40
1.0
176
     1
 90
        1
176
     1
 90
        6
176
     1
 90
        2
176
     1
 62
     7
176
     1
 90
        5
176
     1
 90
        0
176
     1
 90
        0
176
     1
290
     0
176
     1
 90
        1
176
     1
 40
0.0
176
     1
 90
        0
176
     1
290
     0
176
     1
290
     1
176
     1
290
     1
176
     1
290
     0
176
     1
290
     0
176
     1
290
     0
176
     1
290
     0
176
     1
290
     0
176
     1
290
     0
176
     1
 90
       50
176
     1
 40
0.0
176
     1
 40
1.0
176
     1
 90
        0
176
     1
 62
    18
420
        0
176
     1
 90
       50
176
     1
 90
        3
176
     1
 62
     5
420
      255
176
     1
290
     0
176
     1
 90
       50
176
     1
 90
       50
176
     1
 90
       50
176
     1
290
     0
176
     1
 90
       50
176
     1
 62
   256
176
     0
 40
1.0
176
     0
 90
        2
176
     1
  1
strokes_ogs.tif
176
     1
290
     0
176
     1
 40
1.0
176
     1
 40
1.0
176
     1
  0
VISUALSTYLE
  5
2A
102
{ACAD_REACTORS
330
29
102
}
330
29
100
AcDbVisualStyle
  2
Flat
 70
     0
177
     3
291
     1
 70
    58
 90
        2
176
     1
 90
        1
176
     1
 90
        1
176
     1
 90
        2
176
     1
 40
0.6
176
     1
 40
30.0
176
     1
 62
     7
420
 16777215
176
     1
 90
        0
176
     1
 90
        0
176
     1
 62
     7
176
     1
 62
   257
176
     1
 90
        1
176
     1
 90
        1
176
     1
 40
1.0
176
     1
 90
        8
176
     1
 62
     7
176
     1
 40
1.0
176
     1
 90
        1
176
     1
 90
        6
176
     1
 90
        2
176
     1
 62
     7
176
     1
 90
        5
176
     1
 90
        0
176
     1
 90
        0
176
     1
290
     0
176
     1
 90
       13
176
     1
 40
0.0
176
     1
 90
        0
176
     1
290
     0
176
     1
290
     1
176
     1
290
     1
176
     1
290
     0
176
     1
290
     0
176
     1
290
     0
176
     1
290
     0
176
     1
290
     0
176
     1
290
     0
176
     1
 90
       50
176
     1
 40
0.0
176
     1
 40
1.0
176
     1
 90
        0
176
     1
 62
    18
420
        0
176
     1
 90
       50
176
     1
 90
        3
176
     1
 62
     5
420
      255
176
     1
290
     0
176
     1
 90
       50
176
     1
 90
       50
176
     1
 90
       50
176
     1
290
     0
176
     1
 90
       50
176
     1
 62
   256
176
     0
 40
1.0
176
     0
 90
        2
176
     1
  1
strokes_ogs.tif
176
     1
290
     0
176
     1
 40
1.0
176
     1
 40
1.0
176
     1
  0
VISUALSTYLE
  5
2B
102
{ACAD_REACTORS
330
29
102
}
330
29
100
AcDbVisualStyle
  2
FlatWithEdges
 70
     1
177
     3
291
     1
 70
    58
 90
        2
176
     1
 90
        1
176
     1
 90
        1
176
     1
 90
        2
176
     1
 40
0.6
176
     1
 40
30.0
176
     1
 62
     7
420
 16777215
176
     1
 90
        1
176
     1
 90
        0
176
     1
 62
     7
176
     1
 62
   257
176
     1
 90
        1
176
     1
 90
        1
176
     1
 40
1.0
176
     1
 90
        0
176
     1
 62
   257
176
     1
 40
1.0
176
     1
 90
        1
176
     1
 90
        6
176
     1
 90
        2
176
     1
 62
     7
176
     1
 90
        5
176
     1
 90
        0
176
     1
 90
        0
176
     1
290
     0
176
     1
 90
       13
176
     1
 40
0.0
176
     1
 90
        0
176
     1
290
     0
176
     1
290
     1
176
     1
290
     1
176
     1
290
     0
176
     1
290
     0
176
     1
290
     0
176
     1
290
     0
176
     1
290
     0
176
     1
290
     0
176
     1
 90
       50
176
     1
 40
0.0
176
     1
 40
1.0
176
     1
 90
        0
176
     1
 62
    18
420
        0
176
     1
 90
       50
176
     1
 90
        3
176
     1
 62
     5
420
      255
176
     1
290
     0
176
     1
 90
       50
176
     1
 90
       50
176
     1
 90
       50
176
     1
290
     0
176
     1
 90
       50
176
     1
 62
   256
176
     0
 40
1.0
176
     0
 90
        2
176
     1
  1
strokes_ogs.tif
176
     1
290
     0
176
     1
 40
1.0
176
     1
 40
1.0
176
     1
  0
VISUALSTYLE
  5
2C
102
{ACAD_REACTORS
330
29
102
}
330
29
100
AcDbVisualStyle
  2
Gouraud
 70
     2
177
     3
291
     1
 70
    58
 90
        2
176
     1
 90
        2
176
     1
 90
        1
176
     1
 90
        2
176
     1
 40
0.6
176
     1
 40
30.0
176
     1
 62
     7
420
 16777215
176
     1
 90
        0
176
     1
 90
        0
176
     1
 62
     7
176
     1
 62
   257
176
     1
 90
        1
176
     1
 90
        1
176
     1
 40
1.0
176
     1
 90
        0
176
     1
 62
     7
176
     1
 40
1.0
176
     1
 90
        1
176
     1
 90
        6
176
     1
 90
        2
176
     1
 62
     7
176
     1
 90
        5
176
     1
 90
        0
176
     1
 90
        0
176
     1
290
     0
176
     1
 90
       13
176
     1
 40
0.0
176
     1
 90
        0
176
     1
290
     0
176
     1
290
     1
176
     1
290
     1
176
     1
290
     0
176
     1
290
     0
176
     1
290
     0
176
     1
290
     0
176
     1
290
     0
176
     1
290
     0
176
     1
 90
       50
176
     1
 40
0.0
176
     1
 40
1.0
176
     1
 90
        0
176
     1
 62
    18
420
        0
176
     1
 90
       50
176
     1
 90
        3
176
     1
 62
     5
420
      255
176
     1
290
     0
176
     1
 90
       50
176
     1
 90
       50
176
     1
 90
       50
176
     1
290
     0
176
     1
 90
       50
176
     1
 62
   256
176
     0
 40
1.0
176
     0
 90
        2
176
     1
  1
strokes_ogs.tif
176
     1
290
     0
176
     1
 40
1.0
176
     1
 40
1.0
176
     1
  0
VISUALSTYLE
  5
2D
102
{ACAD_REACTORS
330
29
102
}
330
29
100
AcDbVisualStyle
  2
GouraudWithEdges
 70
     3
177
     3
291
     1
 70
    58
 90
        2
176
     1
 90
        2
176
     1
 90
        1
176
     1
 90
        2
176
     1
 40
0.6
176
     1
 40
30.0
176
     1
 62
     7
420
 16777215
176
     1
 90
        1
176
     1
 90
        0
176
     1
 62
     7
176
     1
 62
   257
176
     1
 90
        1
176
     1
 90
        1
176
     1
 40
1.0
176
     1
 90
        0
176
     1
 62
   257
176
     1
 40
1.0
176
     1
 90
        1
176
     1
 90
        6
176
     1
 90
        2
176
     1
 62
     7
176
     1
 90
        5
176
     1
 90
        0
176
     1
 90
        0
176
     1
290
     0
176
     1
 90
       13
176
     1
 40
0.0
176
     1
 90
        0
176
     1
290
     0
176
     1
290
     1
176
     1
290
     1
176
     1
290
     0
176
     1
290
     0
176
     1
290
     0
176
     1
290
     0
176
     1
290
     0
176
     1
290
     0
176
     1
 90
       50
176
     1
 40
0.0
176
     1
 40
1.0
176
     1
 90
        0
176
     1
 62
    18
420
        0
176
     1
 90
       50
176
     1
 90
        3
176
     1
 62
     5
420
      255
176
     1
290
     0
176
     1
 90
       50
176
     1
 90
       50
176
     1
 90
       50
176
     1
290
     0
176
     1
 90
       50
176
     1
 62
   256
176
     0
 40
1.0
176
     0
 90
        2
176
     1
  1
strokes_ogs.tif
176
     1
290
     0
176
     1
 40
1.0
176
     1
 40
1.0
176
     1
  0
VISUALSTYLE
  5
31
102
{ACAD_REACTORS
330
29
102
}
330
29
100
AcDbVisualStyle
  2
Hidden
 70
     6
177
     3
291
     0
 70
    58
 90
        1
176
     1
 90
        2
176
     1
 90
        2
176
     1
 90
        0
176
     1
 40
0.6
176
     1
 40
30.0
176
     1
 62
     7
420
 16777215
176
     1
 90
        2
176
     1
 90
        2
176
     1
 62
     7
176
     1
 62
   257
176
     1
 90
        2
176
     1
 90
        1
176
     1
 40
40.0
176
     1
 90
        0
176
     1
 62
   257
176
     1
 40
1.0
176
     1
 90
        1
176
     1
 90
        6
176
     1
 90
        2
176
     1
 62
     7
176
     1
 90
        3
176
     1
 90
        0
176
     1
 90
        0
176
     1
290
     0
176
     1
 90
        1
176
     1
 40
0.0
176
     1
 90
        0
176
     1
290
     0
176
     1
290
     1
176
     1
290
     1
176
     1
290
     0
176
     1
290
     0
176
     1
290
     0
176
     1
290
     0
176
     1
290
     0
176
     1
290
     0
176
     1
 90
       50
176
     1
 40
0.0
176
     1
 40
1.0
176
     1
 90
        0
176
     1
 62
    18
420
        0
176
     1
 90
       50
176
     1
 90
        3
176
     1
 62
     5
420
      255
176
     1
290
     0
176
     1
 90
       50
176
     1
 90
       50
176
     1
 90
       50
176
     1
290
     0
176
     1
 90
       50
176
     1
 62
   256
176
     0
 40
1.0
176
     0
 90
        2
176
     1
  1
strokes_ogs.tif
176
     1
290
     0
176
     1
 40
1.0
176
     1
 40
1.0
176
     1
  0
VISUALSTYLE
  5
3F
102
{ACAD_REACTORS
330
29
102
}
330
29
100
AcDbVisualStyle
  2
JitterOff
 70
    20
177
     3
291
     1
 70
    58
 90
        2
176
     0
 90
        2
176
     0
 90
        0
176
     0
 90
        0
176
     0
 40
0.6
176
     0
 40
30.0
176
     0
 62
     7
420
 16777215
176
     0
 90
        1
176
     0
 90
        4
176
     0
 62
     7
176
     0
 62
   257
176
     0
 90
        1
176
     0
 90
        1
176
     0
 40
1.0
176
     0
 90
       10
176
     2
 62
     7
176
     0
 40
1.0
176
     0
 90
        1
176
     0
 90
        6
176
     0
 90
        2
176
     0
 62
     7
176
     0
 90
        5
176
     0
 90
        0
176
     0
 90
        0
176
     0
290
     0
176
     0
 90
        1
176
     0
 40
0.0
176
     0
 90
        0
176
     0
290
     0
176
     0
290
     1
176
     0
290
     1
176
     0
290
     0
176
     0
290
     0
176
     0
290
     0
176
     0
290
     0
176
     0
290
     0
176
     0
290
     0
176
     0
 90
       50
176
     0
 40
0.0
176
     0
 40
1.0
176
     0
 90
        0
176
     0
 62
    18
420
        0
176
     0
 90
       50
176
     0
 90
        3
176
     0
 62
     5
420
      255
176
     0
290
     0
176
     0
 90
       50
176
     0
 90
       50
176
     0
 90
       50
176
     0
290
     0
176
     0
 90
       50
176
     0
 62
   256
176
     0
 40
1.0
176
     0
 90
        2
176
     0
  1
strokes_ogs.tif
176
     0
290
     0
176
     0
 40
1.0
176
     0
 40
1.0
176
     0
  0
VISUALSTYLE
  5
37
102
{ACAD_REACTORS
330
29
102
}
330
29
100
AcDbVisualStyle
  2
Linepattern
 70
    14
177
     3
291
     1
 70
    58
 90
        2
176
     1
 90
        2
176
     1
 90
        0
176
     1
 90
        0
176
     1
 40
0.6
176
     1
 40
30.0
176
     1
 62
     7
420
 16777215
176
     1
 90
        1
176
     1
 90
        4
176
     1
 62
     7
176
     1
 62
   257
176
     1
 90
        7
176
     1
 90
        7
176
     1
 40
1.0
176
     1
 90
        8
176
     1
 62
     7
176
     1
 40
1.0
176
     1
 90
        1
176
     1
 90
        6
176
     1
 90
        2
176
     1
 62
     7
176
     1
 90
        5
176
     1
 90
        0
176
     1
 90
        0
176
     1
290
     0
176
     1
 90
        1
176
     1
 40
0.0
176
     1
 90
        0
176
     1
290
     0
176
     1
290
     1
176
     1
290
     1
176
     1
290
     0
176
     1
290
     0
176
     1
290
     0
176
     1
290
     0
176
     1
290
     0
176
     1
290
     0
176
     1
 90
       50
176
     1
 40
0.0
176
     1
 40
1.0
176
     1
 90
        0
176
     1
 62
    18
420
        0
176
     1
 90
       50
176
     1
 90
        3
176
     1
 62
     5
420
      255
176
     1
290
     0
176
     1
 90
       50
176
     1
 90
       50
176
     1
 90
       50
176
     1
290
     0
176
     1
 90
       50
176
     1
 62
   256
176
     0
 40
1.0
176
     0
 90
        2
176
     1
  1
strokes_ogs.tif
176
     1
290
     0
176
     1
 40
1.0
176
     1
 40
1.0
176
     1
  0
VISUALSTYLE
  5
40
102
{ACAD_REACTORS
330
29
102
}
330
29
100
AcDbVisualStyle
  2
OverhangOff
 70
    21
177
     3
291
     1
 70
    58
 90
        2
176
     0
 90
        2
176
     0
 90
        0
176
     0
 90
        0
176
     0
 40
0.6
176
     0
 40
30.0
176
     0
 62
     7
420
 16777215
176
     0
 90
        1
176
     0
 90
        4
176
     0
 62
     7
176
     0
 62
   257
176
     0
 90
        1
176
     0
 90
        1
176
     0
 40
1.0
176
     0
 90
        9
176
     2
 62
     7
176
     0
 40
1.0
176
     0
 90
        1
176
     0
 90
        6
176
     0
 90
        2
176
     0
 62
     7
176
     0
 90
        5
176
     0
 90
        0
176
     0
 90
        0
176
     0
290
     0
176
     0
 90
        1
176
     0
 40
0.0
176
     0
 90
        0
176
     0
290
     0
176
     0
290
     1
176
     0
290
     1
176
     0
290
     0
176
     0
290
     0
176
     0
290
     0
176
     0
290
     0
176
     0
290
     0
176
     0
290
     0
176
     0
 90
       50
176
     0
 40
0.0
176
     0
 40
1.0
176
     0
 90
        0
176
     0
 62
    18
420
        0
176
     0
 90
       50
176
     0
 90
        3
176
     0
 62
     5
420
      255
176
     0
290
     0
176
     0
 90
       50
176
     0
 90
       50
176
     0
 90
       50
176
     0
290
     0
176
     0
 90
       50
176
     0
 62
   256
176
     0
 40
1.0
176
     0
 90
        2
176
     0
  1
strokes_ogs.tif
176
     0
290
     0
176
     0
 40
1.0
176
     0
 40
1.0
176
     0
  0
VISUALSTYLE
  5
33
102
{ACAD_REACTORS
330
29
102
}
330
29
100
AcDbVisualStyle
  2
Realistic
 70
     8
177
     3
291
     0
 70
    58
 90
        2
176
     1
 90
        3
176
     1
 90
        0
176
     1
 90
        2
176
     1
 40
0.6
176
     1
 40
30.0
176
     1
 62
     7
420
 16777215
176
     1
 90
        0
176
     1
 90
        0
176
     1
 62
     7
176
     1
 62
   257
176
     1
 90
        1
176
     1
 90
        1
176
     1
 40
1.0
176
     1
 90
        8
176
     1
 62
   257
176
     1
 40
1.0
176
     1
 90
        1
176
     1
 90
        6
176
     1
 90
        2
176
     1
 62
     7
176
     1
 90
        3
176
     1
 90
        0
176
     1
 90
        0
176
     1
290
     0
176
     1
 90
       13
176
     1
 40
0.0
176
     1
 90
        0
176
     1
290
     0
176
     1
290
     1
176
     1
290
     1
176
     1
290
     0
176
     1
290
     0
176
     1
290
     0
176
     1
290
     0
176
     1
290
     0
176
     1
290
     0
176
     1
 90
       50
176
     1
 40
0.0
176
     1
 40
1.0
176
     1
 90
        0
176
     1
 62
    18
420
        0
176
     1
 90
       50
176
     1
 90
        3
176
     1
 62
     5
420
      255
176
     1
290
     0
176
     1
 90
       50
176
     1
 90
       50
176
     1
 90
       50
176
     1
290
     0
176
     1
 90
       50
176
     1
 62
   256
176
     0
 40
1.0
176
     0
 90
        2
176
     1
  1
strokes_ogs.tif
176
     1
290
     0
176
     1
 40
1.0
176
     1
 40
1.0
176
     1
  0
VISUALSTYLE
  5
3E
102
{ACAD_REACTORS
330
29
102
}
330
29
100
AcDbVisualStyle
  2
Shaded
 70
    27
177
     3
291
     0
 70
    58
 90
        2
176
     1
 90
        2
176
     1
 90
        1
176
     1
 90
        2
176
     1
 40
0.6
176
     1
 40
30.0
176
     1
 62
     7
420
 16777215
176
     1
 90
        0
176
     1
 90
        4
176
     1
 62
     7
176
     1
 62
   257
176
     1
 90
        1
176
     1
 90
        1
176
     1
 40
1.0
176
     1
 90
        8
176
     1
 62
   257
176
     1
 40
1.0
176
     1
 90
        1
176
     1
 90
        6
176
     1
 90
        2
176
     1
 62
     8
420
  7895160
176
     1
 90
        3
176
     1
 90
        0
176
     1
 90
        0
176
     1
290
     0
176
     1
 90
        5
176
     1
 40
0.0
176
     1
 90
        0
176
     1
290
     0
176
     1
290
     1
176
     1
290
     1
176
     1
290
     0
176
     1
290
     0
176
     1
290
     0
176
     1
290
     0
176
     1
290
     0
176
     1
290
     0
176
     1
 90
       50
176
     1
 40
0.0
176
     1
 40
1.0
176
     1
 90
        0
176
     1
 62
    18
420
        0
176
     1
 90
       50
176
     1
 90
        3
176
     1
 62
     5
420
      255
176
     1
290
     0
176
     1
 90
       50
176
     1
 90
       50
176
     1
 90
       50
176
     1
290
     0
176
     1
 90
       50
176
     1
 62
   256
176
     0
 40
1.0
176
     0
 90
        2
176
     1
  1
strokes_ogs.tif
176
     1
290
     0
176
     1
 40
1.0
176
     1
 40
1.0
176
     1
  0
VISUALSTYLE
  5
3D
102
{ACAD_REACTORS
330
29
102
}
330
29
100
AcDbVisualStyle
  2
Shaded with edges
 70
    26
177
     3
291
     0
 70
    58
 90
        2
176
     1
 90
        2
176
     1
 90
        1
176
     1
 90
        2
176
     1
 40
0.6
176
     1
 40
30.0
176
     1
 62
     7
420
 16777215
176
     1
 90
        1
176
     1
 90
        2
176
     1
 62
     7
176
     1
 62
   257
176
     1
 90
        2
176
     1
 90
        1
176
     1
 40
1.0
176
     1
 90
        8
176
     1
 62
   257
176
     1
 40
1.0
176
     1
 90
        1
176
     1
 90
        6
176
     1
 90
        2
176
     1
 62
     7
176
     1
 90
        3
176
     1
 90
        0
176
     1
 90
        0
176
     1
290
     0
176
     1
 90
        5
176
     1
 40
0.0
176
     1
 90
        0
176
     1
290
     0
176
     1
290
     1
176
     1
290
     1
176
     1
290
     0
176
     1
290
     0
176
     1
290
     0
176
     1
290
     0
176
     1
290
     0
176
     1
290
     0
176
     1
 90
       50
176
     1
 40
0.0
176
     1
 40
1.0
176
     1
 90
        0
176
     1
 62
    18
420
        0
176
     1
 90
       50
176
     1
 90
        3
176
     1
 62
     5
420
      255
176
     1
290
     0
176
     1
 90
       50
176
     1
 90
       50
176
     1
 90
       50
176
     1
290
     0
176
     1
 90
       50
176
     1
 62
   256
176
     0
 40
1.0
176
     0
 90
        2
176
     1
  1
strokes_ogs.tif
176
     1
290
     0
176
     1
 40
1.0
176
     1
 40
1.0
176
     1
  0
VISUALSTYLE
  5
3A
102
{ACAD_REACTORS
330
29
102
}
330
29
100
AcDbVisualStyle
  2
Shades of Gray
 70
    23
177
     3
291
     0
 70
    58
 90
        2
176
     1
 90
        2
176
     1
 90
        3
176
     1
 90
        0
176
     1
 40
0.6
176
     1
 40
30.0
176
     1
 62
     7
420
 16777215
176
     1
 90
        2
176
     1
 90
        2
176
     1
 62
     7
176
     1
 62
     7
176
     1
 90
        1
176
     1
 90
        1
176
     1
 40
40.0
176
     1
 90
        8
176
     1
 62
     7
176
     1
 40
1.0
176
     1
 90
        1
176
     1
 90
        6
176
     1
 90
        2
176
     1
 62
     7
176
     1
 90
        3
176
     1
 90
        0
176
     1
 90
        0
176
     1
290
     0
176
     1
 90
        1
176
     1
 40
0.0
176
     1
 90
        0
176
     1
290
     0
176
     1
290
     1
176
     1
290
     1
176
     1
290
     0
176
     1
290
     0
176
     1
290
     0
176
     1
290
     0
176
     1
290
     0
176
     1
290
     0
176
     1
 90
       50
176
     1
 40
0.0
176
     1
 40
1.0
176
     1
 90
        0
176
     1
 62
    18
420
        0
176
     1
 90
       50
176
     1
 90
        3
176
     1
 62
     5
420
      255
176
     1
290
     0
176
     1
 90
       50
176
     1
 90
       50
176
     1
 90
       50
176
     1
290
     0
176
     1
 90
       50
176
     1
 62
   256
176
     0
 40
1.0
176
     0
 90
        2
176
     1
  1
strokes_ogs.tif
176
     1
290
     0
176
     1
 40
1.0
176
     1
 40
1.0
176
     1
  0
VISUALSTYLE
  5
3B
102
{ACAD_REACTORS
330
29
102
}
330
29
100
AcDbVisualStyle
  2
Sketchy
 70
    24
177
     3
291
     0
 70
    58
 90
        1
176
     1
 90
        2
176
     1
 90
        2
176
     1
 90
        0
176
     1
 40
0.6
176
     1
 40
30.0
176
     1
 62
     7
420
 16777215
176
     1
 90
        2
176
     1
 90
        2
176
     1
 62
     7
176
     1
 62
     7
176
     1
 90
        1
176
     1
 90
        1
176
     1
 40
40.0
176
     1
 90
       11
176
     1
 62
     7
176
     1
 40
1.0
176
     1
 90
        1
176
     1
 90
        6
176
     1
 90
        2
176
     1
 62
     7
176
     1
 90
        6
176
     1
 90
        0
176
     1
 90
        0
176
     1
290
     0
176
     1
 90
        1
176
     1
 40
0.0
176
     1
 90
        0
176
     1
290
     0
176
     1
290
     1
176
     1
290
     1
176
     1
290
     0
176
     1
290
     0
176
     1
290
     0
176
     1
290
     0
176
     1
290
     0
176
     1
290
     0
176
     1
 90
       50
176
     1
 40
0.0
176
     1
 40
1.0
176
     1
 90
        0
176
     1
 62
    18
420
        0
176
     1
 90
       50
176
     1
 90
        3
176
     1
 62
     5
420
      255
176
     1
290
     0
176
     1
 90
       50
176
     1
 90
       50
176
     1
 90
       50
176
     1
290
     0
176
     1
 90
       50
176
     1
 62
   256
176
     0
 40
1.0
176
     0
 90
        2
176
     1
  1
strokes_ogs.tif
176
     1
290
     0
176
     1
 40
1.0
176
     1
 40
1.0
176
     1
  0
VISUALSTYLE
  5
36
102
{ACAD_REACTORS
330
29
102
}
330
29
100
AcDbVisualStyle
  2
Thicken
 70
    13
177
     3
291
     1
 70
    58
 90
        2
176
     1
 90
        2
176
     1
 90
        0
176
     1
 90
        0
176
     1
 40
0.6
176
     1
 40
30.0
176
     1
 62
     7
420
 16777215
176
     1
 90
        1
176
     1
 90
        4
176
     1
 62
     7
176
     1
 62
   257
176
     1
 90
        1
176
     1
 90
        1
176
     1
 40
1.0
176
     1
 90
       12
176
     1
 62
     7
176
     1
 40
1.0
176
     1
 90
        1
176
     1
 90
        6
176
     1
 90
        2
176
     1
 62
     7
176
     1
 90
        5
176
     1
 90
        0
176
     1
 90
        0
176
     1
290
     0
176
     1
 90
        1
176
     1
 40
0.0
176
     1
 90
        0
176
     1
290
     0
176
     1
290
     1
176
     1
290
     1
176
     1
290
     0
176
     1
290
     0
176
     1
290
     0
176
     1
290
     0
176
     1
290
     0
176
     1
290
     0
176
     1
 90
       50
176
     1
 40
0.0
176
     1
 40
1.0
176
     1
 90
        0
176
     1
 62
    18
420
        0
176
     1
 90
       50
176
     1
 90
        3
176
     1
 62
     5
420
      255
176
     1
290
     0
176
     1
 90
       50
176
     1
 90
       50
176
     1
 90
       50
176
     1
290
     0
176
     1
 90
       50
176
     1
 62
   256
176
     0
 40
1.0
176
     0
 90
        2
176
     1
  1
strokes_ogs.tif
176
     1
290
     0
176
     1
 40
1.0
176
     1
 40
1.0
176
     1
  0
VISUALSTYLE
  5
30
102
{ACAD_REACTORS
330
29
102
}
330
29
100
AcDbVisualStyle
  2
Wireframe
 70
     5
177
     3
291
     0
 70
    58
 90
        0
176
     1
 90
        2
176
     1
 90
        0
176
     1
 90
        0
176
     1
 40
0.6
176
     1
 40
30.0
176
     1
 62
     7
420
 16777215
176
     1
 90
        1
176
     1
 90
        4
176
     1
 62
     7
176
     1
 62
   257
176
     1
 90
        1
176
     1
 90
        1
176
     1
 40
1.0
176
     1
 90
        0
176
     1
 62
   257
176
     1
 40
1.0
176
     1
 90
        1
176
     1
 90
        6
176
     1
 90
        2
176
     1
 62
     7
176
     1
 90
        3
176
     1
 90
        0
176
     1
 90
        0
176
     1
290
     0
176
     1
 90
        1
176
     1
 40
0.0
176
     1
 90
        0
176
     1
290
     0
176
     1
290
     1
176
     1
290
     1
176
     1
290
     0
176
     1
290
     0
176
     1
290
     0
176
     1
290
     0
176
     1
290
     0
176
     1
290
     0
176
     1
 90
       50
176
     1
 40
0.0
176
     1
 40
1.0
176
     1
 90
        0
176
     1
 62
    18
420
        0
176
     1
 90
       50
176
     1
 90
        3
176
     1
 62
     5
420
      255
176
     1
290
     0
176
     1
 90
       50
176
     1
 90
       50
176
     1
 90
       50
176
     1
290
     0
176
     1
 90
       50
176
     1
 62
   256
176
     0
 40
1.0
176
     0
 90
        2
176
     1
  1
strokes_ogs.tif
176
     1
290
     0
176
     1
 40
1.0
176
     1
 40
1.0
176
     1
  0
VISUALSTYLE
  5
3C
102
{ACAD_REACTORS
330
29
102
}
330
29
100
AcDbVisualStyle
  2
X-Ray
 70
    25
177
     3
291
     0
 70
    58
 90
        2
176
     1
 90
        2
176
     1
 90
        1
176
     1
 90
        1
176
     1
 40
0.5
176
     1
 40
30.0
176
     1
 62
     7
420
 16777215
176
     1
 90
        1
176
     1
 90
        0
176
     1
 62
     7
176
     1
 62
   257
176
     1
 90
        1
176
     1
 90
        1
176
     1
 40
1.0
176
     1
 90
        8
176
     1
 62
     7
176
     1
 40
1.0
176
     1
 90
        1
176
     1
 90
        6
176
     1
 90
        2
176
     1
 62
     7
176
     1
 90
        3
176
     1
 90
        0
176
     1
 90
        0
176
     1
290
     0
176
     1
 90
       13
176
     1
 40
0.0
176
     1
 90
        0
176
     1
290
     0
176
     1
290
     1
176
     1
290
     1
176
     1
290
     0
176
     1
290
     0
176
     1
290
     0
176
     1
290
     0
176
     1
290
     0
176
     1
290
     0
176
     1
 90
       50
176
     1
 40
0.0
176
     1
 40
1.0
176
     1
 90
        0
176
     1
 62
    18
420
        0
176
     1
 90
       50
176
     1
 90
        3
176
     1
 62
     5
420
      255
176
     1
290
     0
176
     1
 90
       50
176
     1
 90
       50
176
     1
 90
       50
176
     1
290
     0
176
     1
 90
       50
176
     1
 62
   256
176
     0
 40
1.0
176
     0
 90
        2
176
     1
  1
strokes_ogs.tif
176
     1
290
     0
176
     1
 40
1.0
176
     1
 40
1.0
176
     1
  0
DICTIONARYVAR
  5
93
102
{ACAD_REACTORS
330
8E
102
}
330
8E
100
DictionaryVariables
280
     0
  1
1:1
  0
DICTIONARYVAR
  5
90
102
{ACAD_REACTORS
330
8E
102
}
330
8E
100
DictionaryVariables
280
     0
  1
STANDARD
  0
DICTIONARYVAR
  5
8F
102
{ACAD_REACTORS
330
8E
102
}
330
8E
100
DictionaryVariables
280
     0
  1
STANDARD
  0
DICTIONARYVAR
  5
91
102
{ACAD_REACTORS
330
8E
102
}
330
8E
100
DictionaryVariables
280
     0
  1
Imperial24
  0
DICTIONARYVAR
  5
92
102
{ACAD_REACTORS
330
8E
102
}
330
8E
100
DictionaryVariables
280
     0
  1
Imperial24
  0
DICTIONARY
  5
1A
330
19
100
AcDbDictionary
280
     1
281
     1
  3
BUMPTILE
360
1C
  3
DIFFUSETILE
360
1B
  3
OPACITYTILE
360
1F
  3
REFLECTIONTILE
360
1E
  3
REFRACTIONTILE
360
20
  3
SPECULARTILE
360
1D
  0
DICTIONARY
  5
12
330
11
100
AcDbDictionary
280
     1
281
     1
  3
BUMPTILE
360
14
  3
DIFFUSETILE
360
13
  3
OPACITYTILE
360
17
  3
REFLECTIONTILE
360
16
  3
REFRACTIONTILE
360
18
  3
SPECULARTILE
360
15
  0
DICTIONARY
  5
22
330
21
100
AcDbDictionary
280
     1
281
     1
  3
BUMPTILE
360
24
  3
DIFFUSETILE
360
23
  3
OPACITYTILE
360
27
  3
REFLECTIONTILE
360
26
  3
REFRACTIONTILE
360
28
  3
SPECULARTILE
360
25
  0
DICTIONARY
  5
94
330
65
100
AcDbDictionary
280
     1
281
     1
  3
ACAD_ROUNDTRIP_2008_TABLESTYLE_CELLSTYLEMAP
360
95
  0
XRECORD
  5
1C
102
{ACAD_REACTORS
330
1A
102
}
330
1A
100
AcDbXrecord
280
     1
270
     1
271
     1
  0
XRECORD
  5
1B
102
{ACAD_REACTORS
330
1A
102
}
330
1A
100
AcDbXrecord
280
     1
270
     1
271
     1
  0
XRECORD
  5
1F
102
{ACAD_REACTORS
330
1A
102
}
330
1A
100
AcDbXrecord
280
     1
270
     1
271
     1
  0
XRECORD
  5
1E
102
{ACAD_REACTORS
330
1A
102
}
330
1A
100
AcDbXrecord
280
     1
270
     1
271
     1
  0
XRECORD
  5
20
102
{ACAD_REACTORS
330
1A
102
}
330
1A
100
AcDbXrecord
280
     1
270
     1
271
     1
  0
XRECORD
  5
1D
102
{ACAD_REACTORS
330
1A
102
}
330
1A
100
AcDbXrecord
280
     1
270
     1
271
     1
  0
XRECORD
  5
14
102
{ACAD_REACTORS
330
12
102
}
330
12
100
AcDbXrecord
280
     1
270
     1
271
     1
  0
XRECORD
  5
13
102
{ACAD_REACTORS
330
12
102
}
330
12
100
AcDbXrecord
280
     1
270
     1
271
     1
  0
XRECORD
  5
17
102
{ACAD_REACTORS
330
12
102
}
330
12
100
AcDbXrecord
280
     1
270
     1
271
     1
  0
XRECORD
  5
16
102
{ACAD_REACTORS
330
12
102
}
330
12
100
AcDbXrecord
280
     1
270
     1
271
     1
  0
XRECORD
  5
18
102
{ACAD_REACTORS
330
12
102
}
330
12
100
AcDbXrecord
280
     1
270
     1
271
     1
  0
XRECORD
  5
15
102
{ACAD_REACTORS
330
12
102
}
330
12
100
AcDbXrecord
280
     1
270
     1
271
     1
  0
XRECORD
  5
24
102
{ACAD_REACTORS
330
22
102
}
330
22
100
AcDbXrecord
280
     1
270
     1
271
     1
  0
XRECORD
  5
23
102
{ACAD_REACTORS
330
22
102
}
330
22
100
AcDbXrecord
280
     1
270
     1
271
     1
  0
XRECORD
  5
27
102
{ACAD_REACTORS
330
22
102
}
330
22
100
AcDbXrecord
280
     1
270
     1
271
     1
  0
XRECORD
  5
26
102
{ACAD_REACTORS
330
22
102
}
330
22
100
AcDbXrecord
280
     1
270
     1
271
     1
  0
XRECORD
  5
28
102
{ACAD_REACTORS
330
22
102
}
330
22
100
AcDbXrecord
280
     1
270
     1
271
     1
  0
XRECORD
  5
25
102
{ACAD_REACTORS
330
22
102
}
330
22
100
AcDbXrecord
280
     1
270
     1
271
     1
  0
CELLSTYLEMAP
  5
95
102
{ACAD_REACTORS
330
94
102
}
330
94
100
AcDbCellStyleMap
 90
        3
300
CELLSTYLE
  1
TABLEFORMAT_BEGIN
 90
        5
170
     1
 91
        0
 92
    32768
 62
   257
 93
        1
300
CONTENTFORMAT
  1
CONTENTFORMAT_BEGIN
 90
        0
 91
        0
 92
      512
 93
        0
300

 40
0.0
140
1.0
 94
        5
 62
     0
340
55
144
0.25
309
CONTENTFORMAT_END
171
     0
 94
        0
309
TABLEFORMAT_END
  1
CELLSTYLE_BEGIN
 90
        1
 91
        1
300
_TITLE
309
CELLSTYLE_END
300
CELLSTYLE
  1
TABLEFORMAT_BEGIN
 90
        5
170
     1
 91
        0
 92
        0
 62
   257
 93
        1
300
CONTENTFORMAT
  1
CONTENTFORMAT_BEGIN
 90
        0
 91
        0
 92
      512
 93
        0
300

 40
0.0
140
1.0
 94
        5
 62
     0
340
55
144
0.18
309
CONTENTFORMAT_END
171
     0
 94
        0
309
TABLEFORMAT_END
  1
CELLSTYLE_BEGIN
 90
        2
 91
        1
300
_HEADER
309
CELLSTYLE_END
300
CELLSTYLE
  1
TABLEFORMAT_BEGIN
 90
        5
170
     1
 91
        0
 92
        0
 62
   257
 93
        1
300
CONTENTFORMAT
  1
CONTENTFORMAT_BEGIN
 90
        0
 91
        0
 92
      512
 93
        0
300

 40
0.0
140
1.0
 94
        2
 62
     0
340
55
144
0.18
309
CONTENTFORMAT_END
171
     0
 94
        0
309
TABLEFORMAT_END
  1
CELLSTYLE_BEGIN
 90
        3
 91
        2
300
_DATA
309
CELLSTYLE_END
  0
ENDSEC
  0
EOF
