999
"DXF R12 Output" (www.mydxf.blogspot.com)
 0 
SECTION
 2 
HEADER
 9 
$ACADVER
 1 
AC1009
 9 
$EXTMIN
 10 
 0 
 20 
 0 
 9 
$EXTMAX
 10 
 8.5 
 20 
 11 
 0 
ENDSEC
 0 
SECTION
 2 
ENTITIES
0
LINE
8
Calque 1
10
77.809800
20
111.551000
11
56.928100
21
121.070800
0
LINE
8
Calque 1
10
56.928100
20
121.070800
11
43.007000
21
127.381350
0
LINE
8
Calque 1
10
43.007000
20
127.381350
11
39.219210
21
142.350950
0
LINE
8
Calque 1
10
39.219210
20
142.350950
11
35.394830
21
158.248650
0
LINE
8
Calque 1
10
35.394830
20
158.248650
11
36.286648
21
161.509408
0
LINE
8
Calque 1
10
36.286648
20
161.509408
11
38.482160
21
168.045850
0
LINE
8
Calque 1
10
38.482160
20
168.045850
11
41.606080
21
176.914980
0
LINE
8
Calque 1
10
41.606080
20
176.914980
11
39.434310
21
186.916680
0
LINE
8
Calque 1
10
39.434310
20
186.916680
11
36.208600
21
201.694980
0
LINE
8
Calque 1
10
36.208600
20
201.694980
11
35.510628
21
205.143496
0
LINE
8
Calque 1
10
35.510628
20
205.143496
11
35.312518
21
206.727010
0
LINE
8
Calque 1
10
35.312518
20
206.727010
11
36.200239
21
207.471589
0
LINE
8
Calque 1
10
36.200239
20
207.471589
11
37.872778
21
208.594630
0
LINE
8
Calque 1
10
37.872778
20
208.594630
11
39.578747
21
209.618626
0
LINE
8
Calque 1
10
39.578747
20
209.618626
11
40.566758
21
210.066070
0
LINE
8
Calque 1
10
40.566758
20
210.066070
11
43.491587
21
208.397101
0
LINE
8
Calque 1
10
43.491587
20
208.397101
11
49.784138
21
204.384480
0
LINE
8
Calque 1
10
49.784138
20
204.384480
11
62.804438
21
195.877130
0
LINE
8
Calque 1
10
62.804438
20
195.877130
11
67.134018
21
193.051370
0
LINE
8
Calque 1
10
67.134018
20
193.051370
11
85.232918
21
193.053222
0
LINE
8
Calque 1
10
85.232918
20
193.053222
11
103.331818
21
193.055074
0
LINE
8
Calque 1
10
103.331818
20
193.055074
11
109.133858
21
196.842944
0
LINE
8
Calque 1
10
109.133858
20
196.842944
11
122.161658
21
205.348344
0
LINE
8
Calque 1
10
122.161658
20
205.348344
11
127.417754
21
208.680227
0
LINE
8
Calque 1
10
127.417754
20
208.680227
11
129.908008
21
210.066054
0
LINE
8
Calque 1
10
129.908008
20
210.066054
11
130.891835
21
209.618465
0
LINE
8
Calque 1
10
130.891835
20
209.618465
11
132.595931
21
208.594774
0
LINE
8
Calque 1
10
132.595931
20
208.594774
11
134.267118
21
207.473599
0
LINE
8
Calque 1
10
134.267118
20
207.473599
11
135.152218
21
206.733554
0
LINE
8
Calque 1
10
135.152218
20
206.733554
11
134.314821
21
202.217306
0
LINE
8
Calque 1
10
134.314821
20
202.217306
11
132.085538
21
191.708554
0
LINE
8
Calque 1
10
132.085538
20
191.708554
11
128.865058
21
176.932354
0
LINE
8
Calque 1
10
128.865058
20
176.932354
11
131.200688
21
170.220014
0
LINE
8
Calque 1
10
131.200688
20
170.220014
11
134.418498
21
161.001294
0
LINE
8
Calque 1
10
134.418498
20
161.001294
11
135.300679
21
158.494914
0
LINE
8
Calque 1
10
135.300679
20
158.494914
11
131.381239
21
142.937314
0
LINE
8
Calque 1
10
131.381239
20
142.937314
11
127.461799
21
127.379714
0
LINE
8
Calque 1
10
127.461799
20
127.379714
11
106.428899
21
117.833524
0
LINE
8
Calque 1
10
106.428899
20
117.833524
11
85.083199
21
108.314544
0
LINE
8
Calque 1
10
85.083199
20
108.314544
11
77.809819
21
111.550994
0
LINE
8
Calque 1
10
77.809819
20
111.550994
11
77.809800
21
111.551000
 0 
ENDSEC
 0 
EOF