  0
SECTION
  2
HEADER
  9
$ACADVER
  1
AC1015
  9
$ACADMAINTVER
 70
     6
  9
$DWGCODEPAGE
  3
ANSI_1252
  9
$INSBASE
 10
0.0
 20
0.0
 30
0.0
  9
$EXTMIN
 10
0.0
 20
0.0
 30
0.0
  9
$EXTMAX
 10
840.994
 20
593.852
 30
0.0
  9
$LIMMIN
 10
0.0
 20
0.0
  9
$LIMMAX
 10
840.994
 20
593.852
  9
$ORTHOMODE
 70
     0
  9
$REGENMODE
 70
     1
  9
$FILLMODE
 70
     1
  9
$QTEXTMODE
 70
     0
  9
$MIRRTEXT
 70
     1
  9
$LTSCALE
 40
1.0
  9
$ATTMODE
 70
     1
  9
$TEXTSIZE
 40
3.5
  9
$TRACEWID
 40
1.0
  9
$TEXTSTYLE
  7
Standard
  9
$CLAYER
  8
0
  9
$CELTYPE
  6
ByLayer
  9
$CECOLOR
 62
   256
  9
$CELTSCALE
 40
1.0
  9
$DISPSILH
 70
     0
  9
$DIMSCALE
 40
1.0
  9
$DIMASZ
 40
3.302
  9
$DIMEXO
 40
1.0
  9
$DIMDLI
 40
3.75
  9
$DIMRND
 40
0.0
  9
$DIMDLE
 40
0.0
  9
$DIMEXE
 40
1.0
  9
$DIMTP
 40
0.0
  9
$DIMTM
 40
0.0
  9
$DIMTXT
 40
3.5
  9
$DIMCEN
 40
2.5
  9
$DIMTSZ
 40
0.0
  9
$DIMTOL
 70
     0
  9
$DIMLIM
 70
     0
  9
$DIMTIH
 70
     1
  9
$DIMTOH
 70
     1
  9
$DIMSE1
 70
     0
  9
$DIMSE2
 70
     0
  9
$DIMTAD
 70
     1
  9
$DIMZIN
 70
     1
  9
$DIMBLK
  1

  9
$DIMASO
 70
     1
  9
$DIMSHO
 70
     1
  9
$DIMPOST
  1

  9
$DIMAPOST
  1

  9
$DIMALT
 70
     0
  9
$DIMALTD
 70
     3
  9
$DIMALTF
 40
0.0393700787
  9
$DIMLFAC
 40
1.0
  9
$DIMTOFL
 70
     1
  9
$DIMTVP
 40
0.0
  9
$DIMTIX
 70
     0
  9
$DIMSOXD
 70
     0
  9
$DIMSAH
 70
     0
  9
$DIMBLK1
  1

  9
$DIMBLK2
  1

  9
$DIMSTYLE
  2
ISO-25
  9
$DIMCLRD
 70
     0
  9
$DIMCLRE
 70
     0
  9
$DIMCLRT
 70
     0
  9
$DIMTFAC
 40
1.0
  9
$DIMGAP
 40
1.524
  9
$DIMJUST
 70
     0
  9
$DIMSD1
 70
     0
  9
$DIMSD2
 70
     0
  9
$DIMTOLJ
 70
     0
  9
$DIMTZIN
 70
     1
  9
$DIMALTZ
 70
     0
  9
$DIMALTTZ
 70
     0
  9
$DIMUPT
 70
     0
  9
$DIMDEC
 70
     2
  9
$DIMTDEC
 70
     2
  9
$DIMALTU
 70
     2
  9
$DIMALTTD
 70
     3
  9
$DIMTXSTY
  7
Standard
  9
$DIMAUNIT
 70
     0
  9
$DIMADEC
 70
     2
  9
$DIMALTRND
 40
0.0
  9
$DIMAZIN
 70
     0
  9
$DIMDSEP
 70
    44
  9
$DIMATFIT
 70
     3
  9
$DIMFRAC
 70
     0
  9
$DIMLDRBLK
  1

  9
$DIMLUNIT
 70
     2
  9
$DIMLWD
 70
    -2
  9
$DIMLWE
 70
    -2
  9
$DIMTMOVE
 70
     0
  9
$LUNITS
 70
     2
  9
$LUPREC
 70
     2
  9
$SKETCHINC
 40
1.0
  9
$FILLETRAD
 40
0.0
  9
$AUNITS
 70
     0
  9
$AUPREC
 70
     2
  9
$MENU
  1
.
  9
$ELEVATION
 40
0.0
  9
$PELEVATION
 40
0.0
  9
$THICKNESS
 40
0.0
  9
$LIMCHECK
 70
     0
  9
$CHAMFERA
 40
0.0
  9
$CHAMFERB
 40
0.0
  9
$CHAMFERC
 40
0.0
  9
$CHAMFERD
 40
0.0
  9
$SKPOLY
 70
     0
  9
$TDCREATE
 40
2460357.686773738
  9
$TDUCREATE
 40
2460357.520107072
  9
$TDUPDATE
 40
2460357.686774653
  9
$TDUUPDATE
 40
2460357.520107986
  9
$TDINDWG
 40
0.0000000116
  9
$TDUSRTIMER
 40
0.0000000116
  9
$USRTIMER
 70
     1
  9
$ANGBASE
 50
0.0
  9
$ANGDIR
 70
     0
  9
$PDMODE
 70
     0
  9
$PDSIZE
 40
-1.0
  9
$PLINEWID
 40
0.0
  9
$SPLFRAME
 70
     0
  9
$SPLINETYPE
 70
     6
  9
$SPLINESEGS
 70
     8
  9
$HANDSEED
  5
1BE
  9
$SURFTAB1
 70
     6
  9
$SURFTAB2
 70
     6
  9
$SURFTYPE
 70
     6
  9
$SURFU
 70
     6
  9
$SURFV
 70
     6
  9
$UCSBASE
  2

  9
$UCSNAME
  2

  9
$UCSORG
 10
0.0
 20
0.0
 30
0.0
  9
$UCSXDIR
 10
1.0
 20
0.0
 30
0.0
  9
$UCSYDIR
 10
0.0
 20
1.0
 30
0.0
  9
$UCSORTHOREF
  2

  9
$UCSORTHOVIEW
 70
     0
  9
$UCSORGTOP
 10
0.0
 20
0.0
 30
0.0
  9
$UCSORGBOTTOM
 10
0.0
 20
0.0
 30
0.0
  9
$UCSORGLEFT
 10
0.0
 20
0.0
 30
0.0
  9
$UCSORGRIGHT
 10
0.0
 20
0.0
 30
0.0
  9
$UCSORGFRONT
 10
0.0
 20
0.0
 30
0.0
  9
$UCSORGBACK
 10
0.0
 20
0.0
 30
0.0
  9
$PUCSBASE
  2

  9
$PUCSNAME
  2

  9
$PUCSORG
 10
0.0
 20
0.0
 30
0.0
  9
$PUCSXDIR
 10
1.0
 20
0.0
 30
0.0
  9
$PUCSYDIR
 10
0.0
 20
1.0
 30
0.0
  9
$PUCSORTHOREF
  2

  9
$PUCSORTHOVIEW
 70
     0
  9
$PUCSORGTOP
 10
0.0
 20
0.0
 30
0.0
  9
$PUCSORGBOTTOM
 10
0.0
 20
0.0
 30
0.0
  9
$PUCSORGLEFT
 10
0.0
 20
0.0
 30
0.0
  9
$PUCSORGRIGHT
 10
0.0
 20
0.0
 30
0.0
  9
$PUCSORGFRONT
 10
0.0
 20
0.0
 30
0.0
  9
$PUCSORGBACK
 10
0.0
 20
0.0
 30
0.0
  9
$USERI1
 70
     0
  9
$USERI2
 70
     0
  9
$USERI3
 70
     0
  9
$USERI4
 70
     0
  9
$USERI5
 70
     0
  9
$USERR1
 40
0.0
  9
$USERR2
 40
0.0
  9
$USERR3
 40
0.0
  9
$USERR4
 40
0.0
  9
$USERR5
 40
0.0
  9
$WORLDVIEW
 70
     1
  9
$SHADEDGE
 70
     3
  9
$SHADEDIF
 70
    70
  9
$TILEMODE
 70
     1
  9
$MAXACTVP
 70
    64
  9
$PINSBASE
 10
0.0
 20
0.0
 30
0.0
  9
$PLIMCHECK
 70
     0
  9
$PEXTMIN
 10
1.0000000000E+20
 20
1.0000000000E+20
 30
1.0000000000E+20
  9
$PEXTMAX
 10
-1.0000000000E+20
 20
-1.0000000000E+20
 30
-1.0000000000E+20
  9
$PLIMMIN
 10
0.0
 20
0.0
  9
$PLIMMAX
 10
420.0
 20
297.0
  9
$UNITMODE
 70
     0
  9
$VISRETAIN
 70
     1
  9
$PLINEGEN
 70
     0
  9
$PSLTSCALE
 70
     1
  9
$TREEDEPTH
 70
  3020
  9
$CMLSTYLE
  2
Standard
  9
$CMLJUST
 70
     0
  9
$CMLSCALE
 40
20.0
  9
$PROXYGRAPHICS
 70
     1
  9
$MEASUREMENT
 70
     1
  9
$CELWEIGHT
370
    -1
  9
$ENDCAPS
280
     0
  9
$JOINSTYLE
280
     0
  9
$LWDISPLAY
290
     1
  9
$INSUNITS
 70
     4
  9
$HYPERLINKBASE
  1

  9
$STYLESHEET
  1

  9
$XEDIT
290
     1
  9
$CEPSNTYPE
380
     0
  9
$PSTYLEMODE
290
     1
  9
$FINGERPRINTGUID
  2
{6c9244e8-5d29-4c94-82d6-5c1508cda1f8}
  9
$VERSIONGUID
  2
{FAEB1C32-E019-11D5-929B-00C0DF256EC4}
  9
$EXTNAMES
290
     1
  9
$PSVPSCALE
 40
0.0
  9
$OLESTARTUP
290
     0
  0
ENDSEC
  0
SECTION
  2
CLASSES
  0
CLASS
  1
ACDBDICTIONARYWDFLT
  2
AcDbDictionaryWithDefault
  3
ObjectDBX Classes
 90
        0
280
     0
281
     0
  0
CLASS
  1
VISUALSTYLE
  2
AcDbVisualStyle
  3
ObjectDBX Classes
 90
     4095
280
     0
281
     0
  0
CLASS
  1
MATERIAL
  2
AcDbMaterial
  3
ObjectDBX Classes
 90
     1153
280
     0
281
     0
  0
CLASS
  1
SCALE
  2
AcDbScale
  3
ObjectDBX Classes
 90
     1153
280
     0
281
     0
  0
CLASS
  1
TABLESTYLE
  2
AcDbTableStyle
  3
ObjectDBX Classes
 90
     4095
280
     0
281
     0
  0
CLASS
  1
MLEADERSTYLE
  2
AcDbMLeaderStyle
  3
ACDB_MLEADERSTYLE_CLASS
 90
     4095
280
     0
281
     0
  0
CLASS
  1
SUN
  2
AcDbSun
  3
SCENEOE
 90
     1153
280
     0
281
     0
  0
CLASS
  1
ACDBPLACEHOLDER
  2
AcDbPlaceHolder
  3
ObjectDBX Classes
 90
        0
280
     0
281
     0
  0
CLASS
  1
LAYOUT
  2
AcDbLayout
  3
ObjectDBX Classes
 90
        0
280
     0
281
     0
  0
ENDSEC
  0
SECTION
  2
TABLES
  0
TABLE
  2
VPORT
  5
8
330
0
100
AcDbSymbolTable
 70
     1
  0
VPORT
  5
29
330
8
100
AcDbSymbolTableRecord
100
AcDbViewportTableRecord
  2
*Active
 70
     0
 10
0.0
 20
0.0
 11
1.0
 21
1.0
 12
420.497
 22
296.926
 13
0.0
 23
0.0
 14
10.0
 24
10.0
 15
10.0
 25
10.0
 16
0.0
 26
0.0
 36
1.0
 17
0.0
 27
0.0
 37
0.0
 40
593.852
 41
1.4161676647
 42
50.0
 43
0.0
 44
0.0
 50
0.0
 51
0.0
 71
     0
 72
  2000
 73
     1
 74
     3
 75
     0
 76
     0
 77
     0
 78
     0
281
     0
 65
     1
110
0.0
120
0.0
130
0.0
111
1.0
121
0.0
131
0.0
112
0.0
122
1.0
132
0.0
 79
     0
146
0.0
  0
ENDTAB
  0
TABLE
  2
LTYPE
  5
5
330
0
100
AcDbSymbolTable
 70
     6
  0
LTYPE
  5
14
330
5
100
AcDbSymbolTableRecord
100
AcDbLinetypeTableRecord
  2
ByBlock
 70
     0
  3

 72
    65
 73
     0
 40
0.0
  0
LTYPE
  5
15
330
5
100
AcDbSymbolTableRecord
100
AcDbLinetypeTableRecord
  2
ByLayer
 70
     0
  3

 72
    65
 73
     0
 40
0.0
  0
LTYPE
  5
16
330
5
100
AcDbSymbolTableRecord
100
AcDbLinetypeTableRecord
  2
Continuous
 70
     0
  3
Solid line
 72
    65
 73
     0
 40
0.0
  0
LTYPE
  5
5E
330
5
100
AcDbSymbolTableRecord
100
AcDbLinetypeTableRecord
  2
HIDDEN
 70
     0
  3
Hidden __ __ __ __ __ __ __ __ __ __ __ __ __ __
 72
    65
 73
     2
 40
1.905
 49
1.27
 74
     0
 49
-0.635
 74
     0
  0
LTYPE
  5
5F
330
5
100
AcDbSymbolTableRecord
100
AcDbLinetypeTableRecord
  2
PHANTOM
 70
     0
  3
Phantom ______  __  __  ______  __  __  ______
 72
    65
 73
     6
 40
12.7
 49
6.35
 74
     0
 49
-1.27
 74
     0
 49
1.27
 74
     0
 49
-1.27
 74
     0
 49
1.27
 74
     0
 49
-1.27
 74
     0
  0
LTYPE
  5
60
330
5
100
AcDbSymbolTableRecord
100
AcDbLinetypeTableRecord
  2
CENTER
 70
     0
  3
Center ____ _ ____ _ ____ _ ____ _ ____ _ ____
 72
    65
 73
     4
 40
10.16
 49
6.35
 74
     0
 49
-1.27
 74
     0
 49
1.27
 74
     0
 49
-1.27
 74
     0
  0
LTYPE
  5
61
330
5
100
AcDbSymbolTableRecord
100
AcDbLinetypeTableRecord
  2
CENTERX2
 70
     0
  3
Center (2x) ________  __  ________  __  _____
 72
    65
 73
     4
 40
20.32
 49
12.7
 74
     0
 49
-2.54
 74
     0
 49
2.54
 74
     0
 49
-2.54
 74
     0
  0
LTYPE
  5
62
330
5
100
AcDbSymbolTableRecord
100
AcDbLinetypeTableRecord
  2
DOT2
 70
     0
  3
Dot (.5x) ........................................
 72
    65
 73
     2
 40
0.635
 49
0.0
 74
     0
 49
-0.635
 74
     0
  0
ENDTAB
  0
TABLE
  2
LAYER
  5
2
330
0
100
AcDbSymbolTable
 70
     1
  0
LAYER
  5
10
330
2
100
AcDbSymbolTableRecord
100
AcDbLayerTableRecord
  2
0
 70
     0
 62
     7
  6
Continuous
370
    -3
390
F
  0
ENDTAB
  0
TABLE
  2
STYLE
  5
3
330
0
100
AcDbSymbolTable
 70
     1
  0
STYLE
  5
11
330
3
100
AcDbSymbolTableRecord
100
AcDbTextStyleTableRecord
  2
Standard
 70
     0
 40
0.0
 41
1.0
 50
0.0
 71
     0
 42
3.5
  3
txt
  4

  0
ENDTAB
  0
TABLE
  2
VIEW
  5
6
330
0
100
AcDbSymbolTable
 70
     0
  0
ENDTAB
  0
TABLE
  2
UCS
  5
7
330
0
100
AcDbSymbolTable
 70
     0
  0
ENDTAB
  0
TABLE
  2
APPID
  5
9
330
0
100
AcDbSymbolTable
 70
     1
  0
APPID
  5
12
330
9
100
AcDbSymbolTableRecord
100
AcDbRegAppTableRecord
  2
ACAD
 70
     0
  0
ENDTAB
  0
TABLE
  2
DIMSTYLE
  5
A
330
0
100
AcDbSymbolTable
 70
     1
100
AcDbDimStyleTable
  0
DIMSTYLE
105
27
330
A
100
AcDbSymbolTableRecord
100
AcDbDimStyleTableRecord
  2
ISO-25
 70
     0
 41
2.5
 42
0.625
 43
3.75
 44
1.25
 73
     0
 74
     0
 77
     1
 78
     8
140
2.5
141
2.5
143
0.0393700787
147
0.625
171
     3
172
     1
178
     0
271
     2
272
     2
274
     3
278
    44
283
     0
284
     8
340
11
  0
ENDTAB
  0
TABLE
  2
BLOCK_RECORD
  5
1
330
0
100
AcDbSymbolTable
 70
     1
  0
BLOCK_RECORD
  5
1F
330
1
100
AcDbSymbolTableRecord
100
AcDbBlockTableRecord
  2
*Model_Space
340
22
  0
BLOCK_RECORD
  5
1B
330
1
100
AcDbSymbolTableRecord
100
AcDbBlockTableRecord
  2
*Paper_Space
340
1E
  0
BLOCK_RECORD
  5
23
330
1
100
AcDbSymbolTableRecord
100
AcDbBlockTableRecord
  2
*Paper_Space0
340
26
  0
ENDTAB
  0
ENDSEC
  0
SECTION
  2
BLOCKS
  0
BLOCK
  5
20
330
1F
100
AcDbEntity
  8
0
100
AcDbBlockBegin
  2
*Model_Space
 70
     0
 10
0.0
 20
0.0
 30
0.0
  3
*Model_Space
  1

  0
ENDBLK
  5
21
330
1F
100
AcDbEntity
  8
0
100
AcDbBlockEnd
  0
BLOCK
  5
1C
330
1B
100
AcDbEntity
 67
     1
  8
0
100
AcDbBlockBegin
  2
*Paper_Space
 70
     0
 10
0.0
 20
0.0
 30
0.0
  3
*Paper_Space
  1

  0
ENDBLK
  5
1D
330
1B
100
AcDbEntity
 67
     1
  8
0
100
AcDbBlockEnd
  0
BLOCK
  5
24
330
23
100
AcDbEntity
  8
0
100
AcDbBlockBegin
  2
*Paper_Space0
 70
     0
 10
0.0
 20
0.0
 30
0.0
  3
*Paper_Space0
  1

  0
ENDBLK
  5
25
330
23
100
AcDbEntity
  8
0
100
AcDbBlockEnd
  0
ENDSEC
  0
SECTION
  2
ENTITIES
  0
ARC
  5
63
330
1F
100
AcDbEntity
  8
0
  6
Continuous
 62
     7
370
    25
100
AcDbCircle
 10
220.5668566163
 20
424.8285342734
 30
0.0
 40
75.00000000000004
100
AcDbArc
 50
286.9377976135
 51
339.288748431
  0
ARC
  5
64
330
1F
100
AcDbEntity
  8
0
  6
Continuous
 62
     7
370
    25
100
AcDbCircle
 10
297.2675736925
 20
395.8285342734
 30
0.0
 40
7.000000000000032
100
AcDbArc
 50
90.0
 51
159.288748431
  0
LINE
  5
65
330
1F
100
AcDbEntity
  8
0
  6
Continuous
 62
     7
370
    25
100
AcDbLine
 10
334.3863720721
 20
402.8285342734
 30
0.0
 11
297.2675736925
 21
402.8285342734
 31
0.0
  0
LINE
  5
66
330
1F
100
AcDbEntity
  8
0
  6
Continuous
 62
     7
370
    25
100
AcDbLine
 10
334.3863720721
 20
386.8285342734
 30
0.0
 11
334.3863720721
 21
402.8285342734
 31
0.0
  0
LINE
  5
67
330
1F
100
AcDbEntity
  8
0
  6
Continuous
 62
     7
370
    25
100
AcDbLine
 10
338.0863720721
 20
386.8285342734
 30
0.0
 11
334.3863720721
 21
386.8285342734
 31
0.0
  0
LINE
  5
68
330
1F
100
AcDbEntity
  8
0
  6
Continuous
 62
     7
370
    25
100
AcDbLine
 10
338.0863720721
 20
402.8285342734
 30
0.0
 11
338.0863720721
 21
386.8285342734
 31
0.0
  0
LINE
  5
69
330
1F
100
AcDbEntity
  8
0
  6
Continuous
 62
     7
370
    25
100
AcDbLine
 10
358.0863720721
 20
402.8285342734
 30
0.0
 11
338.0863720721
 21
402.8285342734
 31
0.0
  0
LINE
  5
6A
330
1F
100
AcDbEntity
  8
0
  6
Continuous
 62
     7
370
    25
100
AcDbLine
 10
358.0863720721
 20
386.8285342734
 30
0.0
 11
358.0863720721
 21
402.8285342734
 31
0.0
  0
LINE
  5
6B
330
1F
100
AcDbEntity
  8
0
  6
Continuous
 62
     7
370
    25
100
AcDbLine
 10
361.7863720721
 20
386.8285342734
 30
0.0
 11
358.0863720721
 21
386.8285342734
 31
0.0
  0
LINE
  5
6C
330
1F
100
AcDbEntity
  8
0
  6
Continuous
 62
     7
370
    25
100
AcDbLine
 10
361.7863720721
 20
402.8285342734
 30
0.0
 11
361.7863720721
 21
386.8285342734
 31
0.0
  0
LINE
  5
6D
330
1F
100
AcDbEntity
  8
0
  6
Continuous
 62
     7
370
    25
100
AcDbLine
 10
364.7863720721
 20
402.8285342734
 30
0.0
 11
361.7863720721
 21
402.8285342734
 31
0.0
  0
ARC
  5
6E
330
1F
100
AcDbEntity
  8
0
  6
Continuous
 62
     7
370
    25
100
AcDbCircle
 10
364.7863720721
 20
395.8285342734
 30
0.0
 40
7.000000000000057
100
AcDbArc
 50
0.0
 51
90.0
  0
LINE
  5
6F
330
1F
100
AcDbEntity
  8
0
  6
Continuous
 62
     7
370
    25
100
AcDbLine
 10
371.7863720721
 20
379.8285342734
 30
0.0
 11
371.7863720721
 21
395.8285342734
 31
0.0
  0
ARC
  5
70
330
1F
100
AcDbEntity
  8
0
  6
Continuous
 62
     7
370
    25
100
AcDbCircle
 10
364.7863720721
 20
379.8285342734
 30
0.0
 40
7.0
100
AcDbArc
 50
270.0
 51
0.0
  0
LINE
  5
71
330
1F
100
AcDbEntity
  8
0
  6
Continuous
 62
     7
370
    25
100
AcDbLine
 10
357.7688304376
 20
372.8285342734
 30
0.0
 11
364.7863720721
 21
372.8285342734
 31
0.0
  0
ARC
  5
72
330
1F
100
AcDbEntity
  8
0
  6
Continuous
 62
     7
370
    25
100
AcDbCircle
 10
357.7688304376
 20
375.3285342734
 30
0.0
 40
2.500000000000024
100
AcDbArc
 50
194.4775121859
 51
270.0
  0
ARC
  5
73
330
1F
100
AcDbEntity
  8
0
  6
Continuous
 62
     7
370
    25
100
AcDbCircle
 10
348.0863720721
 20
372.8285342734
 30
0.0
 40
7.500000000000017
100
AcDbArc
 50
14.4775121859
 51
165.5224878141
  0
ARC
  5
74
330
1F
100
AcDbEntity
  8
0
  6
Continuous
 62
     7
370
    25
100
AcDbCircle
 10
338.4039137066
 20
375.3285342734
 30
0.0
 40
2.500000000000024
100
AcDbArc
 50
270.0
 51
345.5224878141
  0
LINE
  5
75
330
1F
100
AcDbEntity
  8
0
  6
Continuous
 62
     7
370
    25
100
AcDbLine
 10
315.766646532
 20
372.8285342734
 30
0.0
 11
338.4039137066
 21
372.8285342734
 31
0.0
  0
ARC
  5
76
330
1F
100
AcDbEntity
  8
0
  6
Continuous
 62
     7
370
    25
100
AcDbCircle
 10
315.766646532
 20
365.8285342734
 30
0.0
 40
7.000000000000021
100
AcDbArc
 50
90.0
 51
148.2114653664
  0
ARC
  5
77
330
1F
100
AcDbEntity
  8
0
  6
Continuous
 62
     7
370
    25
100
AcDbCircle
 10
220.5668566163
 20
424.8285342734
 30
0.0
 40
105.0
100
AcDbArc
 50
321.3735011815
 51
328.2114653664
  0
ARC
  5
78
330
1F
100
AcDbEntity
  8
0
  6
Continuous
 62
     7
370
    25
100
AcDbCircle
 10
301.8149689907
 20
359.9074727018
 30
0.0
 40
1.000000000000033
100
AcDbArc
 50
165.0
 51
321.3735011815
  0
LINE
  5
79
330
1F
100
AcDbEntity
  8
0
  6
Continuous
 62
     7
370
    25
100
AcDbLine
 10
304.6222129332
 20
374.2479530297
 30
0.0
 11
300.8490431644
 21
360.1662917469
 31
0.0
  0
LINE
  5
7A
330
1F
100
AcDbEntity
  8
0
  6
Continuous
 62
     7
370
    25
100
AcDbLine
 10
301.048287376
 20
375.2055834965
 30
0.0
 11
304.6222129332
 21
374.2479530297
 31
0.0
  0
LINE
  5
7B
330
1F
100
AcDbEntity
  8
0
  6
Continuous
 62
     7
370
    25
100
AcDbLine
 10
294.3189922033
 20
350.091512013
 30
0.0
 11
301.048287376
 21
375.2055834965
 31
0.0
  0
ARC
  5
7C
330
1F
100
AcDbEntity
  8
0
  6
Continuous
 62
     7
370
    25
100
AcDbCircle
 10
220.5668566163
 20
424.8285342734
 30
0.0
 40
105.0
100
AcDbArc
 50
293.1931497386
 51
314.6199788387
  0
LINE
  5
7D
330
1F
100
AcDbEntity
  8
0
  6
Continuous
 62
     7
370
    25
100
AcDbLine
 10
269.5877055224
 20
341.5965885082
 30
0.0
 11
261.9192182235
 21
328.3143788894
 31
0.0
  0
LINE
  5
7E
330
1F
100
AcDbEntity
  8
0
  6
Continuous
 62
     7
370
    25
100
AcDbLine
 10
266.3834115284
 20
343.4465885082
 30
0.0
 11
269.5877055224
 21
341.5965885082
 31
0.0
  0
LINE
  5
7F
330
1F
100
AcDbEntity
  8
0
  6
Continuous
 62
     7
370
    25
100
AcDbLine
 10
256.3834115284
 20
326.1260804325
 30
0.0
 11
266.3834115284
 21
343.4465885082
 31
0.0
  0
ARC
  5
80
330
1F
100
AcDbEntity
  8
0
  6
Continuous
 62
     7
370
    25
100
AcDbCircle
 10
220.5668566163
 20
424.8285342734
 30
0.0
 40
105.0000000000001
100
AcDbArc
 50
268.1304050188
 51
289.9445185474
  0
LINE
  5
81
330
1F
100
AcDbEntity
  8
0
  6
Continuous
 62
     7
370
    25
100
AcDbLine
 10
228.9460719733
 20
331.6892480931
 30
0.0
 11
217.1412528461
 21
319.8844289659
 31
0.0
  0
LINE
  5
82
330
1F
100
AcDbEntity
  8
0
  6
Continuous
 62
     7
370
    25
100
AcDbLine
 10
226.3297768829
 20
334.3055431834
 30
0.0
 11
228.9460719733
 21
331.6892480931
 31
0.0
  0
LINE
  5
83
330
1F
100
AcDbEntity
  8
0
  6
Continuous
 62
     7
370
    25
100
AcDbLine
 10
212.1876412592
 20
320.1634075597
 30
0.0
 11
226.3297768829
 21
334.3055431834
 31
0.0
  0
ARC
  5
84
330
1F
100
AcDbEntity
  8
0
  6
Continuous
 62
     7
370
    25
100
AcDbCircle
 10
220.5668566163
 20
424.8285342734
 30
0.0
 40
105.0
100
AcDbArc
 50
243.427085415
 51
265.4228122831
  0
LINE
  5
85
330
1F
100
AcDbEntity
  8
0
  6
Continuous
 62
     7
370
    25
100
AcDbLine
 10
188.8965738317
 20
339.7536030513
 30
0.0
 11
173.5965404348
 21
330.920124651
 31
0.0
  0
LINE
  5
86
330
1F
100
AcDbEntity
  8
0
  6
Continuous
 62
     7
370
    25
100
AcDbLine
 10
187.0465738317
 20
342.9578970453
 30
0.0
 11
188.8965738317
 21
339.7536030513
 31
0.0
  0
LINE
  5
87
330
1F
100
AcDbEntity
  8
0
  6
Continuous
 62
     7
370
    25
100
AcDbLine
 10
169.726065756
 20
332.9578970453
 30
0.0
 11
187.0465738317
 21
342.9578970453
 31
0.0
  0
ARC
  5
88
330
1F
100
AcDbEntity
  8
0
  6
Continuous
 62
     7
370
    25
100
AcDbCircle
 10
220.5668566163
 20
424.8285342734
 30
0.0
 40
105.0000000000002
100
AcDbArc
 50
218.9686997159
 51
241.0400585567
  0
LINE
  5
89
330
1F
100
AcDbEntity
  8
0
  6
Continuous
 62
     7
370
    25
100
AcDbLine
 10
156.7412613027
 20
363.566874727
 30
0.0
 11
138.9304445413
 21
358.7944807592
 31
0.0
  0
LINE
  5
8A
330
1F
100
AcDbEntity
  8
0
  6
Continuous
 62
     7
370
    25
100
AcDbLine
 10
155.7836308359
 20
367.1408002842
 30
0.0
 11
156.7412613027
 21
363.566874727
 31
0.0
  0
LINE
  5
8B
330
1F
100
AcDbEntity
  8
0
  6
Continuous
 62
     7
370
    25
100
AcDbLine
 10
136.4651143101
 20
361.9644193822
 30
0.0
 11
155.7836308359
 21
367.1408002842
 31
0.0
  0
ARC
  5
8C
330
1F
100
AcDbEntity
  8
0
  6
Continuous
 62
     7
370
    25
100
AcDbCircle
 10
220.5668566163
 20
424.8285342734
 30
0.0
 40
105.0
100
AcDbArc
 50
207.2154658845
 51
216.7772675347
  0
LINE
  5
8D
330
1F
100
AcDbEntity
  8
0
  6
Continuous
 62
     7
370
    25
100
AcDbLine
 10
157.123968914
 20
384.8285342734
 30
0.0
 11
127.1910962185
 21
376.8080452075
 31
0.0
  0
ARC
  5
8E
330
1F
100
AcDbEntity
  8
0
  6
Continuous
 62
     7
370
    25
100
AcDbCircle
 10
220.5668566163
 20
424.8285342734
 30
0.0
 40
75.00000000000004
100
AcDbArc
 50
212.2309526355
 51
284.0046120964
  0
LINE
  5
8F
330
1F
100
AcDbEntity
  8
0
  6
Continuous
 62
     7
370
    25
100
AcDbLine
 10
238.7168566163
 20
332.5443727994
 30
0.0
 11
238.7168566163
 21
352.0578155742
 31
0.0
  0
LINE
  5
90
330
1F
100
AcDbEntity
  8
0
  6
Continuous
 62
     7
370
    25
100
AcDbLine
 10
242.4168566163
 20
332.5443727994
 30
0.0
 11
238.7168566163
 21
332.5443727994
 31
0.0
  0
LINE
  5
91
330
1F
100
AcDbEntity
  8
0
  6
Continuous
 62
     7
370
    25
100
AcDbLine
 10
242.4168566163
 20
353.081914144
 30
0.0
 11
242.4168566163
 21
332.5443727994
 31
0.0
  0
ARC
  5
92
330
1F
100
AcDbEntity
  8
0
  6
Continuous
 62
     7
370
    25
100
AcDbCircle
 10
220.5668566163
 20
429.1296142194
 30
0.0
 40
75.00000000000001
100
AcDbArc
 50
75.9953879036
 51
147.7690473645
  0
LINE
  5
93
330
1F
100
AcDbEntity
  8
0
  6
Continuous
 62
     7
370
    25
100
AcDbLine
 10
157.123968914
 20
469.1296142194
 30
0.0
 11
127.1910962185
 21
477.1501032853
 31
0.0
  0
ARC
  5
94
330
1F
100
AcDbEntity
  8
0
  6
Continuous
 62
     7
370
    25
100
AcDbCircle
 10
220.5668566163
 20
429.1296142194
 30
0.0
 40
105.0
100
AcDbArc
 50
148.9599414433
 51
152.7845341155
  0
LINE
  5
95
330
1F
100
AcDbEntity
  8
0
  6
Continuous
 62
     7
370
    25
100
AcDbLine
 10
130.6021215687
 20
483.2715244906
 30
0.0
 11
150.6021215687
 21
483.2715244906
 31
0.0
  0
LINE
  5
96
330
1F
100
AcDbEntity
  8
0
  6
Continuous
 62
     7
370
    25
100
AcDbLine
 10
150.6021215687
 20
483.2715244906
 30
0.0
 11
150.6021215687
 21
486.9715244906
 31
0.0
  0
LINE
  5
97
330
1F
100
AcDbEntity
  8
0
  6
Continuous
 62
     7
370
    25
100
AcDbLine
 10
150.6021215687
 20
486.9715244906
 30
0.0
 11
132.9351647681
 21
486.9715244906
 31
0.0
  0
ARC
  5
98
330
1F
100
AcDbEntity
  8
0
  6
Continuous
 62
     7
370
    25
100
AcDbCircle
 10
220.5668566163
 20
429.1296142194
 30
0.0
 40
105.0
100
AcDbArc
 50
124.5771877169
 51
146.572914585
  0
LINE
  5
99
330
1F
100
AcDbEntity
  8
0
  6
Continuous
 62
     7
370
    25
100
AcDbLine
 10
160.9776798964
 20
515.5826651652
 30
0.0
 11
180.2961964222
 21
510.4062842632
 31
0.0
  0
LINE
  5
9A
330
1F
100
AcDbEntity
  8
0
  6
Continuous
 62
     7
370
    25
100
AcDbLine
 10
180.2961964222
 20
510.4062842632
 30
0.0
 11
181.2538268891
 21
513.9802098204
 31
0.0
  0
LINE
  5
9B
330
1F
100
AcDbEntity
  8
0
  6
Continuous
 62
     7
370
    25
100
AcDbLine
 10
181.2538268891
 20
513.9802098204
 30
0.0
 11
165.1281440742
 21
518.3010735081
 31
0.0
  0
ARC
  5
9C
330
1F
100
AcDbEntity
  8
0
  6
Continuous
 62
     7
370
    25
100
AcDbCircle
 10
220.5668566163
 20
429.1296142194
 30
0.0
 40
105.0000000000001
100
AcDbArc
 50
100.0554814526
 51
121.8695949812
  0
LINE
  5
9D
330
1F
100
AcDbEntity
  8
0
  6
Continuous
 62
     7
370
    25
100
AcDbLine
 10
202.2336761257
 20
532.5167241175
 30
0.0
 11
219.5541842014
 21
522.5167241175
 31
0.0
  0
LINE
  5
9E
330
1F
100
AcDbEntity
  8
0
  6
Continuous
 62
     7
370
    25
100
AcDbLine
 10
219.5541842014
 20
522.5167241175
 30
0.0
 11
221.4041842014
 21
525.7210181115
 31
0.0
  0
LINE
  5
9F
330
1F
100
AcDbEntity
  8
0
  6
Continuous
 62
     7
370
    25
100
AcDbLine
 10
221.4041842014
 20
525.7210181115
 30
0.0
 11
208.1219745826
 21
533.3895054104
 31
0.0
  0
ARC
  5
A0
330
1F
100
AcDbEntity
  8
0
  6
Continuous
 62
     7
370
    25
100
AcDbCircle
 10
220.5668566163
 20
429.1296142194
 30
0.0
 40
105.0
100
AcDbArc
 50
75.3800211613
 51
96.8068502614
  0
LINE
  5
A1
330
1F
100
AcDbEntity
  8
0
  6
Continuous
 62
     7
370
    25
100
AcDbLine
 10
247.0695684878
 20
530.7298418936
 30
0.0
 11
261.2117041115
 21
516.5877062699
 31
0.0
  0
LINE
  5
A2
330
1F
100
AcDbEntity
  8
0
  6
Continuous
 62
     7
370
    25
100
AcDbLine
 10
261.2117041115
 20
516.5877062699
 30
0.0
 11
263.8279992019
 21
519.2040013602
 31
0.0
  0
LINE
  5
A3
330
1F
100
AcDbEntity
  8
0
  6
Continuous
 62
     7
370
    25
100
AcDbLine
 10
263.8279992019
 20
519.2040013602
 30
0.0
 11
254.5557425493
 21
528.4762580128
 31
0.0
  0
ARC
  5
A4
330
1F
100
AcDbEntity
  8
0
  6
Continuous
 62
     7
370
    25
100
AcDbCircle
 10
220.5668566163
 20
429.1296142194
 30
0.0
 40
105.0
100
AcDbArc
 50
50.5407157692
 51
71.1129439462
  0
LINE
  5
A5
330
1F
100
AcDbEntity
  8
0
  6
Continuous
 62
     7
370
    25
100
AcDbLine
 10
287.2974776985
 20
510.1976363364
 30
0.0
 11
300.2974776985
 21
487.6809758381
 31
0.0
  0
LINE
  5
A6
330
1F
100
AcDbEntity
  8
0
  6
Continuous
 62
     7
370
    25
100
AcDbLine
 10
300.2974776985
 20
487.6809758381
 30
0.0
 11
303.5017716925
 21
489.5309758381
 31
0.0
  0
LINE
  5
A7
330
1F
100
AcDbEntity
  8
0
  6
Continuous
 62
     7
370
    25
100
AcDbLine
 10
303.5017716925
 20
489.5309758381
 30
0.0
 11
298.810818745
 21
497.655944679
 31
0.0
  0
ARC
  5
A8
330
1F
100
AcDbEntity
  8
0
  6
Continuous
 62
     7
370
    25
100
AcDbCircle
 10
299.2438314469
 20
497.905944679
 30
0.0
 40
0.5000000000000686
100
AcDbArc
 50
41.1586825251
 51
210.0
  0
ARC
  5
A9
330
1F
100
AcDbEntity
  8
0
  6
Continuous
 62
     7
370
    25
100
AcDbCircle
 10
220.5668566163
 20
429.1296142194
 30
0.0
 40
105.0
100
AcDbArc
 50
31.7885346336
 51
41.1586825251
  0
ARC
  5
AA
330
1F
100
AcDbEntity
  8
0
  6
Continuous
 62
     7
370
    25
100
AcDbCircle
 10
315.766646532
 20
488.1296142194
 30
0.0
 40
7.000000000000021
100
AcDbArc
 50
211.7885346336
 51
270.0
  0
LINE
  5
AB
330
1F
100
AcDbEntity
  8
0
  6
Continuous
 62
     7
370
    25
100
AcDbLine
 10
315.766646532
 20
481.1296142194
 30
0.0
 11
317.6626559809
 21
481.1296142194
 31
0.0
  0
LINE
  5
AC
330
1F
100
AcDbEntity
  8
0
  6
Continuous
 62
     7
370
    25
100
AcDbLine
 10
317.6626559809
 20
481.1296142194
 30
0.0
 11
317.6626559809
 21
461.1296142194
 31
0.0
  0
LINE
  5
AD
330
1F
100
AcDbEntity
  8
0
  6
Continuous
 62
     7
370
    25
100
AcDbLine
 10
317.6626559809
 20
461.1296142194
 30
0.0
 11
321.3626559809
 21
461.1296142194
 31
0.0
  0
LINE
  5
AE
330
1F
100
AcDbEntity
  8
0
  6
Continuous
 62
     7
370
    25
100
AcDbLine
 10
321.3626559809
 20
461.1296142194
 30
0.0
 11
321.3626559809
 21
481.1296142194
 31
0.0
  0
LINE
  5
AF
330
1F
100
AcDbEntity
  8
0
  6
Continuous
 62
     7
370
    25
100
AcDbLine
 10
321.3626559809
 20
481.1296142194
 30
0.0
 11
338.4039137066
 21
481.1296142194
 31
0.0
  0
ARC
  5
B0
330
1F
100
AcDbEntity
  8
0
  6
Continuous
 62
     7
370
    25
100
AcDbCircle
 10
338.4039137066
 20
478.6296142194
 30
0.0
 40
2.500000000000024
100
AcDbArc
 50
14.4775121859
 51
90.0
  0
ARC
  5
B1
330
1F
100
AcDbEntity
  8
0
  6
Continuous
 62
     7
370
    25
100
AcDbCircle
 10
348.0863720721
 20
481.1296142194
 30
0.0
 40
7.500000000000017
100
AcDbArc
 50
194.4775121859
 51
345.5224878141
  0
ARC
  5
B2
330
1F
100
AcDbEntity
  8
0
  6
Continuous
 62
     7
370
    25
100
AcDbCircle
 10
357.7688304376
 20
478.6296142194
 30
0.0
 40
2.5
100
AcDbArc
 50
90.0
 51
165.5224878141
  0
LINE
  5
B3
330
1F
100
AcDbEntity
  8
0
  6
Continuous
 62
     7
370
    25
100
AcDbLine
 10
357.7688304376
 20
481.1296142194
 30
0.0
 11
364.7863720721
 21
481.1296142194
 31
0.0
  0
ARC
  5
B4
330
1F
100
AcDbEntity
  8
0
  6
Continuous
 62
     7
370
    25
100
AcDbCircle
 10
364.7863720721
 20
474.1296142194
 30
0.0
 40
7.0
100
AcDbArc
 50
0.0
 51
90.0
  0
LINE
  5
B5
330
1F
100
AcDbEntity
  8
0
  6
Continuous
 62
     7
370
    25
100
AcDbLine
 10
371.7863720721
 20
474.1296142194
 30
0.0
 11
371.7863720721
 21
458.1296142194
 31
0.0
  0
ARC
  5
B6
330
1F
100
AcDbEntity
  8
0
  6
Continuous
 62
     7
370
    25
100
AcDbCircle
 10
364.7863720721
 20
458.1296142194
 30
0.0
 40
7.0
100
AcDbArc
 50
270.0
 51
0.0
  0
LINE
  5
B7
330
1F
100
AcDbEntity
  8
0
  6
Continuous
 62
     7
370
    25
100
AcDbLine
 10
364.7863720721
 20
451.1296142194
 30
0.0
 11
361.7863720721
 21
451.1296142194
 31
0.0
  0
LINE
  5
B8
330
1F
100
AcDbEntity
  8
0
  6
Continuous
 62
     7
370
    25
100
AcDbLine
 10
361.7863720721
 20
451.1296142194
 30
0.0
 11
361.7863720721
 21
467.1296142194
 31
0.0
  0
LINE
  5
B9
330
1F
100
AcDbEntity
  8
0
  6
Continuous
 62
     7
370
    25
100
AcDbLine
 10
361.7863720721
 20
467.1296142194
 30
0.0
 11
358.0863720721
 21
467.1296142194
 31
0.0
  0
LINE
  5
BA
330
1F
100
AcDbEntity
  8
0
  6
Continuous
 62
     7
370
    25
100
AcDbLine
 10
358.0863720721
 20
467.1296142194
 30
0.0
 11
358.0863720721
 21
451.1296142194
 31
0.0
  0
LINE
  5
BB
330
1F
100
AcDbEntity
  8
0
  6
Continuous
 62
     7
370
    25
100
AcDbLine
 10
358.0863720721
 20
451.1296142194
 30
0.0
 11
338.0863720721
 21
451.1296142194
 31
0.0
  0
LINE
  5
BC
330
1F
100
AcDbEntity
  8
0
  6
Continuous
 62
     7
370
    25
100
AcDbLine
 10
338.0863720721
 20
451.1296142194
 30
0.0
 11
338.0863720721
 21
467.1296142194
 31
0.0
  0
LINE
  5
BD
330
1F
100
AcDbEntity
  8
0
  6
Continuous
 62
     7
370
    25
100
AcDbLine
 10
338.0863720721
 20
467.1296142194
 30
0.0
 11
334.3863720721
 21
467.1296142194
 31
0.0
  0
LINE
  5
BE
330
1F
100
AcDbEntity
  8
0
  6
Continuous
 62
     7
370
    25
100
AcDbLine
 10
334.3863720721
 20
467.1296142194
 30
0.0
 11
334.3863720721
 21
451.1296142194
 31
0.0
  0
ARC
  5
BF
330
1F
100
AcDbEntity
  8
0
  6
Continuous
 62
     7
370
    25
100
AcDbCircle
 10
297.2675736925
 20
458.1296142194
 30
0.0
 40
7.000000000000012
100
AcDbArc
 50
200.711251569
 51
270.0
  0
ARC
  5
C0
330
1F
100
AcDbEntity
  8
0
  6
Continuous
 62
     7
370
    25
100
AcDbCircle
 10
220.5668566163
 20
429.1296142194
 30
0.0
 40
75.00000000000004
100
AcDbArc
 50
20.711251569
 51
73.0622023865
  0
LINE
  5
C1
330
1F
100
AcDbEntity
  8
0
  6
Continuous
 62
     7
370
    25
100
AcDbLine
 10
242.4168566163
 20
500.8762343488
 30
0.0
 11
242.4168566163
 21
521.4137756934
 31
0.0
  0
LINE
  5
C2
330
1F
100
AcDbEntity
  8
0
  6
Continuous
 62
     7
370
    25
100
AcDbLine
 10
242.4168566163
 20
521.4137756934
 30
0.0
 11
238.7168566163
 21
521.4137756934
 31
0.0
  0
LINE
  5
C3
330
1F
100
AcDbEntity
  8
0
  6
Continuous
 62
     7
370
    25
100
AcDbLine
 10
334.3863720721
 20
451.1296142194
 30
0.0
 11
297.2675736925
 21
451.1296142194
 31
0.0
  0
LINE
  5
C4
330
1F
100
AcDbEntity
  8
0
  6
Continuous
 62
     7
370
    25
100
AcDbLine
 10
238.7168566163
 20
521.4137756934
 30
0.0
 11
238.7168566163
 21
501.9003329186
 31
0.0
  0
CIRCLE
  5
C5
330
1F
100
AcDbEntity
  8
0
  6
Continuous
 62
     7
370
    25
100
AcDbCircle
 10
551.9725693926
 20
424.8285342734
 30
0.0
 40
20.00000000000006
  0
LINE
  5
C6
330
1F
100
AcDbEntity
  8
0
  6
Continuous
 62
     7
370
    25
100
AcDbLine
 10
563.6334787419
 20
388.4572792339
 30
0.0
 11
567.7664018679
 21
373.0330001441
 31
0.0
  0
LINE
  5
C7
330
1F
100
AcDbEntity
  8
0
  6
Continuous
 62
     7
370
    25
100
AcDbLine
 10
560.0595531846
 20
387.4996487671
 30
0.0
 11
563.6334787419
 21
388.4572792339
 31
0.0
  0
LINE
  5
C8
330
1F
100
AcDbEntity
  8
0
  6
Continuous
 62
     7
370
    25
100
AcDbLine
 10
564.1924763106
 20
372.0753696772
 30
0.0
 11
560.0595531846
 21
387.4996487671
 31
0.0
  0
SPLINE
  5
C9
330
1F
100
AcDbEntity
  8
0
  6
Continuous
 62
     7
370
    25
100
AcDbSpline
210
0.0
220
0.0
230
1.0
 70
     8
 71
     3
 72
     8
 73
     4
 74
     0
 42
0.00000001
 43
0.00000001
 40
0.2613107209183196
 40
0.2613107209183196
 40
0.2613107209183196
 40
0.2613107209183196
 40
1.0
 40
1.0
 40
1.0
 40
1.0
 10
553.8225693925989
 20
370.710145531718
 30
0.0
 10
557.3012380446136
 20
370.8290614336095
 30
0.0
 10
560.7578736839416
 20
371.2841361487766
 30
0.0
 10
564.1924763105828
 20
372.0753696772192
 30
0.0
  0
LINE
  5
CA
330
1F
100
AcDbEntity
  8
0
  6
Continuous
 62
     7
370
    25
100
AcDbLine
 10
553.8225693926
 20
386.6785342734
 30
0.0
 11
553.8225693926
 21
370.7101455317
 31
0.0
  0
LINE
  5
CB
330
1F
100
AcDbEntity
  8
0
  6
Continuous
 62
     7
370
    25
100
AcDbLine
 10
550.1225693926
 20
386.6785342734
 30
0.0
 11
553.8225693926
 21
386.6785342734
 31
0.0
  0
LINE
  5
CC
330
1F
100
AcDbEntity
  8
0
  6
Continuous
 62
     7
370
    25
100
AcDbLine
 10
550.1225693926
 20
370.7101455317
 30
0.0
 11
550.1225693926
 21
386.6785342734
 31
0.0
  0
ARC
  5
CD
330
1F
100
AcDbEntity
  8
0
  6
Continuous
 62
     7
370
    25
100
AcDbCircle
 10
551.9725693926
 20
424.8285342734
 30
0.0
 40
54.15000000000002
100
AcDbArc
 50
256.9578545334
 51
268.0421454666
  0
LINE
  5
CE
330
1F
100
AcDbEntity
  8
0
  6
Continuous
 62
     7
370
    25
100
AcDbLine
 10
543.8855856006
 20
387.4996487671
 30
0.0
 11
539.7526624746
 21
372.0753696772
 31
0.0
  0
LINE
  5
CF
330
1F
100
AcDbEntity
  8
0
  6
Continuous
 62
     7
370
    25
100
AcDbLine
 10
540.3116600433
 20
388.457279234
 30
0.0
 11
543.8855856006
 21
387.4996487671
 31
0.0
  0
LINE
  5
D0
330
1F
100
AcDbEntity
  8
0
  6
Continuous
 62
     7
370
    25
100
AcDbLine
 10
536.1787369173
 20
373.0330001441
 30
0.0
 11
540.3116600433
 21
388.457279234
 31
0.0
  0
ARC
  5
D1
330
1F
100
AcDbEntity
  8
0
  6
Continuous
 62
     7
370
    25
100
AcDbCircle
 10
551.9725693926
 20
424.8285342734
 30
0.0
 40
54.14999999999997
100
AcDbArc
 50
241.9578545334
 51
253.0421454666
  0
LINE
  5
D2
330
1F
100
AcDbEntity
  8
0
  6
Continuous
 62
     7
370
    25
100
AcDbLine
 10
534.4997163896
 20
390.8646651191
 30
0.0
 11
526.5155220187
 21
377.0356348112
 31
0.0
  0
LINE
  5
D3
330
1F
100
AcDbEntity
  8
0
  6
Continuous
 62
     7
370
    25
100
AcDbLine
 10
531.2954223956
 20
392.7146651191
 30
0.0
 11
534.4997163896
 21
390.8646651191
 31
0.0
  0
LINE
  5
D4
330
1F
100
AcDbEntity
  8
0
  6
Continuous
 62
     7
370
    25
100
AcDbLine
 10
523.3112280247
 20
378.8856348112
 30
0.0
 11
531.2954223956
 21
392.7146651191
 31
0.0
  0
ARC
  5
D5
330
1F
100
AcDbEntity
  8
0
  6
Continuous
 62
     7
370
    25
100
AcDbCircle
 10
551.9725693926
 20
424.8285342734
 30
0.0
 40
54.14999999999998
100
AcDbArc
 50
226.9578545334
 51
238.0421454666
  0
LINE
  5
D6
330
1F
100
AcDbEntity
  8
0
  6
Continuous
 62
     7
370
    25
100
AcDbLine
 10
526.3045932355
 20
396.544263026
 30
0.0
 11
515.0132372716
 21
385.2529070621
 31
0.0
  0
LINE
  5
D7
330
1F
100
AcDbEntity
  8
0
  6
Continuous
 62
     7
370
    25
100
AcDbLine
 10
523.6882981451
 20
399.1605581164
 30
0.0
 11
526.3045932355
 21
396.544263026
 31
0.0
  0
LINE
  5
D8
330
1F
100
AcDbEntity
  8
0
  6
Continuous
 62
     7
370
    25
100
AcDbLine
 10
512.3969421812
 20
387.8692021525
 30
0.0
 11
523.6882981451
 21
399.1605581164
 31
0.0
  0
ARC
  5
D9
330
1F
100
AcDbEntity
  8
0
  6
Continuous
 62
     7
370
    25
100
AcDbCircle
 10
551.9725693926
 20
424.8285342734
 30
0.0
 40
54.14999999999998
100
AcDbArc
 50
211.9578545334
 51
223.0421454666
  0
LINE
  5
DA
330
1F
100
AcDbEntity
  8
0
  6
Continuous
 62
     7
370
    25
100
AcDbLine
 10
519.8587002382
 20
404.1513872764
 30
0.0
 11
506.0296699304
 21
396.1671929056
 31
0.0
  0
LINE
  5
DB
330
1F
100
AcDbEntity
  8
0
  6
Continuous
 62
     7
370
    25
100
AcDbLine
 10
518.0087002382
 20
407.3556812704
 30
0.0
 11
519.8587002382
 21
404.1513872764
 31
0.0
  0
LINE
  5
DC
330
1F
100
AcDbEntity
  8
0
  6
Continuous
 62
     7
370
    25
100
AcDbLine
 10
504.1796699304
 20
399.3714868996
 30
0.0
 11
518.0087002382
 21
407.3556812704
 31
0.0
  0
ARC
  5
DD
330
1F
100
AcDbEntity
  8
0
  6
Continuous
 62
     7
370
    25
100
AcDbCircle
 10
551.9725693926
 20
424.8285342734
 30
0.0
 40
54.15000000000001
100
AcDbArc
 50
196.9578545334
 51
208.0421454666
  0
LINE
  5
DE
330
1F
100
AcDbEntity
  8
0
  6
Continuous
 62
     7
370
    25
100
AcDbLine
 10
515.6013143531
 20
413.1676249241
 30
0.0
 11
500.1770352633
 21
409.0347017982
 31
0.0
  0
LINE
  5
DF
330
1F
100
AcDbEntity
  8
0
  6
Continuous
 62
     7
370
    25
100
AcDbLine
 10
514.6436838862
 20
416.7415504814
 30
0.0
 11
515.6013143531
 21
413.1676249241
 31
0.0
  0
LINE
  5
E0
330
1F
100
AcDbEntity
  8
0
  6
Continuous
 62
     7
370
    25
100
AcDbLine
 10
499.2194047964
 20
412.6086273555
 30
0.0
 11
514.6436838862
 21
416.7415504814
 31
0.0
  0
ARC
  5
E1
330
1F
100
AcDbEntity
  8
0
  6
Continuous
 62
     7
370
    25
100
AcDbCircle
 10
551.9725693926
 20
424.8285342734
 30
0.0
 40
54.14999999999994
100
AcDbArc
 50
181.9578545334
 51
193.0421454666
  0
LINE
  5
E2
330
1F
100
AcDbEntity
  8
0
  6
Continuous
 62
     7
370
    25
100
AcDbLine
 10
513.8225693926
 20
422.9785342734
 30
0.0
 11
497.8541806509
 21
422.9785342734
 31
0.0
  0
LINE
  5
E3
330
1F
100
AcDbEntity
  8
0
  6
Continuous
 62
     7
370
    25
100
AcDbLine
 10
513.8225693926
 20
426.6785342734
 30
0.0
 11
513.8225693926
 21
422.9785342734
 31
0.0
  0
LINE
  5
E4
330
1F
100
AcDbEntity
  8
0
  6
Continuous
 62
     7
370
    25
100
AcDbLine
 10
497.8541806509
 20
426.6785342734
 30
0.0
 11
513.8225693926
 21
426.6785342734
 31
0.0
  0
ARC
  5
E5
330
1F
100
AcDbEntity
  8
0
  6
Continuous
 62
     7
370
    25
100
AcDbCircle
 10
551.9725693926
 20
424.8285342734
 30
0.0
 40
54.14999999999994
100
AcDbArc
 50
166.9578545334
 51
178.0421454666
  0
LINE
  5
E6
330
1F
100
AcDbEntity
  8
0
  6
Continuous
 62
     7
370
    25
100
AcDbLine
 10
514.6436838862
 20
432.9155180655
 30
0.0
 11
499.2194047964
 21
437.0484411914
 31
0.0
  0
LINE
  5
E7
330
1F
100
AcDbEntity
  8
0
  6
Continuous
 62
     7
370
    25
100
AcDbLine
 10
515.6013143531
 20
436.4894436227
 30
0.0
 11
514.6436838862
 21
432.9155180655
 31
0.0
  0
LINE
  5
E8
330
1F
100
AcDbEntity
  8
0
  6
Continuous
 62
     7
370
    25
100
AcDbLine
 10
500.1770352633
 20
440.6223667487
 30
0.0
 11
515.6013143531
 21
436.4894436227
 31
0.0
  0
ARC
  5
E9
330
1F
100
AcDbEntity
  8
0
  6
Continuous
 62
     7
370
    25
100
AcDbCircle
 10
551.9725693926
 20
424.8285342734
 30
0.0
 40
54.14999999999994
100
AcDbArc
 50
151.9578545334
 51
163.0421454666
  0
LINE
  5
EA
330
1F
100
AcDbEntity
  8
0
  6
Continuous
 62
     7
370
    25
100
AcDbLine
 10
518.0087002382
 20
442.3013872764
 30
0.0
 11
504.1796699304
 21
450.2855816473
 31
0.0
  0
LINE
  5
EB
330
1F
100
AcDbEntity
  8
0
  6
Continuous
 62
     7
370
    25
100
AcDbLine
 10
519.8587002382
 20
445.5056812704
 30
0.0
 11
518.0087002382
 21
442.3013872764
 31
0.0
  0
LINE
  5
EC
330
1F
100
AcDbEntity
  8
0
  6
Continuous
 62
     7
370
    25
100
AcDbLine
 10
506.0296699304
 20
453.4898756413
 30
0.0
 11
519.8587002382
 21
445.5056812704
 31
0.0
  0
ARC
  5
ED
330
1F
100
AcDbEntity
  8
0
  6
Continuous
 62
     7
370
    25
100
AcDbCircle
 10
551.9725693926
 20
424.8285342734
 30
0.0
 40
54.14999999999998
100
AcDbArc
 50
136.9578545334
 51
148.0421454666
  0
LINE
  5
EE
330
1F
100
AcDbEntity
  8
0
  6
Continuous
 62
     7
370
    25
100
AcDbLine
 10
523.6882981451
 20
450.4965104305
 30
0.0
 11
512.3969421812
 21
461.7878663944
 31
0.0
  0
LINE
  5
EF
330
1F
100
AcDbEntity
  8
0
  6
Continuous
 62
     7
370
    25
100
AcDbLine
 10
526.3045932355
 20
453.1128055209
 30
0.0
 11
523.6882981451
 21
450.4965104305
 31
0.0
  0
LINE
  5
F0
330
1F
100
AcDbEntity
  8
0
  6
Continuous
 62
     7
370
    25
100
AcDbLine
 10
515.0132372716
 20
464.4041614848
 30
0.0
 11
526.3045932355
 21
453.1128055209
 31
0.0
  0
ARC
  5
F1
330
1F
100
AcDbEntity
  8
0
  6
Continuous
 62
     7
370
    25
100
AcDbCircle
 10
551.9725693926
 20
424.8285342734
 30
0.0
 40
54.14999999999993
100
AcDbArc
 50
121.9578545334
 51
133.0421454666
  0
LINE
  5
F2
330
1F
100
AcDbEntity
  8
0
  6
Continuous
 62
     7
370
    25
100
AcDbLine
 10
531.2954223956
 20
456.9424034278
 30
0.0
 11
523.3112280247
 21
470.7714337357
 31
0.0
  0
LINE
  5
F3
330
1F
100
AcDbEntity
  8
0
  6
Continuous
 62
     7
370
    25
100
AcDbLine
 10
534.4997163896
 20
458.7924034278
 30
0.0
 11
531.2954223956
 21
456.9424034278
 31
0.0
  0
LINE
  5
F4
330
1F
100
AcDbEntity
  8
0
  6
Continuous
 62
     7
370
    25
100
AcDbLine
 10
526.5155220187
 20
472.6214337357
 30
0.0
 11
534.4997163896
 21
458.7924034278
 31
0.0
  0
ARC
  5
F5
330
1F
100
AcDbEntity
  8
0
  6
Continuous
 62
     7
370
    25
100
AcDbCircle
 10
551.9725693926
 20
424.8285342734
 30
0.0
 40
54.14999999999999
100
AcDbArc
 50
106.9578545334
 51
118.0421454666
  0
LINE
  5
F6
330
1F
100
AcDbEntity
  8
0
  6
Continuous
 62
     7
370
    25
100
AcDbLine
 10
540.3116600433
 20
461.1997893129
 30
0.0
 11
536.1787369173
 21
476.6240684028
 31
0.0
  0
LINE
  5
F7
330
1F
100
AcDbEntity
  8
0
  6
Continuous
 62
     7
370
    25
100
AcDbLine
 10
543.8855856006
 20
462.1574197798
 30
0.0
 11
540.3116600433
 21
461.1997893129
 31
0.0
  0
LINE
  5
F8
330
1F
100
AcDbEntity
  8
0
  6
Continuous
 62
     7
370
    25
100
AcDbLine
 10
539.7526624746
 20
477.5816988697
 30
0.0
 11
543.8855856006
 21
462.1574197798
 31
0.0
  0
ARC
  5
F9
330
1F
100
AcDbEntity
  8
0
  6
Continuous
 62
     7
370
    25
100
AcDbCircle
 10
551.9725693926
 20
424.8285342734
 30
0.0
 40
54.14999999999997
100
AcDbArc
 50
91.9578545334
 51
103.0421454666
  0
LINE
  5
FA
330
1F
100
AcDbEntity
  8
0
  6
Continuous
 62
     7
370
    25
100
AcDbLine
 10
550.1225693926
 20
462.9785342734
 30
0.0
 11
550.1225693926
 21
478.9469230152
 31
0.0
  0
LINE
  5
FB
330
1F
100
AcDbEntity
  8
0
  6
Continuous
 62
     7
370
    25
100
AcDbLine
 10
553.8225693926
 20
462.9785342734
 30
0.0
 11
550.1225693926
 21
462.9785342734
 31
0.0
  0
LINE
  5
FC
330
1F
100
AcDbEntity
  8
0
  6
Continuous
 62
     7
370
    25
100
AcDbLine
 10
553.8225693926
 20
478.9469230152
 30
0.0
 11
553.8225693926
 21
462.9785342734
 31
0.0
  0
ARC
  5
FD
330
1F
100
AcDbEntity
  8
0
  6
Continuous
 62
     7
370
    25
100
AcDbCircle
 10
551.9725693926
 20
424.8285342734
 30
0.0
 40
54.14999999999998
100
AcDbArc
 50
76.9578545334
 51
88.0421454666
  0
LINE
  5
FE
330
1F
100
AcDbEntity
  8
0
  6
Continuous
 62
     7
370
    25
100
AcDbLine
 10
560.0595531846
 20
462.1574197798
 30
0.0
 11
564.1924763106
 21
477.5816988697
 31
0.0
  0
LINE
  5
FF
330
1F
100
AcDbEntity
  8
0
  6
Continuous
 62
     7
370
    25
100
AcDbLine
 10
563.6334787419
 20
461.1997893129
 30
0.0
 11
560.0595531846
 21
462.1574197798
 31
0.0
  0
LINE
  5
100
330
1F
100
AcDbEntity
  8
0
  6
Continuous
 62
     7
370
    25
100
AcDbLine
 10
567.7664018679
 20
476.6240684028
 30
0.0
 11
563.6334787419
 21
461.1997893129
 31
0.0
  0
ARC
  5
101
330
1F
100
AcDbEntity
  8
0
  6
Continuous
 62
     7
370
    25
100
AcDbCircle
 10
551.9725693926
 20
424.8285342734
 30
0.0
 40
54.14999999999996
100
AcDbArc
 50
61.9578545334
 51
73.0421454666
  0
LINE
  5
102
330
1F
100
AcDbEntity
  8
0
  6
Continuous
 62
     7
370
    25
100
AcDbLine
 10
569.4454223956
 20
458.7924034278
 30
0.0
 11
577.4296167665
 21
472.6214337356
 31
0.0
  0
LINE
  5
103
330
1F
100
AcDbEntity
  8
0
  6
Continuous
 62
     7
370
    25
100
AcDbLine
 10
572.6497163896
 20
456.9424034278
 30
0.0
 11
569.4454223956
 21
458.7924034278
 31
0.0
  0
LINE
  5
104
330
1F
100
AcDbEntity
  8
0
  6
Continuous
 62
     7
370
    25
100
AcDbLine
 10
580.6339107605
 20
470.7714337356
 30
0.0
 11
572.6497163896
 21
456.9424034278
 31
0.0
  0
ARC
  5
105
330
1F
100
AcDbEntity
  8
0
  6
Continuous
 62
     7
370
    25
100
AcDbCircle
 10
551.9725693926
 20
424.8285342734
 30
0.0
 40
54.15000000000001
100
AcDbArc
 50
46.9578545334
 51
58.0421454666
  0
LINE
  5
106
330
1F
100
AcDbEntity
  8
0
  6
Continuous
 62
     7
370
    25
100
AcDbLine
 10
577.6405455497
 20
453.1128055209
 30
0.0
 11
588.9319015136
 21
464.4041614848
 31
0.0
  0
LINE
  5
107
330
1F
100
AcDbEntity
  8
0
  6
Continuous
 62
     7
370
    25
100
AcDbLine
 10
580.2568406401
 20
450.4965104305
 30
0.0
 11
577.6405455497
 21
453.1128055209
 31
0.0
  0
LINE
  5
108
330
1F
100
AcDbEntity
  8
0
  6
Continuous
 62
     7
370
    25
100
AcDbLine
 10
591.548196604
 20
461.7878663944
 30
0.0
 11
580.2568406401
 21
450.4965104305
 31
0.0
  0
ARC
  5
109
330
1F
100
AcDbEntity
  8
0
  6
Continuous
 62
     7
370
    25
100
AcDbCircle
 10
551.9725693926
 20
424.8285342734
 30
0.0
 40
54.14999999999999
100
AcDbArc
 50
31.9578545334
 51
43.0421454666
  0
LINE
  5
10A
330
1F
100
AcDbEntity
  8
0
  6
Continuous
 62
     7
370
    25
100
AcDbLine
 10
584.086438547
 20
445.5056812704
 30
0.0
 11
597.9154688548
 21
453.4898756413
 31
0.0
  0
LINE
  5
10B
330
1F
100
AcDbEntity
  8
0
  6
Continuous
 62
     7
370
    25
100
AcDbLine
 10
585.936438547
 20
442.3013872764
 30
0.0
 11
584.086438547
 21
445.5056812704
 31
0.0
  0
LINE
  5
10C
330
1F
100
AcDbEntity
  8
0
  6
Continuous
 62
     7
370
    25
100
AcDbLine
 10
599.7654688548
 20
450.2855816473
 30
0.0
 11
585.936438547
 21
442.3013872764
 31
0.0
  0
ARC
  5
10D
330
1F
100
AcDbEntity
  8
0
  6
Continuous
 62
     7
370
    25
100
AcDbCircle
 10
551.9725693926
 20
424.8285342734
 30
0.0
 40
54.15000000000001
100
AcDbArc
 50
16.9578545334
 51
28.0421454666
  0
LINE
  5
10E
330
1F
100
AcDbEntity
  8
0
  6
Continuous
 62
     7
370
    25
100
AcDbLine
 10
588.3438244321
 20
436.4894436227
 30
0.0
 11
603.7681035219
 21
440.6223667487
 31
0.0
  0
LINE
  5
10F
330
1F
100
AcDbEntity
  8
0
  6
Continuous
 62
     7
370
    25
100
AcDbLine
 10
589.301454899
 20
432.9155180655
 30
0.0
 11
588.3438244321
 21
436.4894436227
 31
0.0
  0
LINE
  5
110
330
1F
100
AcDbEntity
  8
0
  6
Continuous
 62
     7
370
    25
100
AcDbLine
 10
604.7257339888
 20
437.0484411914
 30
0.0
 11
589.301454899
 21
432.9155180655
 31
0.0
  0
ARC
  5
111
330
1F
100
AcDbEntity
  8
0
  6
Continuous
 62
     7
370
    25
100
AcDbCircle
 10
551.9725693926
 20
424.8285342734
 30
0.0
 40
54.15000000000006
100
AcDbArc
 50
1.9578545334
 51
13.0421454666
  0
LINE
  5
112
330
1F
100
AcDbEntity
  8
0
  6
Continuous
 62
     7
370
    25
100
AcDbLine
 10
590.1225693926
 20
426.6785342734
 30
0.0
 11
606.0909581343
 21
426.6785342734
 31
0.0
  0
LINE
  5
113
330
1F
100
AcDbEntity
  8
0
  6
Continuous
 62
     7
370
    25
100
AcDbLine
 10
590.1225693926
 20
422.9785342734
 30
0.0
 11
590.1225693926
 21
426.6785342734
 31
0.0
  0
LINE
  5
114
330
1F
100
AcDbEntity
  8
0
  6
Continuous
 62
     7
370
    25
100
AcDbLine
 10
606.0909581343
 20
422.9785342734
 30
0.0
 11
590.1225693926
 21
422.9785342734
 31
0.0
  0
ARC
  5
115
330
1F
100
AcDbEntity
  8
0
  6
Continuous
 62
     7
370
    25
100
AcDbCircle
 10
551.9725693926
 20
424.8285342734
 30
0.0
 40
54.15000000000009
100
AcDbArc
 50
346.9578545334
 51
358.0421454666
  0
LINE
  5
116
330
1F
100
AcDbEntity
  8
0
  6
Continuous
 62
     7
370
    25
100
AcDbLine
 10
589.301454899
 20
416.7415504814
 30
0.0
 11
604.7257339888
 21
412.6086273555
 31
0.0
  0
LINE
  5
117
330
1F
100
AcDbEntity
  8
0
  6
Continuous
 62
     7
370
    25
100
AcDbLine
 10
588.3438244321
 20
413.1676249241
 30
0.0
 11
589.301454899
 21
416.7415504814
 31
0.0
  0
LINE
  5
118
330
1F
100
AcDbEntity
  8
0
  6
Continuous
 62
     7
370
    25
100
AcDbLine
 10
603.7681035219
 20
409.0347017982
 30
0.0
 11
588.3438244321
 21
413.1676249241
 31
0.0
  0
ARC
  5
119
330
1F
100
AcDbEntity
  8
0
  6
Continuous
 62
     7
370
    25
100
AcDbCircle
 10
551.9725693926
 20
424.8285342734
 30
0.0
 40
54.1500000000001
100
AcDbArc
 50
331.9578545334
 51
343.0421454666
  0
LINE
  5
11A
330
1F
100
AcDbEntity
  8
0
  6
Continuous
 62
     7
370
    25
100
AcDbLine
 10
585.936438547
 20
407.3556812704
 30
0.0
 11
599.7654688548
 21
399.3714868996
 31
0.0
  0
LINE
  5
11B
330
1F
100
AcDbEntity
  8
0
  6
Continuous
 62
     7
370
    25
100
AcDbLine
 10
584.086438547
 20
404.1513872764
 30
0.0
 11
585.936438547
 21
407.3556812704
 31
0.0
  0
LINE
  5
11C
330
1F
100
AcDbEntity
  8
0
  6
Continuous
 62
     7
370
    25
100
AcDbLine
 10
597.9154688548
 20
396.1671929056
 30
0.0
 11
584.086438547
 21
404.1513872764
 31
0.0
  0
ARC
  5
11D
330
1F
100
AcDbEntity
  8
0
  6
Continuous
 62
     7
370
    25
100
AcDbCircle
 10
551.9725693926
 20
424.8285342734
 30
0.0
 40
54.15000000000005
100
AcDbArc
 50
316.9578545334
 51
328.0421454666
  0
LINE
  5
11E
330
1F
100
AcDbEntity
  8
0
  6
Continuous
 62
     7
370
    25
100
AcDbLine
 10
580.2568406401
 20
399.1605581164
 30
0.0
 11
591.548196604
 21
387.8692021525
 31
0.0
  0
LINE
  5
11F
330
1F
100
AcDbEntity
  8
0
  6
Continuous
 62
     7
370
    25
100
AcDbLine
 10
577.6405455497
 20
396.544263026
 30
0.0
 11
580.2568406401
 21
399.1605581164
 31
0.0
  0
LINE
  5
120
330
1F
100
AcDbEntity
  8
0
  6
Continuous
 62
     7
370
    25
100
AcDbLine
 10
588.9319015136
 20
385.2529070621
 30
0.0
 11
577.6405455497
 21
396.544263026
 31
0.0
  0
ARC
  5
121
330
1F
100
AcDbEntity
  8
0
  6
Continuous
 62
     7
370
    25
100
AcDbCircle
 10
551.9725693926
 20
424.8285342734
 30
0.0
 40
54.15000000000009
100
AcDbArc
 50
301.9578545334
 51
313.0421454666
  0
LINE
  5
122
330
1F
100
AcDbEntity
  8
0
  6
Continuous
 62
     7
370
    25
100
AcDbLine
 10
572.6497163896
 20
392.7146651191
 30
0.0
 11
580.6339107605
 21
378.8856348112
 31
0.0
  0
LINE
  5
123
330
1F
100
AcDbEntity
  8
0
  6
Continuous
 62
     7
370
    25
100
AcDbLine
 10
569.4454223956
 20
390.8646651191
 30
0.0
 11
572.6497163896
 21
392.7146651191
 31
0.0
  0
LINE
  5
124
330
1F
100
AcDbEntity
  8
0
  6
Continuous
 62
     7
370
    25
100
AcDbLine
 10
577.4296167665
 20
377.0356348112
 30
0.0
 11
569.4454223956
 21
390.8646651191
 31
0.0
  0
ARC
  5
125
330
1F
100
AcDbEntity
  8
0
  6
Continuous
 62
     7
370
    25
100
AcDbCircle
 10
551.9725693926
 20
424.8285342734
 30
0.0
 40
54.15000000000008
100
AcDbArc
 50
286.9578545334
 51
298.0421454666
  0
ARC
  5
126
330
1F
100
AcDbEntity
  8
0
  6
Continuous
 62
     7
370
    25
100
AcDbCircle
 10
551.9725693926
 20
424.8285342734
 30
0.0
 40
30.0000000000001
100
AcDbArc
 50
278.769589198
 51
351.230410802
  0
LINE
  5
127
330
1F
100
AcDbEntity
  8
0
  6
Continuous
 62
     7
370
    25
100
AcDbLine
 10
581.6218526623
 20
420.2546954492
 30
0.0
 11
576.9040254271
 21
422.9785342734
 31
0.0
  0
ARC
  5
128
330
1F
100
AcDbEntity
  8
0
  6
Continuous
 62
     7
370
    25
100
AcDbCircle
 10
551.9725693926
 20
424.8285342734
 30
0.0
 40
25.00000000000017
100
AcDbArc
 50
274.2437668548
 51
355.7562331452
  0
LINE
  5
129
330
1F
100
AcDbEntity
  8
0
  6
Continuous
 62
     7
370
    25
100
AcDbLine
 10
553.8225693926
 20
399.8970782389
 30
0.0
 11
556.5464082169
 21
395.1792510037
 31
0.0
  0
ARC
  5
12A
330
1F
100
AcDbEntity
  8
0
  6
Continuous
 62
     7
370
    25
100
AcDbCircle
 10
551.9725693926
 20
424.8285342734
 30
0.0
 40
30.0
100
AcDbArc
 50
98.769589198
 51
171.230410802
  0
LINE
  5
12B
330
1F
100
AcDbEntity
  8
0
  6
Continuous
 62
     7
370
    25
100
AcDbLine
 10
522.3232861229
 20
429.4023730977
 30
0.0
 11
527.0411133581
 21
426.6785342734
 31
0.0
  0
ARC
  5
12C
330
1F
100
AcDbEntity
  8
0
  6
Continuous
 62
     7
370
    25
100
AcDbCircle
 10
551.9725693926
 20
424.8285342734
 30
0.0
 40
25.0
100
AcDbArc
 50
94.2437668548
 51
175.7562331452
  0
LINE
  5
12D
330
1F
100
AcDbEntity
  8
0
  6
Continuous
 62
     7
370
    25
100
AcDbLine
 10
550.1225693926
 20
449.7599903079
 30
0.0
 11
547.3987305683
 21
454.4778175432
 31
0.0
  0
ARC
  5
12E
330
1F
100
AcDbEntity
  8
0
  6
Continuous
 62
     7
370
    25
100
AcDbCircle
 10
551.9725693926
 20
424.8285342734
 30
0.0
 40
30.00000000000004
100
AcDbArc
 50
8.769589198
 51
81.230410802
  0
LINE
  5
12F
330
1F
100
AcDbEntity
  8
0
  6
Continuous
 62
     7
370
    25
100
AcDbLine
 10
556.5464082169
 20
454.4778175432
 30
0.0
 11
553.8225693926
 21
449.7599903079
 31
0.0
  0
ARC
  5
130
330
1F
100
AcDbEntity
  8
0
  6
Continuous
 62
     7
370
    25
100
AcDbCircle
 10
551.9725693926
 20
424.8285342734
 30
0.0
 40
25.00000000000016
100
AcDbArc
 50
4.2437668548
 51
85.7562331452
  0
LINE
  5
131
330
1F
100
AcDbEntity
  8
0
  6
Continuous
 62
     7
370
    25
100
AcDbLine
 10
576.9040254271
 20
426.6785342734
 30
0.0
 11
581.6218526623
 21
429.4023730977
 31
0.0
  0
ARC
  5
132
330
1F
100
AcDbEntity
  8
0
  6
Continuous
 62
     7
370
    25
100
AcDbCircle
 10
551.9725693926
 20
424.8285342734
 30
0.0
 40
30.00000000000006
100
AcDbArc
 50
188.769589198
 51
261.230410802
  0
LINE
  5
133
330
1F
100
AcDbEntity
  8
0
  6
Continuous
 62
     7
370
    25
100
AcDbLine
 10
547.3987305683
 20
395.1792510037
 30
0.0
 11
550.1225693926
 21
399.8970782389
 31
0.0
  0
ARC
  5
134
330
1F
100
AcDbEntity
  8
0
  6
Continuous
 62
     7
370
    25
100
AcDbCircle
 10
551.9725693926
 20
424.8285342734
 30
0.0
 40
25.0
100
AcDbArc
 50
184.2437668548
 51
265.7562331452
  0
LINE
  5
135
330
1F
100
AcDbEntity
  8
0
  6
Continuous
 62
     7
370
    25
100
AcDbLine
 10
527.0411133581
 20
422.9785342734
 30
0.0
 11
522.3232861229
 21
420.2546954492
 31
0.0
  0
CIRCLE
  5
136
330
1F
100
AcDbEntity
  8
0
  6
Continuous
 62
     7
370
    25
100
AcDbCircle
 10
544.8939557456
 20
219.8348083513
 30
0.0
 40
57.5
  0
LINE
  5
137
330
1F
100
AcDbEntity
  8
0
  6
Continuous
 62
     7
370
    25
100
AcDbLine
 10
547.7846020365
 20
294.8256657049
 30
0.0
 11
544.0844239784
 21
294.8256657049
 31
0.0
  0
LINE
  5
138
330
1F
100
AcDbEntity
  8
0
  6
Continuous
 62
     7
370
    25
100
AcDbLine
 10
547.7846020365
 20
314.7908200831
 30
0.0
 11
547.7846020365
 21
294.8256657049
 31
0.0
  0
ARC
  5
139
330
1F
100
AcDbEntity
  8
0
  6
Continuous
 62
     7
370
    25
100
AcDbCircle
 10
544.8939557456
 20
219.8348083513
 30
0.0
 40
95.00000000000024
100
AcDbArc
 50
75.4882454211
 51
88.2563431564
  0
LINE
  5
13A
330
1F
100
AcDbEntity
  8
0
  6
Continuous
 62
     7
370
    25
100
AcDbLine
 10
563.5210701961
 20
292.4799364436
 30
0.0
 11
568.6989246629
 21
311.803952388
 31
0.0
  0
LINE
  5
13B
330
1F
100
AcDbEntity
  8
0
  6
Continuous
 62
     7
370
    25
100
AcDbLine
 10
567.0951677444
 20
291.5222598919
 30
0.0
 11
563.5210701961
 21
292.4799364436
 31
0.0
  0
LINE
  5
13C
330
1F
100
AcDbEntity
  8
0
  6
Continuous
 62
     7
370
    25
100
AcDbLine
 10
572.2625299359
 20
310.8071181318
 30
0.0
 11
567.0951677444
 21
291.5222598919
 31
0.0
  0
ARC
  5
13D
330
1F
100
AcDbEntity
  8
0
  6
Continuous
 62
     7
370
    25
100
AcDbCircle
 10
544.8939557456
 20
219.8348083513
 30
0.0
 40
95.00000000000078
100
AcDbArc
 50
60.4882454211
 51
73.2563431564
  0
LINE
  5
13E
330
1F
100
AcDbEntity
  8
0
  6
Continuous
 62
     7
370
    25
100
AcDbLine
 10
581.6883093468
 20
285.1835617547
 30
0.0
 11
591.6911560554
 21
302.5090004742
 31
0.0
  0
LINE
  5
13F
330
1F
100
AcDbEntity
  8
0
  6
Continuous
 62
     7
370
    25
100
AcDbLine
 10
584.8927575437
 20
283.3334727256
 30
0.0
 11
581.6883093468
 21
285.1835617547
 31
0.0
  0
LINE
  5
140
330
1F
100
AcDbEntity
  8
0
  6
Continuous
 62
     7
370
    25
100
AcDbLine
 10
594.8753347328
 20
300.6238036077
 30
0.0
 11
584.8927575437
 21
283.3334727256
 31
0.0
  0
ARC
  5
141
330
1F
100
AcDbEntity
  8
0
  6
Continuous
 62
     7
370
    25
100
AcDbCircle
 10
544.8939557456
 20
219.8348083513
 30
0.0
 40
95.00000000000122
100
AcDbArc
 50
45.4882454211
 51
58.2563431564
  0
LINE
  5
142
330
1F
100
AcDbEntity
  8
0
  6
Continuous
 62
     7
370
    25
100
AcDbLine
 10
597.3480741051
 20
273.4337775152
 30
0.0
 11
611.4942355827
 21
287.5799389927
 31
0.0
  0
LINE
  5
143
330
1F
100
AcDbEntity
  8
0
  6
Continuous
 62
     7
370
    25
100
AcDbLine
 10
599.9644951017
 20
270.8173565187
 30
0.0
 11
597.3480741051
 21
273.4337775152
 31
0.0
  0
LINE
  5
144
330
1F
100
AcDbEntity
  8
0
  6
Continuous
 62
     7
370
    25
100
AcDbLine
 10
614.08199115
 20
284.934852567
 30
0.0
 11
599.9644951017
 21
270.8173565187
 31
0.0
  0
ARC
  5
145
330
1F
100
AcDbEntity
  8
0
  6
Continuous
 62
     7
370
    25
100
AcDbCircle
 10
544.8939557456
 20
219.8348083513
 30
0.0
 40
95.00000000000085
100
AcDbArc
 50
30.4882454211
 51
43.2563431564
  0
LINE
  5
146
330
1F
100
AcDbEntity
  8
0
  6
Continuous
 62
     7
370
    25
100
AcDbLine
 10
609.4331773818
 20
258.0313121037
 30
0.0
 11
626.7586161013
 21
268.0341588122
 31
0.0
  0
LINE
  5
147
330
1F
100
AcDbEntity
  8
0
  6
Continuous
 62
     7
370
    25
100
AcDbLine
 10
611.2832664109
 20
254.8268639068
 30
0.0
 11
609.4331773818
 21
258.0313121037
 31
0.0
  0
LINE
  5
148
330
1F
100
AcDbEntity
  8
0
  6
Continuous
 62
     7
370
    25
100
AcDbLine
 10
628.5735972929
 20
264.8094410959
 30
0.0
 11
611.2832664109
 21
254.8268639068
 31
0.0
  0
ARC
  5
149
330
1F
100
AcDbEntity
  8
0
  6
Continuous
 62
     7
370
    25
100
AcDbCircle
 10
544.8939557456
 20
219.8348083513
 30
0.0
 40
95.00000000000101
100
AcDbArc
 50
15.4882454211
 51
28.2563431564
  0
LINE
  5
14A
330
1F
100
AcDbEntity
  8
0
  6
Continuous
 62
     7
370
    25
100
AcDbLine
 10
617.12003936
 20
240.0258180841
 30
0.0
 11
636.4440553044
 21
245.203672551
 31
0.0
  0
LINE
  5
14B
330
1F
100
AcDbEntity
  8
0
  6
Continuous
 62
     7
370
    25
100
AcDbLine
 10
618.0777159118
 20
236.4517205359
 30
0.0
 11
617.12003936
 21
240.0258180841
 31
0.0
  0
LINE
  5
14C
330
1F
100
AcDbEntity
  8
0
  6
Continuous
 62
     7
370
    25
100
AcDbLine
 10
637.3625741516
 20
241.6190827274
 30
0.0
 11
618.0777159118
 21
236.4517205359
 31
0.0
  0
ARC
  5
14D
330
1F
100
AcDbEntity
  8
0
  6
Continuous
 62
     7
370
    25
100
AcDbCircle
 10
544.8939557456
 20
219.8348083513
 30
0.0
 40
95.00000000000098
100
AcDbArc
 50
0.4882454211
 51
13.2563431564
  0
LINE
  5
14E
330
1F
100
AcDbEntity
  8
0
  6
Continuous
 62
     7
370
    25
100
AcDbLine
 10
619.8848130992
 20
220.6443401185
 30
0.0
 11
639.8905065163
 21
220.6443401185
 31
0.0
  0
LINE
  5
14F
330
1F
100
AcDbEntity
  8
0
  6
Continuous
 62
     7
370
    25
100
AcDbLine
 10
619.8848130992
 20
216.9441620604
 30
0.0
 11
619.8848130992
 21
220.6443401185
 31
0.0
  0
LINE
  5
150
330
1F
100
AcDbEntity
  8
0
  6
Continuous
 62
     7
370
    25
100
AcDbLine
 10
639.8499674775
 20
216.9441620604
 30
0.0
 11
619.8848130992
 21
216.9441620604
 31
0.0
  0
ARC
  5
151
330
1F
100
AcDbEntity
  8
0
  6
Continuous
 62
     7
370
    25
100
AcDbCircle
 10
544.8939557456
 20
219.8348083513
 30
0.0
 40
95.00000000000104
100
AcDbArc
 50
345.4882454211
 51
358.2563431564
  0
LINE
  5
152
330
1F
100
AcDbEntity
  8
0
  6
Continuous
 62
     7
370
    25
100
AcDbLine
 10
617.539083838
 20
201.2076939008
 30
0.0
 11
636.8630997824
 21
196.029839434
 31
0.0
  0
LINE
  5
153
330
1F
100
AcDbEntity
  8
0
  6
Continuous
 62
     7
370
    25
100
AcDbLine
 10
616.5814072863
 20
197.6335963526
 30
0.0
 11
617.539083838
 21
201.2076939008
 31
0.0
  0
LINE
  5
154
330
1F
100
AcDbEntity
  8
0
  6
Continuous
 62
     7
370
    25
100
AcDbLine
 10
635.8662655261
 20
192.4662341611
 30
0.0
 11
616.5814072863
 21
197.6335963526
 31
0.0
  0
ARC
  5
155
330
1F
100
AcDbEntity
  8
0
  6
Continuous
 62
     7
370
    25
100
AcDbCircle
 10
544.8939557456
 20
219.8348083513
 30
0.0
 40
95.00000000000072
100
AcDbArc
 50
330.4882454211
 51
343.2563431564
  0
LINE
  5
156
330
1F
100
AcDbEntity
  8
0
  6
Continuous
 62
     7
370
    25
100
AcDbLine
 10
610.242709149
 20
183.0404547501
 30
0.0
 11
627.5681478685
 21
173.0376080416
 31
0.0
  0
LINE
  5
157
330
1F
100
AcDbEntity
  8
0
  6
Continuous
 62
     7
370
    25
100
AcDbLine
 10
608.39262012
 20
179.8360065532
 30
0.0
 11
610.242709149
 21
183.0404547501
 31
0.0
  0
ARC
  5
158
330
1F
100
AcDbEntity
  8
0
  6
Continuous
 62
     7
370
    25
100
AcDbCircle
 10
544.8939557456
 20
219.8348083513
 30
0.0
 40
95.00000000000075
100
AcDbArc
 50
315.4882454211
 51
328.2563431564
  0
LINE
  5
159
330
1F
100
AcDbEntity
  8
0
  6
Continuous
 62
     7
370
    25
100
AcDbLine
 10
499.919323001
 20
303.5144498986
 30
0.0
 11
509.9019001901
 21
286.2241190165
 31
0.0
  0
ARC
  5
15A
330
1F
100
AcDbEntity
  8
0
  6
Continuous
 62
     7
370
    25
100
AcDbCircle
 10
544.8939557456
 20
219.8348083513
 30
0.0
 40
95.00000000000001
100
AcDbArc
 50
105.4882454211
 51
118.2563431564
  0
LINE
  5
15B
330
1F
100
AcDbEntity
  8
0
  6
Continuous
 62
     7
370
    25
100
AcDbLine
 10
524.7029460128
 20
292.0608919657
 30
0.0
 11
519.525091546
 21
311.38490791
 31
0.0
  0
LINE
  5
15C
330
1F
100
AcDbEntity
  8
0
  6
Continuous
 62
     7
370
    25
100
AcDbLine
 10
528.277043561
 20
293.0185685174
 30
0.0
 11
524.7029460128
 21
292.0608919657
 31
0.0
  0
LINE
  5
15D
330
1F
100
AcDbEntity
  8
0
  6
Continuous
 62
     7
370
    25
100
AcDbLine
 10
523.1096813695
 20
312.3034267572
 30
0.0
 11
528.277043561
 21
293.0185685174
 31
0.0
  0
ARC
  5
15E
330
1F
100
AcDbEntity
  8
0
  6
Continuous
 62
     7
370
    25
100
AcDbCircle
 10
544.8939557456
 20
219.8348083513
 30
0.0
 40
95.00000000000001
100
AcDbArc
 50
90.4882454211
 51
103.2563431564
  0
LINE
  5
15F
330
1F
100
AcDbEntity
  8
0
  6
Continuous
 62
     7
370
    25
100
AcDbLine
 10
544.0844239784
 20
294.8256657049
 30
0.0
 11
544.0844239784
 21
314.8313591219
 31
0.0
  0
LINE
  5
160
330
1F
100
AcDbEntity
  8
0
  6
Continuous
 62
     7
370
    25
100
AcDbLine
 10
625.682951002
 20
169.8534293641
 30
0.0
 11
608.39262012
 21
179.8360065532
 31
0.0
  0
LINE
  5
161
330
1F
100
AcDbEntity
  8
0
  6
Continuous
 62
     7
370
    25
100
AcDbLine
 10
598.4929249096
 20
167.3806899918
 30
0.0
 11
612.6390863871
 21
153.2345285142
 31
0.0
  0
LINE
  5
162
330
1F
100
AcDbEntity
  8
0
  6
Continuous
 62
     7
370
    25
100
AcDbLine
 10
595.876503913
 20
164.7642689953
 30
0.0
 11
598.4929249096
 21
167.3806899918
 31
0.0
  0
LINE
  5
163
330
1F
100
AcDbEntity
  8
0
  6
Continuous
 62
     7
370
    25
100
AcDbLine
 10
609.9939999614
 20
150.646772947
 30
0.0
 11
595.876503913
 21
164.7642689953
 31
0.0
  0
ARC
  5
164
330
1F
100
AcDbEntity
  8
0
  6
Continuous
 62
     7
370
    25
100
AcDbCircle
 10
544.8939557456
 20
219.8348083513
 30
0.0
 40
95.00000000000044
100
AcDbArc
 50
300.4882454211
 51
313.2563431564
  0
LINE
  5
165
330
1F
100
AcDbEntity
  8
0
  6
Continuous
 62
     7
370
    25
100
AcDbLine
 10
583.090459498
 20
155.2955867151
 30
0.0
 11
593.0933062066
 21
137.9701479956
 31
0.0
  0
LINE
  5
166
330
1F
100
AcDbEntity
  8
0
  6
Continuous
 62
     7
370
    25
100
AcDbLine
 10
579.8860113012
 20
153.4454976861
 30
0.0
 11
583.090459498
 21
155.2955867151
 31
0.0
  0
LINE
  5
167
330
1F
100
AcDbEntity
  8
0
  6
Continuous
 62
     7
370
    25
100
AcDbLine
 10
589.8685884903
 20
136.155166804
 30
0.0
 11
579.8860113012
 21
153.4454976861
 31
0.0
  0
ARC
  5
168
330
1F
100
AcDbEntity
  8
0
  6
Continuous
 62
     7
370
    25
100
AcDbCircle
 10
544.8939557456
 20
219.8348083513
 30
0.0
 40
95.0000000000003
100
AcDbArc
 50
285.4882454211
 51
298.2563431564
  0
LINE
  5
169
330
1F
100
AcDbEntity
  8
0
  6
Continuous
 62
     7
370
    25
100
AcDbLine
 10
565.0849654785
 20
147.6087247369
 30
0.0
 11
570.2628199453
 21
128.2847087925
 31
0.0
  0
LINE
  5
16A
330
1F
100
AcDbEntity
  8
0
  6
Continuous
 62
     7
370
    25
100
AcDbLine
 10
561.5108679303
 20
146.6510481852
 30
0.0
 11
565.0849654785
 21
147.6087247369
 31
0.0
  0
LINE
  5
16B
330
1F
100
AcDbEntity
  8
0
  6
Continuous
 62
     7
370
    25
100
AcDbLine
 10
566.6782301218
 20
127.3661899453
 30
0.0
 11
561.5108679303
 21
146.6510481852
 31
0.0
  0
ARC
  5
16C
330
1F
100
AcDbEntity
  8
0
  6
Continuous
 62
     7
370
    25
100
AcDbCircle
 10
544.8939557456
 20
219.8348083513
 30
0.0
 40
94.99999999999999
100
AcDbArc
 50
270.4882454211
 51
283.2563431564
  0
LINE
  5
16D
330
1F
100
AcDbEntity
  8
0
  6
Continuous
 62
     7
370
    25
100
AcDbLine
 10
545.7034875129
 20
144.8439509977
 30
0.0
 11
545.7034875129
 21
124.8382575806
 31
0.0
  0
LINE
  5
16E
330
1F
100
AcDbEntity
  8
0
  6
Continuous
 62
     7
370
    25
100
AcDbLine
 10
542.0033094548
 20
144.8439509977
 30
0.0
 11
545.7034875129
 21
144.8439509977
 31
0.0
  0
LINE
  5
16F
330
1F
100
AcDbEntity
  8
0
  6
Continuous
 62
     7
370
    25
100
AcDbLine
 10
542.0033094548
 20
124.8787966194
 30
0.0
 11
542.0033094548
 21
144.8439509977
 31
0.0
  0
ARC
  5
170
330
1F
100
AcDbEntity
  8
0
  6
Continuous
 62
     7
370
    25
100
AcDbCircle
 10
544.8939557456
 20
219.8348083513
 30
0.0
 40
95.00000000000001
100
AcDbArc
 50
255.4882454211
 51
268.2563431564
  0
LINE
  5
171
330
1F
100
AcDbEntity
  8
0
  6
Continuous
 62
     7
370
    25
100
AcDbLine
 10
526.2668412952
 20
147.1896802589
 30
0.0
 11
521.0889868284
 21
127.8656643146
 31
0.0
  0
LINE
  5
172
330
1F
100
AcDbEntity
  8
0
  6
Continuous
 62
     7
370
    25
100
AcDbLine
 10
522.6927437469
 20
148.1473568106
 30
0.0
 11
526.2668412952
 21
147.1896802589
 31
0.0
  0
LINE
  5
173
330
1F
100
AcDbEntity
  8
0
  6
Continuous
 62
     7
370
    25
100
AcDbLine
 10
517.5253815554
 20
128.8624985708
 30
0.0
 11
522.6927437469
 21
148.1473568106
 31
0.0
  0
ARC
  5
174
330
1F
100
AcDbEntity
  8
0
  6
Continuous
 62
     7
370
    25
100
AcDbCircle
 10
544.8939557456
 20
219.8348083513
 30
0.0
 40
94.99999999999999
100
AcDbArc
 50
240.4882454211
 51
253.2563431564
  0
LINE
  5
175
330
1F
100
AcDbEntity
  8
0
  6
Continuous
 62
     7
370
    25
100
AcDbLine
 10
508.0996021445
 20
154.4860549479
 30
0.0
 11
498.0967554359
 21
137.1606162284
 31
0.0
  0
LINE
  5
176
330
1F
100
AcDbEntity
  8
0
  6
Continuous
 62
     7
370
    25
100
AcDbLine
 10
504.8951539476
 20
156.336143977
 30
0.0
 11
508.0996021445
 21
154.4860549479
 31
0.0
  0
LINE
  5
177
330
1F
100
AcDbEntity
  8
0
  6
Continuous
 62
     7
370
    25
100
AcDbLine
 10
494.9125767584
 20
139.0458130949
 30
0.0
 11
504.8951539476
 21
156.336143977
 31
0.0
  0
ARC
  5
178
330
1F
100
AcDbEntity
  8
0
  6
Continuous
 62
     7
370
    25
100
AcDbCircle
 10
544.8939557456
 20
219.8348083513
 30
0.0
 40
94.99999999999999
100
AcDbArc
 50
225.4882454211
 51
238.2563431564
  0
LINE
  5
179
330
1F
100
AcDbEntity
  8
0
  6
Continuous
 62
     7
370
    25
100
AcDbLine
 10
492.4398373862
 20
166.2358391874
 30
0.0
 11
478.2936759086
 21
152.0896777098
 31
0.0
  0
LINE
  5
17A
330
1F
100
AcDbEntity
  8
0
  6
Continuous
 62
     7
370
    25
100
AcDbLine
 10
489.8234163896
 20
168.8522601839
 30
0.0
 11
492.4398373862
 21
166.2358391874
 31
0.0
  0
LINE
  5
17B
330
1F
100
AcDbEntity
  8
0
  6
Continuous
 62
     7
370
    25
100
AcDbLine
 10
475.7059203413
 20
154.7347641356
 30
0.0
 11
489.8234163896
 21
168.8522601839
 31
0.0
  0
ARC
  5
17C
330
1F
100
AcDbEntity
  8
0
  6
Continuous
 62
     7
370
    25
100
AcDbCircle
 10
544.8939557456
 20
219.8348083513
 30
0.0
 40
94.99999999999862
100
AcDbArc
 50
210.4882454211
 51
223.2563431564
  0
LINE
  5
17D
330
1F
100
AcDbEntity
  8
0
  6
Continuous
 62
     7
370
    25
100
AcDbLine
 10
480.3547341095
 20
181.6383045989
 30
0.0
 11
463.02929539
 21
171.6354578904
 31
0.0
  0
LINE
  5
17E
330
1F
100
AcDbEntity
  8
0
  6
Continuous
 62
     7
370
    25
100
AcDbLine
 10
478.5046450804
 20
184.8427527958
 30
0.0
 11
480.3547341095
 21
181.6383045989
 31
0.0
  0
LINE
  5
17F
330
1F
100
AcDbEntity
  8
0
  6
Continuous
 62
     7
370
    25
100
AcDbLine
 10
461.2143141984
 20
174.8601756066
 30
0.0
 11
478.5046450804
 21
184.8427527958
 31
0.0
  0
ARC
  5
180
330
1F
100
AcDbEntity
  8
0
  6
Continuous
 62
     7
370
    25
100
AcDbCircle
 10
544.8939557456
 20
219.8348083513
 30
0.0
 40
95.00000000000003
100
AcDbArc
 50
195.4882454211
 51
208.2563431564
  0
LINE
  5
181
330
1F
100
AcDbEntity
  8
0
  6
Continuous
 62
     7
370
    25
100
AcDbLine
 10
472.6678721313
 20
199.6437986184
 30
0.0
 11
453.3438561869
 21
194.4659441516
 31
0.0
  0
LINE
  5
182
330
1F
100
AcDbEntity
  8
0
  6
Continuous
 62
     7
370
    25
100
AcDbLine
 10
471.7101955795
 20
203.2178961667
 30
0.0
 11
472.6678721313
 21
199.6437986184
 31
0.0
  0
LINE
  5
183
330
1F
100
AcDbEntity
  8
0
  6
Continuous
 62
     7
370
    25
100
AcDbLine
 10
452.4253373397
 20
198.0505339751
 30
0.0
 11
471.7101955795
 21
203.2178961667
 31
0.0
  0
ARC
  5
184
330
1F
100
AcDbEntity
  8
0
  6
Continuous
 62
     7
370
    25
100
AcDbCircle
 10
544.8939557456
 20
219.8348083513
 30
0.0
 40
94.99999999999802
100
AcDbArc
 50
180.4882454211
 51
193.2563431564
  0
LINE
  5
185
330
1F
100
AcDbEntity
  8
0
  6
Continuous
 62
     7
370
    25
100
AcDbLine
 10
469.9030983921
 20
219.025276584
 30
0.0
 11
449.897404975
 21
219.025276584
 31
0.0
  0
LINE
  5
186
330
1F
100
AcDbEntity
  8
0
  6
Continuous
 62
     7
370
    25
100
AcDbLine
 10
469.9030983921
 20
222.7254546422
 30
0.0
 11
469.9030983921
 21
219.025276584
 31
0.0
  0
LINE
  5
187
330
1F
100
AcDbEntity
  8
0
  6
Continuous
 62
     7
370
    25
100
AcDbLine
 10
449.9379440138
 20
222.7254546422
 30
0.0
 11
469.9030983921
 21
222.7254546422
 31
0.0
  0
ARC
  5
188
330
1F
100
AcDbEntity
  8
0
  6
Continuous
 62
     7
370
    25
100
AcDbCircle
 10
544.8939557456
 20
219.8348083513
 30
0.0
 40
94.99999999999993
100
AcDbArc
 50
165.4882454211
 51
178.2563431564
  0
LINE
  5
189
330
1F
100
AcDbEntity
  8
0
  6
Continuous
 62
     7
370
    25
100
AcDbLine
 10
472.2488276533
 20
238.4619228018
 30
0.0
 11
452.9248117089
 21
243.6397772686
 31
0.0
  0
LINE
  5
18A
330
1F
100
AcDbEntity
  8
0
  6
Continuous
 62
     7
370
    25
100
AcDbLine
 10
473.206504205
 20
242.03602035
 30
0.0
 11
472.2488276533
 21
238.4619228018
 31
0.0
  0
LINE
  5
18B
330
1F
100
AcDbEntity
  8
0
  6
Continuous
 62
     7
370
    25
100
AcDbLine
 10
453.9216459652
 20
247.2033825415
 30
0.0
 11
473.206504205
 21
242.03602035
 31
0.0
  0
ARC
  5
18C
330
1F
100
AcDbEntity
  8
0
  6
Continuous
 62
     7
370
    25
100
AcDbCircle
 10
544.8939557456
 20
219.8348083513
 30
0.0
 40
95.00000000000009
100
AcDbArc
 50
150.4882454211
 51
163.2563431564
  0
LINE
  5
18D
330
1F
100
AcDbEntity
  8
0
  6
Continuous
 62
     7
370
    25
100
AcDbLine
 10
479.5452023423
 20
256.6291619525
 30
0.0
 11
462.2197636228
 21
266.632008661
 31
0.0
  0
LINE
  5
18E
330
1F
100
AcDbEntity
  8
0
  6
Continuous
 62
     7
370
    25
100
AcDbLine
 10
481.3952913713
 20
259.8336101493
 30
0.0
 11
479.5452023423
 21
256.6291619525
 31
0.0
  0
LINE
  5
18F
330
1F
100
AcDbEntity
  8
0
  6
Continuous
 62
     7
370
    25
100
AcDbLine
 10
464.1049604893
 20
269.8161873385
 30
0.0
 11
481.3952913713
 21
259.8336101493
 31
0.0
  0
ARC
  5
190
330
1F
100
AcDbEntity
  8
0
  6
Continuous
 62
     7
370
    25
100
AcDbCircle
 10
544.8939557456
 20
219.8348083513
 30
0.0
 40
94.99999999999845
100
AcDbArc
 50
135.4882454211
 51
148.2563431564
  0
LINE
  5
191
330
1F
100
AcDbEntity
  8
0
  6
Continuous
 62
     7
370
    25
100
AcDbLine
 10
491.2949865817
 20
272.2889267108
 30
0.0
 11
477.1488251042
 21
286.4350881883
 31
0.0
  0
LINE
  5
192
330
1F
100
AcDbEntity
  8
0
  6
Continuous
 62
     7
370
    25
100
AcDbLine
 10
493.9114075782
 20
274.9053477073
 30
0.0
 11
491.2949865817
 21
272.2889267108
 31
0.0
  0
LINE
  5
193
330
1F
100
AcDbEntity
  8
0
  6
Continuous
 62
     7
370
    25
100
AcDbLine
 10
479.7939115299
 20
289.0228437556
 30
0.0
 11
493.9114075782
 21
274.9053477073
 31
0.0
  0
ARC
  5
194
330
1F
100
AcDbEntity
  8
0
  6
Continuous
 62
     7
370
    25
100
AcDbCircle
 10
544.8939557456
 20
219.8348083513
 30
0.0
 40
95.00000000000006
100
AcDbArc
 50
120.4882454211
 51
133.2563431564
  0
LINE
  5
195
330
1F
100
AcDbEntity
  8
0
  6
Continuous
 62
     7
370
    25
100
AcDbLine
 10
506.6974519933
 20
284.3740299874
 30
0.0
 11
496.6946052847
 21
301.6994687069
 31
0.0
  0
LINE
  5
196
330
1F
100
AcDbEntity
  8
0
  6
Continuous
 62
     7
370
    25
100
AcDbLine
 10
509.9019001901
 20
286.2241190165
 30
0.0
 11
506.6974519933
 21
284.3740299874
 31
0.0
  0
ARC
  5
197
330
1F
100
AcDbEntity
  8
0
  6
Continuous
 62
     7
370
    25
100
AcDbCircle
 10
708.565980397
 20
354.3739837936
 30
0.0
 40
67.58783742258807
100
AcDbArc
 50
66.9471310175
 51
112.20902111
  0
ARC
  5
198
330
1F
100
AcDbEntity
  8
0
  6
Continuous
 62
     7
370
    25
100
AcDbCircle
 10
694.8725553897
 20
418.8145793008
 30
0.0
 40
12.00000000000009
100
AcDbArc
 50
188.9507575279
 51
198.6189059125
  0
ARC
  5
199
330
1F
100
AcDbEntity
  8
0
  6
Continuous
 62
     7
370
    25
100
AcDbCircle
 10
708.565980397
 20
354.3739837936
 30
0.0
 40
65.58783742258801
100
AcDbArc
 50
66.381027578
 51
112.4678584718
  0
ARC
  5
19A
330
1F
100
AcDbEntity
  8
0
  6
Continuous
 62
     7
370
    25
100
AcDbCircle
 10
723.0320653815
 20
416.5842250453
 30
0.0
 40
12.00000000000013
100
AcDbArc
 50
349.8403954104
 51
359.9059220402
  0
LINE
  5
19B
330
1F
100
AcDbEntity
  8
0
  6
Continuous
 62
     7
370
    25
100
AcDbLine
 10
724.2817521711
 20
392.8780451253
 30
0.0
 11
725.2040406369
 21
394.6613828488
 31
0.0
  0
ARC
  5
19C
330
1F
100
AcDbEntity
  8
0
  6
Continuous
 62
     7
370
    25
100
AcDbCircle
 10
708.565980397
 20
354.3739837936
 30
0.0
 40
43.58783742258803
100
AcDbArc
 50
67.5601469165
 51
111.2218484535
  0
LINE
  5
19D
330
1F
100
AcDbEntity
  8
0
  6
Continuous
 62
     7
370
    25
100
AcDbLine
 10
692.788052198
 20
395.0059484634
 30
0.0
 11
693.6396475862
 21
393.1908977656
 31
0.0
  0
ARC
  5
19E
330
1F
100
AcDbEntity
  8
0
  6
Continuous
 62
     7
370
    25
100
AcDbCircle
 10
708.565980397
 20
354.3739837936
 30
0.0
 40
41.58783742258799
100
AcDbArc
 50
67.7967403854
 51
111.0333325921
  0
LINE
  5
19F
330
1F
100
AcDbEntity
  8
0
  6
Continuous
 62
     7
370
    25
100
AcDbLine
 10
697.9015997703
 20
384.1071716295
 30
0.0
 11
698.7551646371
 21
382.2879232768
 31
0.0
  0
ARC
  5
1A0
330
1F
100
AcDbEntity
  8
0
  6
Continuous
 62
     7
370
    25
100
AcDbCircle
 10
708.565980397
 20
354.3739837936
 30
0.0
 40
29.58783742258799
100
AcDbArc
 50
69.8922899275
 51
109.3648686376
  0
LINE
  5
1A1
330
1F
100
AcDbEntity
  8
0
  6
Continuous
 62
     7
370
    25
100
AcDbLine
 10
718.7378665008
 20
382.1583833091
 30
0.0
 11
719.6635213715
 21
383.9482303158
 31
0.0
  0
ARC
  5
1A2
330
1F
100
AcDbEntity
  8
0
  6
Continuous
 62
     7
370
    25
100
AcDbCircle
 10
708.565980397
 20
354.3739837936
 30
0.0
 40
31.58783742258803
100
AcDbArc
 50
69.4317290436
 51
109.7313499608
  0
LINE
  5
1A3
330
1F
100
AcDbEntity
  8
0
  6
Continuous
 62
     7
370
    25
100
AcDbLine
 10
706.6035170464
 20
372.0403197908
 30
0.0
 11
710.7960863893
 21
372.0403197908
 31
0.0
  0
ARC
  5
1A4
330
1F
100
AcDbEntity
  8
0
  6
Continuous
 62
     7
370
    25
100
AcDbCircle
 10
706.6035170464
 20
382.0403197908
 30
0.0
 40
10.00000000000003
100
AcDbArc
 50
205.1352866683
 51
270.0
  0
LINE
  5
1A5
330
1F
100
AcDbEntity
  8
0
  6
Continuous
 62
     7
370
    25
100
AcDbLine
 10
681.2929447466
 20
412.4432234969
 30
0.0
 11
697.5504432843
 21
377.7927492548
 31
0.0
  0
ARC
  5
1A6
330
1F
100
AcDbEntity
  8
0
  6
Continuous
 62
     7
370
    25
100
AcDbCircle
 10
694.8725553897
 20
418.8145793008
 30
0.0
 40
14.99999999999994
100
AcDbArc
 50
171.7500104284
 51
205.1352866683
  0
LINE
  5
1A7
330
1F
100
AcDbEntity
  8
0
  6
Continuous
 62
     7
370
    25
100
AcDbLine
 10
682.8413651999
 20
440.3719212006
 30
0.0
 11
680.0277841957
 21
420.9669659288
 31
0.0
  0
ARC
  5
1A8
330
1F
100
AcDbEntity
  8
0
  6
Continuous
 62
     7
370
    25
100
AcDbCircle
 10
697.6861363939
 20
438.2195345726
 30
0.0
 40
15.0000000000001
100
AcDbArc
 50
108.0680897152
 51
171.7500104284
  0
LINE
  5
1A9
330
1F
100
AcDbEntity
  8
0
  6
Continuous
 62
     7
370
    25
100
AcDbLine
 10
703.9137753717
 20
456.0292393902
 30
0.0
 11
693.0339313687
 21
452.4798637554
 31
0.0
  0
ARC
  5
1AA
330
1F
100
AcDbEntity
  8
0
  6
Continuous
 62
     7
370
    25
100
AcDbCircle
 10
708.565980397
 20
441.7689102073
 30
0.0
 40
14.99999999999993
100
AcDbArc
 50
97.0845180563
 51
108.0680897152
  0
LINE
  5
1AB
330
1F
100
AcDbEntity
  8
0
  6
Continuous
 62
     7
370
    25
100
AcDbLine
 10
706.715980397
 20
440.7689102073
 30
0.0
 11
706.715980397
 21
456.6543897092
 31
0.0
  0
LINE
  5
1AC
330
1F
100
AcDbEntity
  8
0
  6
Continuous
 62
     7
370
    25
100
AcDbLine
 10
710.415980397
 20
440.7689102073
 30
0.0
 11
706.715980397
 21
440.7689102073
 31
0.0
  0
LINE
  5
1AD
330
1F
100
AcDbEntity
  8
0
  6
Continuous
 62
     7
370
    25
100
AcDbLine
 10
710.415980397
 20
456.6543897092
 30
0.0
 11
710.415980397
 21
440.7689102073
 31
0.0
  0
ARC
  5
1AE
330
1F
100
AcDbEntity
  8
0
  6
Continuous
 62
     7
370
    25
100
AcDbCircle
 10
708.565980397
 20
441.7689102073
 30
0.0
 40
14.99999999999996
100
AcDbArc
 50
71.9319102848
 51
82.9154819437
  0
LINE
  5
1AF
330
1F
100
AcDbEntity
  8
0
  6
Continuous
 62
     7
370
    25
100
AcDbLine
 10
724.2384949961
 20
452.4340391026
 30
0.0
 11
713.2181854222
 21
456.0292393902
 31
0.0
  0
ARC
  5
1B0
330
1F
100
AcDbEntity
  8
0
  6
Continuous
 62
     7
370
    25
100
AcDbCircle
 10
719.5862899708
 20
438.1737099197
 30
0.0
 40
14.99999999999996
100
AcDbArc
 50
9.068171576
 51
71.9319102848
  0
LINE
  5
1B1
330
1F
100
AcDbEntity
  8
0
  6
Continuous
 62
     7
370
    25
100
AcDbLine
 10
737.8445880751
 20
418.9483679031
 30
0.0
 11
734.3988126644
 21
440.5378527775
 31
0.0
  0
ARC
  5
1B2
330
1F
100
AcDbEntity
  8
0
  6
Continuous
 62
     7
370
    25
100
AcDbCircle
 10
723.0320653815
 20
416.5842250453
 30
0.0
 40
15.00000000000015
100
AcDbArc
 50
332.6533585518
 51
9.068171576
  0
LINE
  5
1B3
330
1F
100
AcDbEntity
  8
0
  6
Continuous
 62
     7
370
    25
100
AcDbLine
 10
719.6785221498
 20
377.446592006
 30
0.0
 11
736.3557190222
 21
409.693633368
 31
0.0
  0
ARC
  5
1B4
330
1F
100
AcDbEntity
  8
0
  6
Continuous
 62
     7
370
    25
100
AcDbCircle
 10
710.7960863893
 20
382.0403197908
 30
0.0
 40
10.0000000000001
100
AcDbArc
 50
270.0
 51
332.6533585518
  0
LINE
  5
1B5
330
1F
100
AcDbEntity
  8
0
  6
Continuous
 62
     7
370
    25
100
AcDbLine
 10
684.3984224145
 20
430.2037471242
 30
0.0
 11
684.0783410836
 21
427.9961817829
 31
0.0
  0
ARC
  5
1B6
330
1F
100
AcDbEntity
  8
0
  6
Continuous
 62
     7
370
    25
100
AcDbCircle
 10
708.565980397
 20
354.3739837936
 30
0.0
 40
77.587837422588
100
AcDbArc
 50
71.3480538801
 51
108.3977533233
  0
LINE
  5
1B7
330
1F
100
AcDbEntity
  8
0
  6
Continuous
 62
     7
370
    25
100
AcDbLine
 10
733.3800026221
 20
427.8868181623
 30
0.0
 11
733.0251424929
 21
430.1101921432
 31
0.0
  0
ARC
  5
1B8
330
1F
100
AcDbEntity
  8
0
  6
Continuous
 62
     7
370
    25
100
AcDbCircle
 10
708.565980397
 20
354.3739837936
 30
0.0
 40
79.58783742258795
100
AcDbArc
 50
72.1020323451
 51
107.6775004327
  0
LINE
  5
1B9
330
1F
100
AcDbEntity
  8
0
  6
Continuous
 62
     7
370
    25
100
AcDbLine
 10
729.8114991435
 20
403.5703683439
 30
0.0
 11
730.7323958032
 21
405.35101487
 31
0.0
  0
ARC
  5
1BA
330
1F
100
AcDbEntity
  8
0
  6
Continuous
 62
     7
370
    25
100
AcDbCircle
 10
708.565980397
 20
354.3739837936
 30
0.0
 40
55.58783742258798
100
AcDbArc
 50
66.4990817445
 51
112.0675801315
  0
LINE
  5
1BB
330
1F
100
AcDbEntity
  8
0
  6
Continuous
 62
     7
370
    25
100
AcDbLine
 10
687.6816330987
 20
405.8895320023
 30
0.0
 11
688.5324119157
 21
404.0762217064
 31
0.0
  0
ARC
  5
1BC
330
1F
100
AcDbEntity
  8
0
  6
Continuous
 62
     7
370
    25
100
AcDbCircle
 10
708.565980397
 20
354.3739837936
 30
0.0
 40
53.58783742258808
100
AcDbArc
 50
66.6428396523
 51
111.9529717392
  0
ENDSEC
  0
SECTION
  2
OBJECTS
  0
DICTIONARY
  5
C
330
0
100
AcDbDictionary
281
     1
  3
ACAD_GROUP
350
D
  3
ACAD_LAYOUT
350
1A
  3
ACAD_MLINESTYLE
350
17
  3
ACAD_PLOTSETTINGS
350
19
  3
ACAD_PLOTSTYLENAME
350
E
  3
ACAD_SCALELIST
350
47
  3
DWGPROPS
350
1BD
  0
DICTIONARY
  5
D
102
{ACAD_REACTORS
330
C
102
}
330
C
100
AcDbDictionary
281
     1
  0
DICTIONARY
  5
1A
102
{ACAD_REACTORS
330
C
102
}
330
C
100
AcDbDictionary
281
     1
  3
Layout1
350
1E
  3
Layout2
350
26
  3
Model
350
22
  0
DICTIONARY
  5
17
102
{ACAD_REACTORS
330
C
102
}
330
C
100
AcDbDictionary
281
     1
  3
Standard
350
18
  0
DICTIONARY
  5
19
102
{ACAD_REACTORS
330
C
102
}
330
C
100
AcDbDictionary
281
     1
  0
ACDBDICTIONARYWDFLT
  5
E
102
{ACAD_REACTORS
330
C
102
}
330
C
100
AcDbDictionary
281
     1
  3
Normal
350
F
100
AcDbDictionaryWithDefault
340
F
  0
DICTIONARY
  5
47
102
{ACAD_REACTORS
330
C
102
}
330
C
100
AcDbDictionary
281
     1
  3
A0
350
48
  3
A1
350
49
  3
A2
350
4A
  3
A3
350
4B
  3
A4
350
4C
  3
A5
350
4D
  3
A6
350
4E
  3
A7
350
4F
  3
A8
350
50
  3
A9
350
51
  3
B0
350
52
  3
B1
350
53
  3
B2
350
54
  3
B3
350
55
  3
B4
350
56
  3
B5
350
57
  3
B6
350
58
  0
XRECORD
  5
1BD
102
{ACAD_REACTORS
330
C
102
}
330
C
100
AcDbXrecord
280
     1
  1
DWGPROPS COOKIE
  2

  3

  4

  6

  7

  8
Pulse
  9

300
=
301
=
302
=
303
=
304
=
305
=
306
=
307
=
308
=
309
=
 40
0.0
 41
2460357.520107072
 42
2460357.520107986
  1

 90
        0
  0
LAYOUT
  5
1E
102
{ACAD_REACTORS
330
1A
102
}
330
1A
100
AcDbPlotSettings
  1

  2
none_device
  4

  6

 40
0.0
 41
0.0
 42
0.0
 43
0.0
 44
0.0
 45
0.0
 46
0.0
 47
0.0
 48
0.0
 49
0.0
140
0.0
141
0.0
142
1.0
143
1.0
 70
   688
 72
     1
 73
     0
 74
     5
  7

 75
    16
147
1.0
148
0.0
149
0.0
100
AcDbLayout
  1
Layout1
 70
     1
 71
     1
 10
0.0
 20
0.0
 11
420.0
 21
297.0
 12
0.0
 22
0.0
 32
0.0
 14
1.0000000000E+20
 24
1.0000000000E+20
 34
1.0000000000E+20
 15
-1.0000000000E+20
 25
-1.0000000000E+20
 35
-1.0000000000E+20
146
0.0
 13
0.0
 23
0.0
 33
0.0
 16
1.0
 26
0.0
 36
0.0
 17
0.0
 27
1.0
 37
0.0
 76
     0
330
1B
  0
LAYOUT
  5
26
102
{ACAD_REACTORS
330
1A
102
}
330
1A
100
AcDbPlotSettings
  1

  2
none_device
  4

  6

 40
0.0
 41
0.0
 42
0.0
 43
0.0
 44
0.0
 45
0.0
 46
0.0
 47
0.0
 48
0.0
 49
0.0
140
0.0
141
0.0
142
1.0
143
1.0
 70
   688
 72
     1
 73
     0
 74
     5
  7

 75
    16
147
1.0
148
0.0
149
0.0
100
AcDbLayout
  1
Layout2
 70
     1
 71
     2
 10
0.0
 20
0.0
 11
0.0
 21
0.0
 12
0.0
 22
0.0
 32
0.0
 14
0.0
 24
0.0
 34
0.0
 15
0.0
 25
0.0
 35
0.0
146
0.0
 13
0.0
 23
0.0
 33
0.0
 16
1.0
 26
0.0
 36
0.0
 17
0.0
 27
1.0
 37
0.0
 76
     0
330
23
  0
LAYOUT
  5
22
102
{ACAD_REACTORS
330
1A
102
}
330
1A
100
AcDbPlotSettings
  1

  2
none_device
  4
Letter_(8.50_x_11.00_Inches)
  6

 40
6.35
 41
6.35
 42
6.35000508
 43
6.35000508
 44
215.9
 45
279.4
 46
0.0
 47
0.0
 48
0.0
 49
0.0
140
0.0
141
0.0
142
1.0
143
1.0
 70
  1712
 72
     1
 73
     0
 74
     0
  7

 75
     0
147
1.0
148
0.0
149
0.0
100
AcDbLayout
  1
Model
 70
     1
 71
     0
 10
0.0
 20
0.0
 11
840.994
 21
593.852
 12
0.0
 22
0.0
 32
0.0
 14
0.0
 24
0.0
 34
0.0
 15
840.994
 25
593.852
 35
0.0
146
0.0
 13
0.0
 23
0.0
 33
0.0
 16
1.0
 26
0.0
 36
0.0
 17
0.0
 27
1.0
 37
0.0
 76
     0
330
1F
331
29
  0
MLINESTYLE
  5
18
102
{ACAD_REACTORS
330
17
102
}
330
17
100
AcDbMlineStyle
  2
Standard
 70
     0
  3

 62
   256
 51
90.0
 52
90.0
 71
     2
 49
0.5
 62
   256
  6
BYLAYER
 49
-0.5
 62
   256
  6
BYLAYER
  0
ACDBPLACEHOLDER
  5
F
102
{ACAD_REACTORS
330
E
102
}
330
E
  0
SCALE
  5
48
102
{ACAD_REACTORS
330
47
102
}
330
47
100
AcDbScale
 70
     0
300
1:1
140
1.0
141
1.0
290
     1
  0
SCALE
  5
49
102
{ACAD_REACTORS
330
47
102
}
330
47
100
AcDbScale
 70
     0
300
1:2
140
1.0
141
2.0
290
     0
  0
SCALE
  5
4A
102
{ACAD_REACTORS
330
47
102
}
330
47
100
AcDbScale
 70
     0
300
1:4
140
1.0
141
4.0
290
     0
  0
SCALE
  5
4B
102
{ACAD_REACTORS
330
47
102
}
330
47
100
AcDbScale
 70
     0
300
1:5
140
1.0
141
5.0
290
     0
  0
SCALE
  5
4C
102
{ACAD_REACTORS
330
47
102
}
330
47
100
AcDbScale
 70
     0
300
1:8
140
1.0
141
8.0
290
     0
  0
SCALE
  5
4D
102
{ACAD_REACTORS
330
47
102
}
330
47
100
AcDbScale
 70
     0
300
1:10
140
1.0
141
10.0
290
     0
  0
SCALE
  5
4E
102
{ACAD_REACTORS
330
47
102
}
330
47
100
AcDbScale
 70
     0
300
1:16
140
1.0
141
16.0
290
     0
  0
SCALE
  5
4F
102
{ACAD_REACTORS
330
47
102
}
330
47
100
AcDbScale
 70
     0
300
1:20
140
1.0
141
20.0
290
     0
  0
SCALE
  5
50
102
{ACAD_REACTORS
330
47
102
}
330
47
100
AcDbScale
 70
     0
300
1:30
140
1.0
141
30.0
290
     0
  0
SCALE
  5
51
102
{ACAD_REACTORS
330
47
102
}
330
47
100
AcDbScale
 70
     0
300
1:40
140
1.0
141
40.0
290
     0
  0
SCALE
  5
52
102
{ACAD_REACTORS
330
47
102
}
330
47
100
AcDbScale
 70
     0
300
1:50
140
1.0
141
50.0
290
     0
  0
SCALE
  5
53
102
{ACAD_REACTORS
330
47
102
}
330
47
100
AcDbScale
 70
     0
300
1:100
140
1.0
141
100.0
290
     0
  0
SCALE
  5
54
102
{ACAD_REACTORS
330
47
102
}
330
47
100
AcDbScale
 70
     0
300
2:1
140
2.0
141
1.0
290
     0
  0
SCALE
  5
55
102
{ACAD_REACTORS
330
47
102
}
330
47
100
AcDbScale
 70
     0
300
4:1
140
4.0
141
1.0
290
     0
  0
SCALE
  5
56
102
{ACAD_REACTORS
330
47
102
}
330
47
100
AcDbScale
 70
     0
300
8:1
140
8.0
141
1.0
290
     0
  0
SCALE
  5
57
102
{ACAD_REACTORS
330
47
102
}
330
47
100
AcDbScale
 70
     0
300
10:1
140
10.0
141
1.0
290
     0
  0
SCALE
  5
58
102
{ACAD_REACTORS
330
47
102
}
330
47
100
AcDbScale
 70
     0
300
100:1
140
100.0
141
1.0
290
     0
  0
ENDSEC
  0
EOF
