  0
SECTION
  2
HEADER
  9
$ACADVER
  1
AC1014
  9
$ACADMAINTVER
 70
     9
  9
$DWGCODEPAGE
  3
ANSI_1252
  9
$INSBASE
 10
0.0
 20
0.0
 30
0.0
  9
$EXTMIN
 10
-144.0
 20
-189.0
 30
0.0
  9
$EXTMAX
 10
400.0086374805352
 20
203.3071294011023
 30
0.0000000000000029
  9
$LIMMIN
 10
0.0
 20
0.0
  9
$LIMMAX
 10
12.0
 20
9.0
  9
$ORTHOMODE
 70
     0
  9
$REGENMODE
 70
     1
  9
$FILLMODE
 70
     1
  9
$QTEXTMODE
 70
     0
  9
$MIRRTEXT
 70
     1
  9
$DRAGMODE
 70
     2
  9
$LTSCALE
 40
1.0
  9
$OSMODE
 70
    37
  9
$ATTMODE
 70
     1
  9
$TEXTSIZE
 40
0.2
  9
$TRACEWID
 40
0.05
  9
$TEXTSTYLE
  7
STANDARD
  9
$CLAYER
  8
0
  9
$CELTYPE
  6
BYLAYER
  9
$CECOLOR
 62
   256
  9
$CELTSCALE
 40
1.0
  9
$DELOBJ
 70
     1
  9
$DISPSILH
 70
     0
  9
$DIMSCALE
 40
1.0
  9
$DIMASZ
 40
0.18
  9
$DIMEXO
 40
0.0625
  9
$DIMDLI
 40
0.38
  9
$DIMRND
 40
0.0
  9
$DIMDLE
 40
0.0
  9
$DIMEXE
 40
0.18
  9
$DIMTP
 40
0.0
  9
$DIMTM
 40
0.0
  9
$DIMTXT
 40
0.18
  9
$DIMCEN
 40
0.09
  9
$DIMTSZ
 40
0.0
  9
$DIMTOL
 70
     0
  9
$DIMLIM
 70
     0
  9
$DIMTIH
 70
     1
  9
$DIMTOH
 70
     1
  9
$DIMSE1
 70
     0
  9
$DIMSE2
 70
     0
  9
$DIMTAD
 70
     0
  9
$DIMZIN
 70
     0
  9
$DIMBLK
  1

  9
$DIMASO
 70
     1
  9
$DIMSHO
 70
     1
  9
$DIMPOST
  1

  9
$DIMAPOST
  1

  9
$DIMALT
 70
     0
  9
$DIMALTD
 70
     2
  9
$DIMALTF
 40
25.4
  9
$DIMLFAC
 40
1.0
  9
$DIMTOFL
 70
     0
  9
$DIMTVP
 40
0.0
  9
$DIMTIX
 70
     0
  9
$DIMSOXD
 70
     0
  9
$DIMSAH
 70
     0
  9
$DIMBLK1
  1

  9
$DIMBLK2
  1

  9
$DIMSTYLE
  2
STANDARD
  9
$DIMCLRD
 70
     0
  9
$DIMCLRE
 70
     0
  9
$DIMCLRT
 70
     0
  9
$DIMTFAC
 40
1.0
  9
$DIMGAP
 40
0.09
  9
$DIMJUST
 70
     0
  9
$DIMSD1
 70
     0
  9
$DIMSD2
 70
     0
  9
$DIMTOLJ
 70
     1
  9
$DIMTZIN
 70
     0
  9
$DIMALTZ
 70
     0
  9
$DIMALTTZ
 70
     0
  9
$DIMFIT
 70
     3
  9
$DIMUPT
 70
     0
  9
$DIMUNIT
 70
     2
  9
$DIMDEC
 70
     4
  9
$DIMTDEC
 70
     4
  9
$DIMALTU
 70
     2
  9
$DIMALTTD
 70
     2
  9
$DIMTXSTY
  7
STANDARD
  9
$DIMAUNIT
 70
     0
  9
$LUNITS
 70
     2
  9
$LUPREC
 70
     4
  9
$SKETCHINC
 40
0.1
  9
$FILLETRAD
 40
0.0
  9
$AUNITS
 70
     0
  9
$AUPREC
 70
     0
  9
$MENU
  1
.
  9
$ELEVATION
 40
0.0
  9
$PELEVATION
 40
0.0
  9
$THICKNESS
 40
0.0
  9
$LIMCHECK
 70
     0
  9
$CHAMFERA
 40
0.0
  9
$CHAMFERB
 40
0.0
  9
$CHAMFERC
 40
0.0
  9
$CHAMFERD
 40
0.0
  9
$SKPOLY
 70
     0
  9
$TDCREATE
 40
2460354.791576655
  9
$TDUPDATE
 40
2460354.791577084
  9
$TDINDWG
 40
0.0000000116
  9
$TDUSRTIMER
 40
0.0000000116
  9
$USRTIMER
 70
     1
  9
$ANGBASE
 50
0.0
  9
$ANGDIR
 70
     0
  9
$PDMODE
 70
     0
  9
$PDSIZE
 40
0.0
  9
$PLINEWID
 40
0.0
  9
$COORDS
 70
     1
  9
$SPLFRAME
 70
     0
  9
$SPLINETYPE
 70
     6
  9
$SPLINESEGS
 70
     8
  9
$ATTDIA
 70
     0
  9
$ATTREQ
 70
     1
  9
$HANDLING
 70
     1
  9
$HANDSEED
  5
1011B
  9
$SURFTAB1
 70
     6
  9
$SURFTAB2
 70
     6
  9
$SURFTYPE
 70
     6
  9
$SURFU
 70
     6
  9
$SURFV
 70
     6
  9
$UCSNAME
  2

  9
$UCSORG
 10
0.0
 20
0.0
 30
0.0
  9
$UCSXDIR
 10
1.0
 20
0.0
 30
0.0
  9
$UCSYDIR
 10
0.0
 20
1.0
 30
0.0
  9
$PUCSNAME
  2

  9
$PUCSORG
 10
0.0
 20
0.0
 30
0.0
  9
$PUCSXDIR
 10
1.0
 20
0.0
 30
0.0
  9
$PUCSYDIR
 10
0.0
 20
1.0
 30
0.0
  9
$USERI1
 70
     0
  9
$USERI2
 70
     0
  9
$USERI3
 70
     0
  9
$USERI4
 70
     0
  9
$USERI5
 70
     0
  9
$USERR1
 40
0.0
  9
$USERR2
 40
0.0
  9
$USERR3
 40
0.0
  9
$USERR4
 40
0.0
  9
$USERR5
 40
0.0
  9
$WORLDVIEW
 70
     1
  9
$SHADEDGE
 70
     3
  9
$SHADEDIF
 70
    70
  9
$TILEMODE
 70
     1
  9
$MAXACTVP
 70
    64
  9
$PINSBASE
 10
0.0
 20
0.0
 30
0.0
  9
$PLIMCHECK
 70
     0
  9
$PEXTMIN
 10
1.000000000000000E+20
 20
1.000000000000000E+20
 30
1.000000000000000E+20
  9
$PEXTMAX
 10
-1.000000000000000E+20
 20
-1.000000000000000E+20
 30
-1.000000000000000E+20
  9
$PLIMMIN
 10
-0.25
 20
-0.25
  9
$PLIMMAX
 10
10.75
 20
8.25
  9
$UNITMODE
 70
     0
  9
$VISRETAIN
 70
     1
  9
$PLINEGEN
 70
     0
  9
$PSLTSCALE
 70
     1
  9
$TREEDEPTH
 70
  3020
  9
$PICKSTYLE
 70
     1
  9
$CMLSTYLE
  2
STANDARD
  9
$CMLJUST
 70
     0
  9
$CMLSCALE
 40
1.0
  9
$PROXYGRAPHICS
 70
     1
  9
$MEASUREMENT
 70
     0
  0
ENDSEC
  0
SECTION
  2
CLASSES
  0
CLASS
  1
ACDBDICTIONARYWDFLT
  2
AcDbDictionaryWithDefault
  3
ObjectDBX Classes
 90
        0
280
     0
281
     0
  0
CLASS
  1
VISUALSTYLE
  2
AcDbVisualStyle
  3
ObjectDBX Classes
 90
     4095
280
     0
281
     0
  0
CLASS
  1
MATERIAL
  2
AcDbMaterial
  3
ObjectDBX Classes
 90
     1153
280
     0
281
     0
  0
CLASS
  1
SCALE
  2
AcDbScale
  3
ObjectDBX Classes
 90
     1153
280
     0
281
     0
  0
CLASS
  1
TABLESTYLE
  2
AcDbTableStyle
  3
ObjectDBX Classes
 90
     4095
280
     0
281
     0
  0
CLASS
  1
MLEADERSTYLE
  2
AcDbMLeaderStyle
  3
ACDB_MLEADERSTYLE_CLASS
 90
     4095
280
     0
281
     0
  0
CLASS
  1
SUN
  2
AcDbSun
  3
SCENEOE
 90
     1153
280
     0
281
     0
  0
CLASS
  1
DICTIONARYVAR
  2
AcDbDictionaryVar
  3
ObjectDBX Classes
 90
        0
280
     0
281
     0
  0
CLASS
  1
XRECORD
  2
AcDbXrecord
  3
ObjectDBX Classes
 90
        0
280
     0
281
     0
  0
CLASS
  1
LWPOLYLINE
  2
AcDbPolyline
  3
ObjectDBX Classes
 90
        0
280
     0
281
     1
  0
CLASS
  1
HATCH
  2
AcDbHatch
  3
ObjectDBX Classes
 90
        0
280
     0
281
     1
  0
CLASS
  1
ACDBPLACEHOLDER
  2
AcDbPlaceHolder
  3
ObjectDBX Classes
 90
        0
280
     0
281
     0
  0
CLASS
  1
LAYOUT
  2
AcDbLayout
  3
ObjectDBX Classes
 90
        0
280
     0
281
     0
  0
ENDSEC
  0
SECTION
  2
TABLES
  0
TABLE
  2
VPORT
  5
10024
102
{ACAD_XDICTIONARY
360
10110
102
}
330
0
100
AcDbSymbolTable
 70
     1
  0
VPORT
  5
10044
330
10024
100
AcDbSymbolTableRecord
100
AcDbViewportTableRecord
  2
*ACTIVE
 70
     0
 10
0.0
 20
0.0
 11
1.0
 21
1.0
 12
164.2342262695203
 22
52.89729177716652
 13
0.0
 23
0.0
 14
0.5
 24
0.5
 15
0.5
 25
0.5
 16
0.0
 26
0.0
 36
1.0
 17
0.0
 27
0.0
 37
0.0
 40
723.6494132356786
 41
1.901390644753477
 42
50.0
 43
0.0
 44
0.0
 50
0.0
 51
0.0
 71
     0
 72
   100
 73
     1
 74
     3
 75
     0
 76
     0
 77
     0
 78
     0
  0
ENDTAB
  0
TABLE
  2
LTYPE
  5
10021
330
0
100
AcDbSymbolTable
 70
    48
  0
LTYPE
  5
1002F
330
10021
100
AcDbSymbolTableRecord
100
AcDbLinetypeTableRecord
  2
BYBLOCK
 70
     0
  3

 72
    65
 73
     0
 40
0.0
  0
LTYPE
  5
10030
330
10021
100
AcDbSymbolTableRecord
100
AcDbLinetypeTableRecord
  2
BYLAYER
 70
     0
  3

 72
    65
 73
     0
 40
0.0
  0
LTYPE
  5
10031
330
10021
100
AcDbSymbolTableRecord
100
AcDbLinetypeTableRecord
  2
CONTINUOUS
 70
     0
  3
Solid line
 72
    65
 73
     0
 40
0.0
  0
LTYPE
  5
100B3
330
10021
100
AcDbSymbolTableRecord
100
AcDbLinetypeTableRecord
  2
ACAD_ISO05W100
 70
     0
  3
ISO long-dash double-dot ____ .. ____ .. ____ . 
 72
    65
 73
     6
 40
33.0
 49
24.0
 74
     0
 49
-3.0
 74
     0
 49
0.0
 74
     0
 49
-3.0
 74
     0
 49
0.0
 74
     0
 49
-3.0
 74
     0
  0
LTYPE
  5
100B4
330
10021
100
AcDbSymbolTableRecord
100
AcDbLinetypeTableRecord
  2
ACAD_ISO04W100
 70
     0
  3
ISO long-dash dot ____ . ____ . ____ . ____ . _
 72
    65
 73
     4
 40
30.0
 49
24.0
 74
     0
 49
-3.0
 74
     0
 49
0.0
 74
     0
 49
-3.0
 74
     0
  0
LTYPE
  5
100B5
330
10021
100
AcDbSymbolTableRecord
100
AcDbLinetypeTableRecord
  2
ACAD_ISO03W100
 70
     0
  3
ISO dash space __    __    __    __    __    __
 72
    65
 73
     2
 40
30.0
 49
12.0
 74
     0
 49
-18.0
 74
     0
  0
LTYPE
  5
100B6
330
10021
100
AcDbSymbolTableRecord
100
AcDbLinetypeTableRecord
  2
ACAD_ISO02W100
 70
     0
  3
ISO dash __ __ __ __ __ __ __ __ __ __ __ __ __
 72
    65
 73
     2
 40
15.0
 49
12.0
 74
     0
 49
-3.0
 74
     0
  0
LTYPE
  5
100B7
330
10021
100
AcDbSymbolTableRecord
100
AcDbLinetypeTableRecord
  2
ACAD_ISO09W100
 70
     0
  3
ISO long-dash double-short-dash ____ __ __ ____
 72
    65
 73
     6
 40
45.0
 49
24.0
 74
     0
 49
-3.0
 74
     0
 49
6.0
 74
     0
 49
-3.0
 74
     0
 49
6.0
 74
     0
 49
-3.0
 74
     0
  0
LTYPE
  5
100B8
330
10021
100
AcDbSymbolTableRecord
100
AcDbLinetypeTableRecord
  2
ACAD_ISO08W100
 70
     0
  3
ISO long-dash short-dash ____ __ ____ __ ____ _
 72
    65
 73
     4
 40
36.0
 49
24.0
 74
     0
 49
-3.0
 74
     0
 49
6.0
 74
     0
 49
-3.0
 74
     0
  0
LTYPE
  5
100B9
330
10021
100
AcDbSymbolTableRecord
100
AcDbLinetypeTableRecord
  2
ACAD_ISO07W100
 70
     0
  3
ISO dot . . . . . . . . . . . . . . . . . . . . 
 72
    65
 73
     2
 40
3.0
 49
0.0
 74
     0
 49
-3.0
 74
     0
  0
LTYPE
  5
100BA
330
10021
100
AcDbSymbolTableRecord
100
AcDbLinetypeTableRecord
  2
ACAD_ISO06W100
 70
     0
  3
ISO long-dash triple-dot ____ ... ____ ... ____
 72
    65
 73
     8
 40
36.0
 49
24.0
 74
     0
 49
-3.0
 74
     0
 49
0.0
 74
     0
 49
-3.0
 74
     0
 49
0.0
 74
     0
 49
-3.0
 74
     0
 49
0.0
 74
     0
 49
-3.0
 74
     0
  0
LTYPE
  5
100BB
330
10021
100
AcDbSymbolTableRecord
100
AcDbLinetypeTableRecord
  2
ACAD_ISO13W100
 70
     0
  3
ISO double-dash double-dot __ __ . . __ __ . . _
 72
    65
 73
     8
 40
36.0
 49
12.0
 74
     0
 49
-3.0
 74
     0
 49
12.0
 74
     0
 49
-3.0
 74
     0
 49
0.0
 74
     0
 49
-3.0
 74
     0
 49
0.0
 74
     0
 49
-3.0
 74
     0
  0
LTYPE
  5
100BC
330
10021
100
AcDbSymbolTableRecord
100
AcDbLinetypeTableRecord
  2
ACAD_ISO12W100
 70
     0
  3
ISO dash double-dot __ . . __ . . __ . . __ . . 
 72
    65
 73
     6
 40
21.0
 49
12.0
 74
     0
 49
-3.0
 74
     0
 49
0.0
 74
     0
 49
-3.0
 74
     0
 49
0.0
 74
     0
 49
-3.0
 74
     0
  0
LTYPE
  5
100BD
330
10021
100
AcDbSymbolTableRecord
100
AcDbLinetypeTableRecord
  2
ACAD_ISO11W100
 70
     0
  3
ISO double-dash dot __ __ . __ __ . __ __ . __ _
 72
    65
 73
     6
 40
33.0
 49
12.0
 74
     0
 49
-3.0
 74
     0
 49
12.0
 74
     0
 49
-3.0
 74
     0
 49
0.0
 74
     0
 49
-3.0
 74
     0
  0
LTYPE
  5
100BE
330
10021
100
AcDbSymbolTableRecord
100
AcDbLinetypeTableRecord
  2
ACAD_ISO10W100
 70
     0
  3
ISO dash dot __ . __ . __ . __ . __ . __ . __ . 
 72
    65
 73
     4
 40
18.0
 49
12.0
 74
     0
 49
-3.0
 74
     0
 49
0.0
 74
     0
 49
-3.0
 74
     0
  0
LTYPE
  5
100BF
330
10021
100
AcDbSymbolTableRecord
100
AcDbLinetypeTableRecord
  2
BORDER
 70
     0
  3
Border __ __ . __ __ . __ __ . __ __ . __ __ .
 72
    65
 73
     6
 40
44.45
 49
12.7
 74
     0
 49
-6.35
 74
     0
 49
12.7
 74
     0
 49
-6.35
 74
     0
 49
0.0
 74
     0
 49
-6.35
 74
     0
  0
LTYPE
  5
100C1
330
10021
100
AcDbSymbolTableRecord
100
AcDbLinetypeTableRecord
  2
BATTING
 70
     0
  3
Batting SSSSSSSSSSSSSSSSSSSSSSSSSSSSSSSSSSSSSSSSSSSSSSS
 72
    65
 73
     4
 40
10.16254
 49
0.00254
 74
     0
 49
-2.54
 74
     2
 75
     0
340
100C0
 46
2.54
 50
0.0
 44
-2.54
 45
0.0
  9
BAT
 49
-5.08
 74
     2
 75
     0
340
100C0
 46
2.54
 50
180.0
 44
2.54
 45
0.0
  9
BAT
 49
-2.54
 74
     0
  0
LTYPE
  5
100C2
330
10021
100
AcDbSymbolTableRecord
100
AcDbLinetypeTableRecord
  2
ACAD_ISO15W100
 70
     0
  3
ISO double-dash triple-dot __ __ . . . __ __ . .
 72
    65
 73
    10
 40
39.0
 49
12.0
 74
     0
 49
-3.0
 74
     0
 49
12.0
 74
     0
 49
-3.0
 74
     0
 49
0.0
 74
     0
 49
-3.0
 74
     0
 49
0.0
 74
     0
 49
-3.0
 74
     0
 49
0.0
 74
     0
 49
-3.0
 74
     0
  0
LTYPE
  5
100C3
330
10021
100
AcDbSymbolTableRecord
100
AcDbLinetypeTableRecord
  2
ACAD_ISO14W100
 70
     0
  3
ISO dash triple-dot __ . . . __ . . . __ . . . _
 72
    65
 73
     8
 40
24.0
 49
12.0
 74
     0
 49
-3.0
 74
     0
 49
0.0
 74
     0
 49
-3.0
 74
     0
 49
0.0
 74
     0
 49
-3.0
 74
     0
 49
0.0
 74
     0
 49
-3.0
 74
     0
  0
LTYPE
  5
100C4
330
10021
100
AcDbSymbolTableRecord
100
AcDbLinetypeTableRecord
  2
CENTER2
 70
     0
  3
Center (.5x) ___ _ ___ _ ___ _ ___ _ ___ _ ___
 72
    65
 73
     4
 40
28.575
 49
19.05
 74
     0
 49
-3.175
 74
     0
 49
3.175
 74
     0
 49
-3.175
 74
     0
  0
LTYPE
  5
100C5
330
10021
100
AcDbSymbolTableRecord
100
AcDbLinetypeTableRecord
  2
CENTER
 70
     0
  3
Center ____ _ ____ _ ____ _ ____ _ ____ _ ____
 72
    65
 73
     4
 40
50.8
 49
31.75
 74
     0
 49
-6.35
 74
     0
 49
6.35
 74
     0
 49
-6.35
 74
     0
  0
LTYPE
  5
100C6
330
10021
100
AcDbSymbolTableRecord
100
AcDbLinetypeTableRecord
  2
BORDERX2
 70
     0
  3
Border (2x) ____  ____  .  ____  ____  .  ___
 72
    65
 73
     6
 40
88.89999999999999
 49
25.4
 74
     0
 49
-12.7
 74
     0
 49
25.4
 74
     0
 49
-12.7
 74
     0
 49
0.0
 74
     0
 49
-12.7
 74
     0
  0
LTYPE
  5
100C7
330
10021
100
AcDbSymbolTableRecord
100
AcDbLinetypeTableRecord
  2
BORDER2
 70
     0
  3
Border (.5x) __.__.__.__.__.__.__.__.__.__.__.
 72
    65
 73
     6
 40
22.225
 49
6.35
 74
     0
 49
-3.175
 74
     0
 49
6.35
 74
     0
 49
-3.175
 74
     0
 49
0.0
 74
     0
 49
-3.175
 74
     0
  0
LTYPE
  5
100C8
330
10021
100
AcDbSymbolTableRecord
100
AcDbLinetypeTableRecord
  2
DASHDOTX2
 70
     0
  3
Dash dot (2x) ____  .  ____  .  ____  .  ___
 72
    65
 73
     4
 40
50.8
 49
25.4
 74
     0
 49
-12.7
 74
     0
 49
0.0
 74
     0
 49
-12.7
 74
     0
  0
LTYPE
  5
100C9
330
10021
100
AcDbSymbolTableRecord
100
AcDbLinetypeTableRecord
  2
DASHDOT2
 70
     0
  3
Dash dot (.5x) _._._._._._._._._._._._._._._.
 72
    65
 73
     4
 40
12.7
 49
6.35
 74
     0
 49
-3.175
 74
     0
 49
0.0
 74
     0
 49
-3.175
 74
     0
  0
LTYPE
  5
100CA
330
10021
100
AcDbSymbolTableRecord
100
AcDbLinetypeTableRecord
  2
DASHDOT
 70
     0
  3
Dash dot __ . __ . __ . __ . __ . __ . __ . __
 72
    65
 73
     4
 40
25.4
 49
12.7
 74
     0
 49
-6.35
 74
     0
 49
0.0
 74
     0
 49
-6.35
 74
     0
  0
LTYPE
  5
100CB
330
10021
100
AcDbSymbolTableRecord
100
AcDbLinetypeTableRecord
  2
CENTERX2
 70
     0
  3
Center (2x) ________  __  ________  __  _____
 72
    65
 73
     4
 40
101.6
 49
63.5
 74
     0
 49
-12.7
 74
     0
 49
12.7
 74
     0
 49
-12.7
 74
     0
  0
LTYPE
  5
100CC
330
10021
100
AcDbSymbolTableRecord
100
AcDbLinetypeTableRecord
  2
DIVIDE
 70
     0
  3
Divide ____ . . ____ . . ____ . . ____ . . ____
 72
    65
 73
     6
 40
31.75
 49
12.7
 74
     0
 49
-6.35
 74
     0
 49
0.0
 74
     0
 49
-6.35
 74
     0
 49
0.0
 74
     0
 49
-6.35
 74
     0
  0
LTYPE
  5
100CD
330
10021
100
AcDbSymbolTableRecord
100
AcDbLinetypeTableRecord
  2
DASHEDX2
 70
     0
  3
Dashed (2x) ____  ____  ____  ____  ____  ___
 72
    65
 73
     2
 40
38.09999999999999
 49
25.4
 74
     0
 49
-12.7
 74
     0
  0
LTYPE
  5
100CE
330
10021
100
AcDbSymbolTableRecord
100
AcDbLinetypeTableRecord
  2
DASHED2
 70
     0
  3
Dashed (.5x) _ _ _ _ _ _ _ _ _ _ _ _ _ _ _ _ _ 
 72
    65
 73
     2
 40
9.524999999999999
 49
6.35
 74
     0
 49
-3.175
 74
     0
  0
LTYPE
  5
100CF
330
10021
100
AcDbSymbolTableRecord
100
AcDbLinetypeTableRecord
  2
DASHED
 70
     0
  3
Dashed __ __ __ __ __ __ __ __ __ __ __ __ __ _
 72
    65
 73
     2
 40
19.05
 49
12.7
 74
     0
 49
-6.35
 74
     0
  0
LTYPE
  5
100D0
330
10021
100
AcDbSymbolTableRecord
100
AcDbLinetypeTableRecord
  2
DOT2
 70
     0
  3
Dot (.5x) ........................................
 72
    65
 73
     2
 40
3.175
 49
0.0
 74
     0
 49
-3.175
 74
     0
  0
LTYPE
  5
100D1
330
10021
100
AcDbSymbolTableRecord
100
AcDbLinetypeTableRecord
  2
DOT
 70
     0
  3
Dot . . . . . . . . . . . . . . . . . . . . . . . .
 72
    65
 73
     2
 40
6.35
 49
0.0
 74
     0
 49
-6.35
 74
     0
  0
LTYPE
  5
100D2
330
10021
100
AcDbSymbolTableRecord
100
AcDbLinetypeTableRecord
  2
DIVIDEX2
 70
     0
  3
Divide (2x) ________  .  .  ________  .  .  _
 72
    65
 73
     6
 40
63.5
 49
25.4
 74
     0
 49
-12.7
 74
     0
 49
0.0
 74
     0
 49
-12.7
 74
     0
 49
0.0
 74
     0
 49
-12.7
 74
     0
  0
LTYPE
  5
100D3
330
10021
100
AcDbSymbolTableRecord
100
AcDbLinetypeTableRecord
  2
DIVIDE2
 70
     0
  3
Divide (.5x) __..__..__..__..__..__..__..__.._
 72
    65
 73
     6
 40
15.875
 49
6.35
 74
     0
 49
-3.175
 74
     0
 49
0.0
 74
     0
 49
-3.175
 74
     0
 49
0.0
 74
     0
 49
-3.175
 74
     0
  0
LTYPE
  5
100D4
330
10021
100
AcDbSymbolTableRecord
100
AcDbLinetypeTableRecord
  2
FENCELINE1
 70
     0
  3
Fenceline circle ----0-----0----0-----0----0-----0--
 72
    65
 73
     4
 40
36.83
 49
6.35
 74
     0
 49
-2.54
 74
     2
 75
     0
340
100C0
 46
2.54
 50
0.0
 44
-2.54
 45
0.0
  9
CIRC1
 49
-2.54
 74
     0
 49
25.4
 74
     0
  0
LTYPE
  5
100D6
330
10021
100
AcDbSymbolTableRecord
100
AcDbLinetypeTableRecord
  2
DRAINAGE2
 70
     0
  3
Drainage reversed----<----<----<----
 72
    65
 73
     2
 40
10.16
 49
5.08
 74
     2
 75
     0
340
100D5
 46
2.54
 50
0.0
 44
0.0
 45
0.0
  9
RIGHT_ARROW
 49
5.08
 74
     0
  0
LTYPE
  5
100D7
330
10021
100
AcDbSymbolTableRecord
100
AcDbLinetypeTableRecord
  2
DRAINAGE
 70
     0
  3
Drainage ---->---->---->----
 72
    65
 73
     2
 40
10.16
 49
5.08
 74
     2
 75
     0
340
100D5
 46
2.54
 50
180.0
 44
0.0
 45
0.0
  9
RIGHT_ARROW
 49
5.08
 74
     0
  0
LTYPE
  5
100D8
330
10021
100
AcDbSymbolTableRecord
100
AcDbLinetypeTableRecord
  2
DOTX2
 70
     0
  3
Dot (2x) .  .  .  .  .  .  .  .  .  .  .  .  .  .
 72
    65
 73
     2
 40
12.7
 49
0.0
 74
     0
 49
-12.7
 74
     0
  0
LTYPE
  5
100D9
330
10021
100
AcDbSymbolTableRecord
100
AcDbLinetypeTableRecord
  2
HIDDEN2
 70
     0
  3
Hidden (.5x) _ _ _ _ _ _ _ _ _ _ _ _ _ _ _ _ _ 
 72
    65
 73
     2
 40
4.762499999999999
 49
3.175
 74
     0
 49
-1.5875
 74
     0
  0
LTYPE
  5
100DA
330
10021
100
AcDbSymbolTableRecord
100
AcDbLinetypeTableRecord
  2
HIDDEN
 70
     0
  3
Hidden __ __ __ __ __ __ __ __ __ __ __ __ __ __
 72
    65
 73
     2
 40
9.524999999999999
 49
6.35
 74
     0
 49
-3.175
 74
     0
  0
LTYPE
  5
100DC
330
10021
100
AcDbSymbolTableRecord
100
AcDbLinetypeTableRecord
  2
GAS_LINE
 70
     0
  3
Gas line ----GAS----GAS----GAS----GAS----GAS----GAS--
 72
    65
 73
     3
 40
24.13
 49
12.7
 74
     0
 49
-5.08
 74
     2
 75
     0
340
100DB
 46
2.54
 50
0.0
 44
-2.54
 45
-1.27
  9
GAS
 49
-6.35
 74
     0
  0
LTYPE
  5
100DD
330
10021
100
AcDbSymbolTableRecord
100
AcDbLinetypeTableRecord
  2
FENCELINE2
 70
     0
  3
Fenceline square ----[]-----[]----[]-----[]----[]---
 72
    65
 73
     4
 40
36.83
 49
6.35
 74
     0
 49
-2.54
 74
     2
 75
     0
340
100C0
 46
2.54
 50
0.0
 44
-2.54
 45
0.0
  9
BOX
 49
-2.54
 74
     0
 49
25.4
 74
     0
  0
LTYPE
  5
100DE
330
10021
100
AcDbSymbolTableRecord
100
AcDbLinetypeTableRecord
  2
PHANTOM2
 70
     0
  3
Phantom (.5x) ___ _ _ ___ _ _ ___ _ _ ___ _ _
 72
    65
 73
     6
 40
31.75
 49
15.875
 74
     0
 49
-3.175
 74
     0
 49
3.175
 74
     0
 49
-3.175
 74
     0
 49
3.175
 74
     0
 49
-3.175
 74
     0
  0
LTYPE
  5
100DF
330
10021
100
AcDbSymbolTableRecord
100
AcDbLinetypeTableRecord
  2
PHANTOM
 70
     0
  3
Phantom ______  __  __  ______  __  __  ______ 
 72
    65
 73
     6
 40
63.50000000000001
 49
31.75
 74
     0
 49
-6.35
 74
     0
 49
6.35
 74
     0
 49
-6.35
 74
     0
 49
6.35
 74
     0
 49
-6.35
 74
     0
  0
LTYPE
  5
100E0
330
10021
100
AcDbSymbolTableRecord
100
AcDbLinetypeTableRecord
  2
HOT_WATER_SUPPLY
 70
     0
  3
Hot water supply ---- HW ---- HW ---- HW ----
 72
    65
 73
     3
 40
22.86
 49
12.7
 74
     0
 49
-5.08
 74
     2
 75
     0
340
100DB
 46
2.54
 50
0.0
 44
-2.54
 45
-1.27
  9
HW
 49
-5.08
 74
     0
  0
LTYPE
  5
100E1
330
10021
100
AcDbSymbolTableRecord
100
AcDbLinetypeTableRecord
  2
HIDDENX2
 70
     0
  3
Hidden (2x) ____ ____ ____ ____ ____ ____ ____ 
 72
    65
 73
     2
 40
19.05
 49
12.7
 74
     0
 49
-6.35
 74
     0
  0
LTYPE
  5
100E2
330
10021
100
AcDbSymbolTableRecord
100
AcDbLinetypeTableRecord
  2
ZIGZAG
 70
     0
  3
Zig zag /\/\/\/\/\/\/\/\/\/\/\/\/\/\/\/\/\/\/\/\/\/\/\/
 72
    65
 73
     4
 40
20.32254
 49
0.00254
 74
     0
 49
-5.08
 74
     2
 75
     0
340
100C0
 46
5.08
 50
0.0
 44
-5.08
 45
0.0
  9
ZIG
 49
-10.16
 74
     2
 75
     0
340
100C0
 46
5.08
 50
180.0
 44
5.08
 45
0.0
  9
ZIG
 49
-5.08
 74
     0
  0
LTYPE
  5
100E3
330
10021
100
AcDbSymbolTableRecord
100
AcDbLinetypeTableRecord
  2
TRACKS
 70
     0
  3
Tracks -|-|-|-|-|-|-|-|-|-|-|-|-|-|-|-|-|-|-|-|-|-|-|-|-
 72
    65
 73
     2
 40
7.62
 49
3.81
 74
     2
 75
     0
340
100C0
 46
6.35
 50
0.0
 44
0.0
 45
0.0
  9
TRACK1
 49
3.81
 74
     0
  0
LTYPE
  5
100E4
330
10021
100
AcDbSymbolTableRecord
100
AcDbLinetypeTableRecord
  2
PHANTOMX2
 70
     0
  3
Phantom (2x) ____________    ____    ____   _
 72
    65
 73
     6
 40
127.0
 49
63.5
 74
     0
 49
-12.7
 74
     0
 49
12.7
 74
     0
 49
-12.7
 74
     0
 49
12.7
 74
     0
 49
-12.7
 74
     0
  0
ENDTAB
  0
TABLE
  2
LAYER
  5
1001F
330
0
100
AcDbSymbolTable
 70
     1
  0
LAYER
  5
1002C
330
1001F
100
AcDbSymbolTableRecord
100
AcDbLayerTableRecord
  2
0
 70
     0
 62
     7
  6
CONTINUOUS
  0
ENDTAB
  0
TABLE
  2
STYLE
  5
10020
330
0
100
AcDbSymbolTable
 70
     5
  0
STYLE
  5
1002D
330
10020
100
AcDbSymbolTableRecord
100
AcDbTextStyleTableRecord
  2
STANDARD
 70
     0
 40
0.0
 41
1.0
 50
0.0
 71
     0
 42
0.2
  3
txt
  4

  0
STYLE
  5
100B1
330
10020
100
AcDbSymbolTableRecord
100
AcDbTextStyleTableRecord
  2
QCADDIMTEXTSTYLE
 70
     0
 40
0.0
 41
1.0
 50
0.0
 71
     0
 42
0.2
  3

  4

  0
STYLE
  5
100C0
330
10020
100
AcDbSymbolTableRecord
100
AcDbTextStyleTableRecord
  2
TEXTSTYLE0
 70
     0
 40
0.0
 41
1.0
 50
0.0
 71
     0
 42
0.2
  3
ltypeshp.shx
  4

  0
STYLE
  5
100D5
330
10020
100
AcDbSymbolTableRecord
100
AcDbTextStyleTableRecord
  2
TEXTSTYLE1
 70
     0
 40
0.0
 41
1.0
 50
0.0
 71
     0
 42
0.2
  3
qcadshp.shx
  4

  0
STYLE
  5
100DB
330
10020
100
AcDbSymbolTableRecord
100
AcDbTextStyleTableRecord
  2
TEXTSTYLE2
 70
     0
 40
0.0
 41
1.0
 50
0.0
 71
     0
 42
0.2
  3
STANDARD
  4

  0
ENDTAB
  0
TABLE
  2
VIEW
  5
10022
330
0
100
AcDbSymbolTable
 70
     0
  0
ENDTAB
  0
TABLE
  2
UCS
  5
10023
330
0
100
AcDbSymbolTable
 70
     0
  0
ENDTAB
  0
TABLE
  2
APPID
  5
10025
330
0
100
AcDbSymbolTable
 70
     3
  0
APPID
  5
1002E
330
10025
100
AcDbSymbolTableRecord
100
AcDbRegAppTableRecord
  2
ACAD
 70
     0
  0
APPID
  5
10079
330
10025
100
AcDbSymbolTableRecord
100
AcDbRegAppTableRecord
  2
QCAD
 70
     0
  0
APPID
  5
1011A
330
10025
100
AcDbSymbolTableRecord
100
AcDbRegAppTableRecord
  2
ACAD_MLEADERVER
 70
     0
  0
ENDTAB
  0
TABLE
  2
DIMSTYLE
  5
10026
330
0
100
AcDbSymbolTable
 70
     2
  0
DIMSTYLE
105
10042
330
10026
100
AcDbSymbolTableRecord
100
AcDbDimStyleTableRecord
  2
STANDARD
 70
     0
  3

  4

  5

  6

  7

 40
1.0
 41
0.18
 42
0.0625
 43
0.38
 44
0.18
 45
0.0
 46
0.0
 47
0.0
 48
0.0
140
0.18
141
0.09
142
0.0
143
25.4
144
1.0
145
0.0
146
1.0
147
0.09
 71
     0
 72
     0
 73
     1
 74
     1
 75
     0
 76
     0
 77
     0
 78
     0
170
     0
171
     2
172
     0
173
     0
174
     0
175
     0
176
     0
177
     0
178
     0
270
     2
271
     4
272
     4
273
     2
274
     2
340
1002D
275
     0
280
     0
281
     0
282
     0
283
     1
284
     0
285
     0
286
     0
287
     3
288
     0
  0
DIMSTYLE
105
100B2
330
10026
100
AcDbSymbolTableRecord
100
AcDbDimStyleTableRecord
  2
QCADDIMSTYLE
 70
     0
  3

  4

  5

  6

  7

 40
1.0
 41
0.18
 42
0.0625
 43
0.38
 44
0.18
 45
0.0
 46
0.0
 47
0.0
 48
0.0
140
0.18
141
0.09
142
0.0
143
25.4
144
1.0
145
0.0
146
1.0
147
0.09
 71
     0
 72
     0
 73
     1
 74
     1
 75
     0
 76
     0
 77
     0
 78
     0
170
     0
171
     2
172
     0
173
     0
174
     0
175
     0
176
     0
177
     0
178
     0
270
     2
271
     4
272
     4
273
     2
274
     2
340
100B1
275
     0
280
     0
281
     0
282
     0
283
     1
284
     0
285
     0
286
     0
287
     5
288
     0
  0
ENDTAB
  0
TABLE
  2
BLOCK_RECORD
  5
1001E
330
0
100
AcDbSymbolTable
 70
     0
  0
BLOCK_RECORD
  5
1003A
330
1001E
100
AcDbSymbolTableRecord
100
AcDbBlockTableRecord
  2
*MODEL_SPACE
  0
BLOCK_RECORD
  5
10036
330
1001E
100
AcDbSymbolTableRecord
100
AcDbBlockTableRecord
  2
*PAPER_SPACE
  0
ENDTAB
  0
ENDSEC
  0
SECTION
  2
BLOCKS
  0
BLOCK
  5
1003B
330
1003A
100
AcDbEntity
  8
0
100
AcDbBlockBegin
  2
*MODEL_SPACE
 70
     0
 10
0.0
 20
0.0
 30
0.0
  3
*MODEL_SPACE
  1

  0
ENDBLK
  5
1003C
330
1003A
100
AcDbEntity
  8
0
100
AcDbBlockEnd
  0
BLOCK
  5
10037
330
10036
100
AcDbEntity
 67
     1
  8
0
100
AcDbBlockBegin
  2
*PAPER_SPACE
 70
     0
 10
0.0
 20
0.0
 30
0.0
  3
*PAPER_SPACE
  1

  0
ENDBLK
  5
10038
330
10036
100
AcDbEntity
 67
     1
  8
0
100
AcDbBlockEnd
  0
ENDSEC
  0
SECTION
  2
ENTITIES
  0
LINE
  5
100
330
1003A
100
AcDbEntity
  8
0
100
AcDbLine
 10
0.0
 20
0.0
 30
0.0
 11
36.36363636363636
 21
0.0
 31
0.0
  0
LINE
  5
101
330
1003A
100
AcDbEntity
  8
0
100
AcDbLine
 10
36.36363636363636
 20
0.0
 30
0.0
 11
36.36363636363636
 21
3.3
 31
0.0
  0
LINE
  5
102
330
1003A
100
AcDbEntity
  8
0
100
AcDbLine
 10
36.36363636363636
 20
3.3
 30
0.0
 11
72.72727272727272
 21
3.3
 31
0.0
  0
LINE
  5
103
330
1003A
100
AcDbEntity
  8
0
100
AcDbLine
 10
72.72727272727272
 20
3.3
 30
0.0
 11
72.72727272727272
 21
0.0
 31
0.0
  0
LINE
  5
104
330
1003A
100
AcDbEntity
  8
0
100
AcDbLine
 10
0.0
 20
0.0
 30
0.0
 11
0.0000000000000017
 21
28.57142857142858
 31
0.0
  0
LINE
  5
105
330
1003A
100
AcDbEntity
  8
0
100
AcDbLine
 10
0.0000000000000017
 20
28.57142857142858
 30
0.0
 11
3.300000000000003
 21
28.57142857142856
 31
0.0
  0
LINE
  5
106
330
1003A
100
AcDbEntity
  8
0
100
AcDbLine
 10
3.300000000000003
 20
28.57142857142856
 30
0.0
 11
3.300000000000009
 21
57.14285714285714
 31
0.0
  0
LINE
  5
107
330
1003A
100
AcDbEntity
  8
0
100
AcDbLine
 10
72.72727272727273
 20
0.0
 30
0.0
 11
109.0909090909091
 21
0.0
 31
0.0
  0
LINE
  5
108
330
1003A
100
AcDbEntity
  8
0
100
AcDbLine
 10
145.4545454545455
 20
0.0
 30
0.0
 11
181.8181818181818
 21
0.0
 31
0.0
  0
LINE
  5
109
330
1003A
100
AcDbEntity
  8
0
100
AcDbLine
 10
218.1818181818182
 20
0.0
 30
0.0
 11
254.5454545454546
 21
0.0
 31
0.0
  0
LINE
  5
110
330
1003A
100
AcDbEntity
  8
0
100
AcDbLine
 10
290.9090909090909
 20
0.0
 30
0.0
 11
327.2727272727273
 21
0.0
 31
0.0
  0
LINE
  5
111
330
1003A
100
AcDbEntity
  8
0
100
AcDbLine
 10
363.6363636363637
 20
0.0
 30
0.0
 11
400.0
 21
0.0
 31
0.0
  0
LINE
  5
112
330
1003A
100
AcDbEntity
  8
0
100
AcDbLine
 10
0.0
 20
200.0
 30
0.0
 11
36.36363636363636
 21
200.0
 31
0.0
  0
LINE
  5
113
330
1003A
100
AcDbEntity
  8
0
100
AcDbLine
 10
72.72727272727273
 20
200.0
 30
0.0
 11
109.0909090909091
 21
200.0
 31
0.0
  0
LINE
  5
114
330
1003A
100
AcDbEntity
  8
0
100
AcDbLine
 10
145.4545454545455
 20
200.0
 30
0.0
 11
181.8181818181818
 21
200.0
 31
0.0
  0
LINE
  5
115
330
1003A
100
AcDbEntity
  8
0
100
AcDbLine
 10
218.1818181818182
 20
200.0
 30
0.0
 11
254.5454545454546
 21
200.0
 31
0.0
  0
LINE
  5
116
330
1003A
100
AcDbEntity
  8
0
100
AcDbLine
 10
290.9090909090909
 20
200.0
 30
0.0
 11
327.2727272727273
 21
200.0
 31
0.0
  0
LINE
  5
117
330
1003A
100
AcDbEntity
  8
0
100
AcDbLine
 10
363.6363636363637
 20
200.0
 30
0.0
 11
400.0
 21
200.0
 31
0.0
  0
LINE
  5
118
330
1003A
100
AcDbEntity
  8
0
100
AcDbLine
 10
36.36363636363636
 20
200.0
 30
0.0
 11
36.36363636363636
 21
196.7
 31
0.0
  0
LINE
  5
119
330
1003A
100
AcDbEntity
  8
0
100
AcDbLine
 10
36.36363636363636
 20
196.7
 30
0.0
 11
72.72727272727272
 21
196.7
 31
0.0
  0
LINE
  5
120
330
1003A
100
AcDbEntity
  8
0
100
AcDbLine
 10
72.72727272727272
 20
196.7
 30
0.0
 11
72.72727272727272
 21
200.0
 31
0.0
  0
LINE
  5
121
330
1003A
100
AcDbEntity
  8
0
100
AcDbLine
 10
109.0909090909091
 20
0.0
 30
0.0
 11
109.0909090909091
 21
3.3
 31
0.0
  0
LINE
  5
122
330
1003A
100
AcDbEntity
  8
0
100
AcDbLine
 10
109.0909090909091
 20
3.3
 30
0.0
 11
145.4545454545455
 21
3.3
 31
0.0
  0
LINE
  5
123
330
1003A
100
AcDbEntity
  8
0
100
AcDbLine
 10
145.4545454545455
 20
3.3
 30
0.0
 11
145.4545454545455
 21
0.0
 31
0.0
  0
LINE
  5
124
330
1003A
100
AcDbEntity
  8
0
100
AcDbLine
 10
109.0909090909091
 20
200.0
 30
0.0
 11
109.0909090909091
 21
196.7
 31
0.0
  0
LINE
  5
125
330
1003A
100
AcDbEntity
  8
0
100
AcDbLine
 10
109.0909090909091
 20
196.7
 30
0.0
 11
145.4545454545455
 21
196.7
 31
0.0
  0
LINE
  5
126
330
1003A
100
AcDbEntity
  8
0
100
AcDbLine
 10
145.4545454545455
 20
196.7
 30
0.0
 11
145.4545454545455
 21
200.0
 31
0.0
  0
LINE
  5
127
330
1003A
100
AcDbEntity
  8
0
100
AcDbLine
 10
181.8181818181818
 20
0.0
 30
0.0
 11
181.8181818181818
 21
3.3
 31
0.0
  0
LINE
  5
128
330
1003A
100
AcDbEntity
  8
0
100
AcDbLine
 10
181.8181818181818
 20
3.3
 30
0.0
 11
218.1818181818182
 21
3.3
 31
0.0
  0
LINE
  5
129
330
1003A
100
AcDbEntity
  8
0
100
AcDbLine
 10
218.1818181818182
 20
3.3
 30
0.0
 11
218.1818181818182
 21
0.0
 31
0.0
  0
LINE
  5
130
330
1003A
100
AcDbEntity
  8
0
100
AcDbLine
 10
181.8181818181818
 20
200.0
 30
0.0
 11
181.8181818181818
 21
196.7
 31
0.0
  0
LINE
  5
131
330
1003A
100
AcDbEntity
  8
0
100
AcDbLine
 10
181.8181818181818
 20
196.7
 30
0.0
 11
218.1818181818182
 21
196.7
 31
0.0
  0
LINE
  5
132
330
1003A
100
AcDbEntity
  8
0
100
AcDbLine
 10
218.1818181818182
 20
196.7
 30
0.0
 11
218.1818181818182
 21
200.0
 31
0.0
  0
LINE
  5
133
330
1003A
100
AcDbEntity
  8
0
100
AcDbLine
 10
254.5454545454546
 20
0.0
 30
0.0
 11
254.5454545454546
 21
3.3
 31
0.0
  0
LINE
  5
134
330
1003A
100
AcDbEntity
  8
0
100
AcDbLine
 10
254.5454545454546
 20
3.3
 30
0.0
 11
290.9090909090909
 21
3.3
 31
0.0
  0
LINE
  5
135
330
1003A
100
AcDbEntity
  8
0
100
AcDbLine
 10
290.9090909090909
 20
3.3
 30
0.0
 11
290.9090909090909
 21
0.0
 31
0.0
  0
LINE
  5
136
330
1003A
100
AcDbEntity
  8
0
100
AcDbLine
 10
254.5454545454546
 20
200.0
 30
0.0
 11
254.5454545454546
 21
196.7
 31
0.0
  0
LINE
  5
137
330
1003A
100
AcDbEntity
  8
0
100
AcDbLine
 10
254.5454545454546
 20
196.7
 30
0.0
 11
290.9090909090909
 21
196.7
 31
0.0
  0
LINE
  5
138
330
1003A
100
AcDbEntity
  8
0
100
AcDbLine
 10
290.9090909090909
 20
196.7
 30
0.0
 11
290.9090909090909
 21
200.0
 31
0.0
  0
LINE
  5
139
330
1003A
100
AcDbEntity
  8
0
100
AcDbLine
 10
327.2727272727273
 20
0.0
 30
0.0
 11
327.2727272727273
 21
3.3
 31
0.0
  0
LINE
  5
140
330
1003A
100
AcDbEntity
  8
0
100
AcDbLine
 10
327.2727272727273
 20
3.3
 30
0.0
 11
363.6363636363637
 21
3.3
 31
0.0
  0
LINE
  5
141
330
1003A
100
AcDbEntity
  8
0
100
AcDbLine
 10
363.6363636363637
 20
3.3
 30
0.0
 11
363.6363636363637
 21
0.0
 31
0.0
  0
LINE
  5
142
330
1003A
100
AcDbEntity
  8
0
100
AcDbLine
 10
327.2727272727273
 20
200.0
 30
0.0
 11
327.2727272727273
 21
196.7
 31
0.0
  0
LINE
  5
143
330
1003A
100
AcDbEntity
  8
0
100
AcDbLine
 10
327.2727272727273
 20
196.7
 30
0.0
 11
363.6363636363637
 21
196.7
 31
0.0
  0
LINE
  5
144
330
1003A
100
AcDbEntity
  8
0
100
AcDbLine
 10
363.6363636363637
 20
196.7
 30
0.0
 11
363.6363636363637
 21
200.0
 31
0.0
  0
LINE
  5
145
330
1003A
100
AcDbEntity
  8
0
100
AcDbLine
 10
400.0
 20
0.0
 30
0.0
 11
400.0
 21
28.57142857142858
 31
0.0
  0
LINE
  5
146
330
1003A
100
AcDbEntity
  8
0
100
AcDbLine
 10
0.0
 20
57.14285714285715
 30
0.0
 11
0.0000000000000017
 21
85.71428571428572
 31
0.0
  0
LINE
  5
147
330
1003A
100
AcDbEntity
  8
0
100
AcDbLine
 10
400.0
 20
57.14285714285715
 30
0.0
 11
400.0
 21
85.71428571428572
 31
0.0
  0
LINE
  5
148
330
1003A
100
AcDbEntity
  8
0
100
AcDbLine
 10
0.0
 20
114.2857142857143
 30
0.0
 11
0.0000000000000017
 21
142.8571428571429
 31
0.0
  0
LINE
  5
149
330
1003A
100
AcDbEntity
  8
0
100
AcDbLine
 10
400.0
 20
114.2857142857143
 30
0.0
 11
400.0
 21
142.8571428571429
 31
0.0
  0
LINE
  5
150
330
1003A
100
AcDbEntity
  8
0
100
AcDbLine
 10
0.0
 20
171.4285714285714
 30
0.0
 11
0.0000000000000017
 21
200.0
 31
0.0
  0
LINE
  5
151
330
1003A
100
AcDbEntity
  8
0
100
AcDbLine
 10
400.0
 20
171.4285714285714
 30
0.0
 11
400.0
 21
200.0
 31
0.0
  0
LINE
  5
152
330
1003A
100
AcDbEntity
  8
0
100
AcDbLine
 10
400.0
 20
28.57142857142858
 30
0.0
 11
396.7
 21
28.57142857142858
 31
0.0
  0
LINE
  5
153
330
1003A
100
AcDbEntity
  8
0
100
AcDbLine
 10
400.0
 20
57.14285714285715
 30
0.0
 11
396.7
 21
57.14285714285715
 31
0.0
  0
LINE
  5
154
330
1003A
100
AcDbEntity
  8
0
100
AcDbLine
 10
396.7
 20
28.57142857142858
 30
0.0
 11
396.7
 21
57.14285714285715
 31
0.0
  0
LINE
  5
155
330
1003A
100
AcDbEntity
  8
0
100
AcDbLine
 10
0.0
 20
57.14285714285715
 30
0.0
 11
3.3
 21
57.14285714285715
 31
0.0
  0
LINE
  5
156
330
1003A
100
AcDbEntity
  8
0
100
AcDbLine
 10
400.0
 20
85.71428571428572
 30
0.0
 11
396.7
 21
85.71428571428572
 31
0.0
  0
LINE
  5
157
330
1003A
100
AcDbEntity
  8
0
100
AcDbLine
 10
396.7
 20
85.71428571428572
 30
0.0
 11
396.7
 21
114.2857142857143
 31
0.0
  0
LINE
  5
158
330
1003A
100
AcDbEntity
  8
0
100
AcDbLine
 10
400.0
 20
114.2857142857143
 30
0.0
 11
396.7
 21
114.2857142857143
 31
0.0
  0
LINE
  5
159
330
1003A
100
AcDbEntity
  8
0
100
AcDbLine
 10
0.0000000000000017
 20
85.71428571428572
 30
0.0
 11
3.300000000000003
 21
85.71428571428571
 31
0.0
  0
LINE
  5
160
330
1003A
100
AcDbEntity
  8
0
100
AcDbLine
 10
3.300000000000003
 20
85.71428571428571
 30
0.0
 11
3.300000000000009
 21
114.2857142857143
 31
0.0
  0
LINE
  5
161
330
1003A
100
AcDbEntity
  8
0
100
AcDbLine
 10
0.0
 20
114.2857142857143
 30
0.0
 11
3.3
 21
114.2857142857143
 31
0.0
  0
LINE
  5
162
330
1003A
100
AcDbEntity
  8
0
100
AcDbLine
 10
400.0
 20
142.8571428571429
 30
0.0
 11
396.7
 21
142.8571428571429
 31
0.0
  0
LINE
  5
163
330
1003A
100
AcDbEntity
  8
0
100
AcDbLine
 10
396.7
 20
142.8571428571429
 30
0.0
 11
396.7
 21
171.4285714285714
 31
0.0
  0
LINE
  5
164
330
1003A
100
AcDbEntity
  8
0
100
AcDbLine
 10
400.0
 20
171.4285714285714
 30
0.0
 11
396.7
 21
171.4285714285714
 31
0.0
  0
LINE
  5
165
330
1003A
100
AcDbEntity
  8
0
100
AcDbLine
 10
0.0000000000000017
 20
142.8571428571429
 30
0.0
 11
3.300000000000003
 21
142.8571428571428
 31
0.0
  0
LINE
  5
166
330
1003A
100
AcDbEntity
  8
0
100
AcDbLine
 10
3.300000000000003
 20
142.8571428571428
 30
0.0
 11
3.300000000000009
 21
171.4285714285714
 31
0.0
  0
LINE
  5
167
330
1003A
100
AcDbEntity
  8
0
100
AcDbLine
 10
0.0
 20
171.4285714285714
 30
0.0
 11
3.3
 21
171.4285714285714
 31
0.0
  0
LINE
  5
168
330
1003A
100
AcDbEntity
  8
0
100
AcDbLine
 10
0.4208275956856247
 20
-114.6888595681101
 30
0.0
 11
36.36366737108563
 21
-114.6888595681101
 31
0.0
  0
LINE
  5
169
330
1003A
100
AcDbEntity
  8
0
100
AcDbLine
 10
36.36366737108563
 20
-114.6888595681101
 30
0.0
 11
36.36366737108561
 21
-111.3888595681101
 31
0.0
  0
LINE
  5
170
330
1003A
100
AcDbEntity
  8
0
100
AcDbLine
 10
36.36366737108561
 20
-111.3888595681101
 30
0.0
 11
72.72730373472197
 21
-111.3888595681101
 31
0.0
  0
LINE
  5
171
330
1003A
100
AcDbEntity
  8
0
100
AcDbLine
 10
72.72730373472197
 20
-111.3888595681101
 30
0.0
 11
72.72730373472197
 21
-114.6888595681101
 31
0.0
  0
LINE
  5
172
330
1003A
100
AcDbEntity
  8
0
100
AcDbLine
 10
72.72727272727273
 20
-115.0
 30
0.0
 11
109.0909090909091
 21
-115.0
 31
0.0
  0
LINE
  5
173
330
1003A
100
AcDbEntity
  8
0
100
AcDbLine
 10
108.9089090909091
 20
-111.0
 30
0.0
 11
145.6365454545455
 21
-111.0
 31
0.0
  0
LINE
  5
174
330
1003A
100
AcDbEntity
  8
0
100
AcDbLine
 10
108.9089090909091
 20
-115.0
 30
0.0
 11
108.9089090909091
 21
-111.0
 31
0.0
  0
LINE
  5
175
330
1003A
100
AcDbEntity
  8
0
100
AcDbLine
 10
145.6365454545455
 20
-111.0
 30
0.0
 11
145.6365454545455
 21
-115.0
 31
0.0
  0
LINE
  5
176
330
1003A
100
AcDbEntity
  8
0
100
AcDbLine
 10
145.4545454545455
 20
-115.0
 30
0.0
 11
181.8181818181818
 21
-115.0
 31
0.0
  0
LINE
  5
177
330
1003A
100
AcDbEntity
  8
0
100
AcDbLine
 10
181.4541818182182
 20
-115.0
 30
0.0
 11
181.4541818182182
 21
-111.0
 31
0.0
  0
LINE
  5
178
330
1003A
100
AcDbEntity
  8
0
100
AcDbLine
 10
181.4541818182182
 20
-111.0
 30
0.0
 11
218.1818181818182
 21
-111.0
 31
0.0
  0
LINE
  5
179
330
1003A
100
AcDbEntity
  8
0
100
AcDbLine
 10
218.1818181818182
 20
-115.0
 30
0.0
 11
254.5454545454546
 21
-115.0
 31
0.0
  0
LINE
  5
180
330
1003A
100
AcDbEntity
  8
0
100
AcDbLine
 10
218.1818181818182
 20
-111.0
 30
0.0
 11
218.1818181818182
 21
-115.0
 31
0.0
  0
LINE
  5
181
330
1003A
100
AcDbEntity
  8
0
100
AcDbLine
 10
254.1814545454706
 20
-110.9999999997659
 30
0.0
 11
290.9156957223706
 21
-110.9999999997279
 31
0.0
  0
LINE
  5
182
330
1003A
100
AcDbEntity
  8
0
100
AcDbLine
 10
254.1814545454706
 20
-115.0
 30
0.0
 11
254.1814545454706
 21
-110.9999999997659
 31
0.0
  0
LINE
  5
183
330
1003A
100
AcDbEntity
  8
0
100
AcDbLine
 10
290.9156957223706
 20
-110.9999999997279
 30
0.0
 11
290.9164362627213
 21
-114.9999999995033
 31
0.0
  0
LINE
  5
184
330
1003A
100
AcDbEntity
  8
0
100
AcDbLine
 10
290.9164362627213
 20
-114.9999999995033
 30
0.0
 11
327.2727272727273
 21
-115.0
 31
0.0
  0
LINE
  5
185
330
1003A
100
AcDbEntity
  8
0
100
AcDbLine
 10
327.2727272727273
 20
-111.0
 30
0.0
 11
364.0003636363273
 21
-111.0
 31
0.0
  0
LINE
  5
186
330
1003A
100
AcDbEntity
  8
0
100
AcDbLine
 10
327.2727272727273
 20
-115.0
 30
0.0
 11
327.2727272727273
 21
-111.0
 31
0.0
  0
LINE
  5
187
330
1003A
100
AcDbEntity
  8
0
100
AcDbLine
 10
364.0003636363273
 20
-111.0
 30
0.0
 11
364.0003636363273
 21
-115.0
 31
0.0
  0
LINE
  5
188
330
1003A
100
AcDbEntity
  8
0
100
AcDbLine
 10
364.0003636363273
 20
-115.0
 30
0.0
 11
399.5416355135411
 21
-114.9999614504622
 31
0.0
  0
LINE
  5
189
330
1003A
100
AcDbEntity
  8
0
100
AcDbLine
 10
0.2145066197500251
 20
-135.024659507724
 30
0.0
 11
400.0086374805352
 21
-134.9506435862434
 31
0.0
  0
LINE
  5
190
330
1003A
100
AcDbEntity
  8
0
100
AcDbLine
 10
-49.6525014071307
 20
0.0038885876781748
 30
0.0
 11
-49.64499681810164
 21
28.58137348129393
 31
0.0
  0
LINE
  5
191
330
1003A
100
AcDbEntity
  8
0
100
AcDbLine
 10
-49.64499681810164
 20
28.58137348129393
 30
0.0
 11
-46.34499693188788
 21
28.58050688498448
 31
0.0
  0
LINE
  5
192
330
1003A
100
AcDbEntity
  8
0
100
AcDbLine
 10
-46.34499693188788
 20
28.58050688498448
 30
0.0
 11
-46.33749393353774
 21
57.1519344712508
 31
0.0
  0
LINE
  5
193
330
1003A
100
AcDbEntity
  8
0
100
AcDbLine
 10
-49.62816171450642
 20
57.15200157562539
 30
0.0
 11
-46.32816182829266
 21
57.15113497931594
 31
0.0
  0
LINE
  5
194
330
1003A
100
AcDbEntity
  8
0
100
AcDbLine
 10
-49.62816171450642
 20
57.15200157562539
 30
0.0
 11
-49.55572694273472
 21
85.71401820022415
 31
0.0
  0
LINE
  5
195
330
1003A
100
AcDbEntity
  8
0
100
AcDbLine
 10
-50.0
 20
85.71428571428572
 30
0.0
 11
-46.0
 21
85.71428571428571
 31
0.0
  0
LINE
  5
196
330
1003A
100
AcDbEntity
  8
0
100
AcDbLine
 10
-46.0
 20
85.71428571428571
 30
0.0
 11
-46.0
 21
114.2857142857143
 31
0.0
  0
LINE
  5
197
330
1003A
100
AcDbEntity
  8
0
100
AcDbLine
 10
-50.0
 20
114.2857142857143
 30
0.0
 11
-46.0
 21
114.2857142857143
 31
0.0
  0
LINE
  5
198
330
1003A
100
AcDbEntity
  8
0
100
AcDbLine
 10
-50.0
 20
114.2857142857143
 30
0.0
 11
-50.0
 21
142.8571428571429
 31
0.0
  0
LINE
  5
199
330
1003A
100
AcDbEntity
  8
0
100
AcDbLine
 10
-50.0
 20
142.8571428571429
 30
0.0
 11
-46.0
 21
142.8571428571429
 31
0.0
  0
LINE
  5
200
330
1003A
100
AcDbEntity
  8
0
100
AcDbLine
 10
-46.0
 20
142.8571428571429
 30
0.0
 11
-46.0
 21
171.4285714285714
 31
0.0
  0
LINE
  5
201
330
1003A
100
AcDbEntity
  8
0
100
AcDbLine
 10
-50.0
 20
171.4285714285714
 30
0.0
 11
-46.0
 21
171.4285714285714
 31
0.0
  0
LINE
  5
202
330
1003A
100
AcDbEntity
  8
0
100
AcDbLine
 10
-50.00330118035177
 20
171.4285714291649
 30
0.0
 11
-50.00392804697867
 21
199.9954855019647
 31
0.0
  0
LINE
  5
203
330
1003A
100
AcDbEntity
  8
0
100
AcDbLine
 10
-70.0039280392424
 20
199.9949292189382
 30
0.0
 11
-69.99946617010929
 21
-0.0050707312911422
 31
0.0
  0
LINE
  5
204
330
1003A
100
AcDbEntity
  8
0
100
AcDbLine
 10
-64.9954867943797
 20
-0.0076183550574495
 30
0.0
 11
-65.03073394245179
 21
-3.307430113105595
 31
0.0
  0
LINE
  5
205
330
1003A
100
AcDbEntity
  8
0
100
AcDbLine
 10
-65.03073394245179
 20
-3.307430113105595
 30
0.0
 11
-55.03130437260892
 21
-3.414239652717908
 31
0.0
  0
LINE
  5
206
330
1003A
100
AcDbEntity
  8
0
100
AcDbLine
 10
-55.03130437260892
 20
-3.414239652717908
 30
0.0
 11
-54.99477843428998
 21
0.0052914960767774
 31
0.0
  0
LINE
  5
207
330
1003A
100
AcDbEntity
  8
0
100
AcDbLine
 10
-54.99477843428998
 20
0.0052914960767774
 30
0.0
 11
-49.6525014071307
 21
0.0038885876781748
 31
0.0
  0
LINE
  5
208
330
1003A
100
AcDbEntity
  8
0
100
AcDbLine
 10
-69.99946617010929
 20
-0.0050707312911422
 30
0.0
 11
-64.9954867943797
 21
-0.0076183550574495
 31
0.0
  0
LINE
  5
209
330
1003A
100
AcDbEntity
  8
0
100
AcDbLine
 10
-55.0889328760988
 20
199.9950919976418
 30
0.0
 11
-55.09194377054182
 21
203.3071294011023
 31
0.0
  0
LINE
  5
210
330
1003A
100
AcDbEntity
  8
0
100
AcDbLine
 10
-55.09194377054182
 20
203.3071294011023
 30
0.0
 11
-65.09193963844655
 21
203.2980386426592
 31
0.0
  0
LINE
  5
211
330
1003A
100
AcDbEntity
  8
0
100
AcDbLine
 10
-65.09193963844655
 20
203.2980386426592
 30
0.0
 11
-65.09050928804419
 21
199.9980389526444
 31
0.0
  0
LINE
  5
212
330
1003A
100
AcDbEntity
  8
0
100
AcDbLine
 10
-70.0039280392424
 20
199.9949292189382
 30
0.0
 11
-65.09050928804419
 21
199.9980389526444
 31
0.0
  0
LINE
  5
213
330
1003A
100
AcDbEntity
  8
0
100
AcDbLine
 10
-55.0889328760988
 20
199.9950919976418
 30
0.0
 11
-50.00392804697867
 21
199.9954855019647
 31
0.0
  0
LINE
  5
214
330
1003A
100
AcDbEntity
  8
0
100
AcDbLine
 10
0.2502533664989133
 20
-119.9944711283904
 30
0.0
 11
3.550231198878904
 21
-120.0065668218666
 31
0.0
  0
LINE
  5
215
330
1003A
100
AcDbEntity
  8
0
100
AcDbLine
 10
3.550231198878904
 20
-120.0065668218666
 30
0.0
 11
3.513577582284141
 21
-130.0064996472605
 31
0.0
  0
LINE
  5
216
330
1003A
100
AcDbEntity
  8
0
100
AcDbLine
 10
3.513577582284141
 20
-130.0064996472605
 30
0.0
 11
0.2135775822841407
 21
-130.0064996472605
 31
0.0
  0
LINE
  5
217
330
1003A
100
AcDbEntity
  8
0
100
AcDbLine
 10
3.513577582284141
 20
-129.0000019222498
 30
0.0
 11
3.513577582284141
 21
-130.0064996472605
 31
0.0
  0
LINE
  5
218
330
1003A
100
AcDbEntity
  8
0
100
AcDbLine
 10
0.2135775822841407
 20
-130.0064996472605
 30
0.0
 11
0.2145066197500251
 21
-135.024659507724
 31
0.0
  0
LINE
  5
219
330
1003A
100
AcDbEntity
  8
0
100
AcDbLine
 10
0.4208275956856247
 20
-114.6888595681101
 30
0.0
 11
0.2502533664989133
 21
-119.9944711283904
 31
0.0
  0
LINE
  5
220
330
1003A
100
AcDbEntity
  8
0
100
AcDbLine
 10
399.5421921100512
 20
-119.9731545624845
 30
0.0
 11
396.242192130719
 21
-119.973523896317
 31
0.0
  0
LINE
  5
221
330
1003A
100
AcDbEntity
  8
0
100
AcDbLine
 10
396.242192130719
 20
-119.973523896317
 30
0.0
 11
396.2433113241508
 21
-129.9735238336873
 31
0.0
  0
LINE
  5
222
330
1003A
100
AcDbEntity
  8
0
100
AcDbLine
 10
396.2433113241508
 20
-129.9735238336873
 30
0.0
 11
400.0077159949699
 21
-129.9732750242614
 31
0.0
  0
LINE
  5
223
330
1003A
100
AcDbEntity
  8
0
100
AcDbLine
 10
399.5416355135411
 20
-114.9999614504622
 30
0.0
 11
399.5421921100512
 21
-119.9731545624845
 31
0.0
  0
LINE
  5
224
330
1003A
100
AcDbEntity
  8
0
100
AcDbLine
 10
400.0077159949699
 20
-129.9732750242614
 30
0.0
 11
400.0086374805352
 21
-134.9506435862434
 31
0.0
  0
LINE
  5
225
330
1003A
100
AcDbEntity
  8
0
100
AcDbLine
 10
0.1333224143923045
 20
-165.0174964419372
 30
0.0
 11
400.0070196551474
 21
-164.9648661256677
 31
0.0
  0
LINE
  5
226
330
1003A
100
AcDbEntity
  8
0
100
AcDbLine
 10
363.6363636363637
 20
-189.0
 30
0.0000000000000029
 11
363.6363636363637
 21
-185.0
 31
0.0000000000000024
  0
LWPOLYLINE
  5
227
330
1003A
100
AcDbEntity
  8
0
100
AcDbPolyline
 90
        4
 70
     1
 43
0.0
 10
0.1339778691694013
 20
-169.9974992933251
 10
0.1347605030476602
 20
-170.9999100915795
 10
3.430689298052528
 20
-170.9999033293513
 10
3.433959831074893
 20
-170.0084103472788
  0
LINE
  5
228
330
1003A
100
AcDbEntity
  8
0
100
AcDbLine
 10
0.1184619705306043
 20
-185.306527269133
 30
0.0000000000000024
 11
0.1151751466350185
 21
-180.0021918246939
 31
0.0000000000000018
  0
LINE
  5
229
330
1003A
100
AcDbEntity
  8
0
100
AcDbLine
 10
109.0909090909091
 20
-185.0
 30
0.0000000000000024
 11
109.0909090909091
 21
-189.0
 31
0.0000000000000029
  0
LINE
  5
230
330
1003A
100
AcDbEntity
  8
0
100
AcDbLine
 10
36.46335001562869
 20
-188.583574032839
 30
0.0000000000000029
 11
72.82697912717366
 21
-188.5606083023525
 31
0.0000000000000029
  0
LINE
  5
231
330
1003A
100
AcDbEntity
  8
0
100
AcDbLine
 10
181.8181818181818
 20
-185.0
 30
0.0000000000000024
 11
181.8181818181818
 21
-189.0
 31
0.0000000000000029
  0
LINE
  5
232
330
1003A
100
AcDbEntity
  8
0
100
AcDbLine
 10
0.1151751466350185
 20
-180.0021918246939
 30
0.0000000000000018
 11
3.415169320755789
 21
-180.0083926930992
 31
0.0000000000000018
  0
LINE
  5
233
330
1003A
100
AcDbEntity
  8
0
100
AcDbLine
 10
363.6363636363637
 20
-184.9999544669935
 30
0.0000000000000024
 11
399.5570193485455
 21
-184.9999495636449
 31
0.0000000000000024
  0
LINE
  5
234
330
1003A
100
AcDbEntity
  8
0
100
AcDbLine
 10
327.2727272727273
 20
-185.0
 30
0.0000000000000024
 11
327.2727272727273
 21
-189.0
 31
0.0000000000000029
  0
LINE
  5
235
330
1003A
100
AcDbEntity
  8
0
100
AcDbLine
 10
399.5570193485455
 20
-184.9999495636449
 30
0.0000000000000024
 11
399.5560570055777
 21
-179.9542376593002
 31
0.0000000000000018
  0
LINE
  5
236
330
1003A
100
AcDbEntity
  8
0
100
AcDbLine
 10
399.5560570055777
 20
-179.9542376593002
 30
0.0000000000000018
 11
396.2560570655981
 21
-179.9548670515041
 31
0.0000000000000018
  0
LINE
  5
237
330
1003A
100
AcDbEntity
  8
0
100
AcDbLine
 10
327.2727272727273
 20
-189.0
 30
0.0000000000000029
 11
363.6363636363637
 21
-189.0
 31
0.0000000000000029
  0
LINE
  5
238
330
1003A
100
AcDbEntity
  8
0
100
AcDbLine
 10
0.1184619705306043
 20
-185.306527269133
 30
0.0000000000000024
 11
36.46126587558703
 21
-185.2835746909662
 31
0.0000000000000024
  0
LINE
  5
239
330
1003A
100
AcDbEntity
  8
0
100
AcDbLine
 10
290.9175591318345
 20
-188.9999999989221
 30
0.0000000000000029
 11
290.9170326624353
 21
-184.9999999982188
 31
0.0000000000000024
  0
LINE
  5
240
330
1003A
100
AcDbEntity
  8
0
100
AcDbLine
 10
72.82697912717366
 20
-188.5606083023525
 30
0.0000000000000029
 11
72.82489498713201
 21
-185.2606089604798
 31
0.0000000000000024
  0
LINE
  5
241
330
1003A
100
AcDbEntity
  8
0
100
AcDbLine
 10
254.5454545454546
 20
-185.0
 30
0.0000000000000024
 11
254.5454545454546
 21
-188.9999999990712
 31
0.0000000000000029
  0
LINE
  5
242
330
1003A
100
AcDbEntity
  8
0
100
AcDbLine
 10
396.2541498164952
 20
-169.9548672333841
 30
0.0000000000000006
 11
400.007676370207
 21
-169.9544443304534
 31
0.0000000000000006
  0
LINE
  5
243
330
1003A
100
AcDbEntity
  8
0
100
AcDbLine
 10
290.9090909090909
 20
-185.0
 30
0.0000000000000024
 11
327.2727272727273
 21
-185.0
 31
0.0000000000000024
  0
LINE
  5
244
330
1003A
100
AcDbEntity
  8
0
100
AcDbLine
 10
109.0909090909091
 20
-189.0
 30
0.0000000000000029
 11
145.4545454545455
 21
-189.0
 31
0.0000000000000029
  0
LINE
  5
245
330
1003A
100
AcDbEntity
  8
0
100
AcDbLine
 10
218.1818181818182
 20
-185.0
 30
0.0000000000000024
 11
254.5454545454546
 21
-185.0
 31
0.0000000000000024
  0
LINE
  5
246
330
1003A
100
AcDbEntity
  8
0
100
AcDbLine
 10
400.007676370207
 20
-169.9544443304534
 30
0.0000000000000006
 11
400.0070196551474
 21
-164.9648661256677
 31
0.0
  0
LINE
  5
247
330
1003A
100
AcDbEntity
  8
0
100
AcDbLine
 10
36.46126587558703
 20
-185.2835746909662
 30
0.0000000000000024
 11
36.46335001562869
 21
-188.583574032839
 31
0.0000000000000029
  0
LINE
  5
248
330
1003A
100
AcDbEntity
  8
0
100
AcDbLine
 10
396.2560570655981
 20
-179.9548670515041
 30
0.0000000000000018
 11
396.2541498164952
 21
-169.9548672333841
 31
0.0000000000000006
  0
LINE
  5
249
330
1003A
100
AcDbEntity
  8
0
100
AcDbLine
 10
3.415169320755789
 20
-180.0083926930992
 30
0.0000000000000018
 11
3.433959831074893
 21
-170.0084103472788
 31
0.0000000000000006
  0
LINE
  5
250
330
1003A
100
AcDbEntity
  8
0
100
AcDbLine
 10
72.72727272727273
 20
-185.0
 30
0.0000000000000024
 11
109.0909090909091
 21
-185.0
 31
0.0000000000000024
  0
LINE
  5
251
330
1003A
100
AcDbEntity
  8
0
100
AcDbLine
 10
145.4545454545455
 20
-185.0
 30
0.0000000000000024
 11
181.8181818181818
 21
-185.0
 31
0.0000000000000024
  0
LINE
  5
252
330
1003A
100
AcDbEntity
  8
0
100
AcDbLine
 10
218.1818181818182
 20
-189.0
 30
0.0000000000000029
 11
218.1818181818182
 21
-185.0
 31
0.0000000000000024
  0
LINE
  5
253
330
1003A
100
AcDbEntity
  8
0
100
AcDbLine
 10
254.5454545454546
 20
-188.9999999990712
 30
0.0000000000000029
 11
290.9175591318345
 21
-188.9999999989221
 31
0.0000000000000029
  0
LINE
  5
254
330
1003A
100
AcDbEntity
  8
0
100
AcDbLine
 10
181.8181818181818
 20
-189.0
 30
0.0000000000000029
 11
218.1818181818182
 21
-189.0
 31
0.0000000000000029
  0
LINE
  5
255
330
1003A
100
AcDbEntity
  8
0
100
AcDbLine
 10
145.4545454545455
 20
-189.0
 30
0.0000000000000029
 11
145.4545454545455
 21
-185.0
 31
0.0000000000000024
  0
LINE
  5
256
330
1003A
100
AcDbEntity
  8
0
100
AcDbLine
 10
0.1339778691694013
 20
-169.9974992933251
 30
0.0000000000000006
 11
0.1333224143923045
 21
-165.0174964419372
 31
0.0
  0
LWPOLYLINE
  5
257
330
1003A
100
AcDbEntity
  8
0
100
AcDbPolyline
 90
       24
 70
     1
 43
0.0
 10
-140.4122052539242
 20
57.52073108267283
 10
-140.4379619047997
 20
85.71411685298906
 10
-144.0
 20
85.71428571428571
 10
-144.0
 20
114.6497142857143
 10
-140.0
 20
114.649819334674
 10
-140.0
 20
143.2571428571429
 10
-144.0
 20
143.2571428571429
 10
-144.0
 20
172.1925714285714
 10
-139.9978692532722
 20
172.228978685208
 10
-140.0438824641182
 20
196.8987269470265
 10
-135.0499759588765
 20
196.8894867911106
 10
-135.0438700264672
 20
200.1894754864628
 10
-125.0438871652041
 20
200.1709613177216
 10
-125.0499968408887
 20
196.8709669735048
 10
-120.0561150754833
 20
196.8617211937841
 10
-120.4135394801267
 20
3.826041555390408
 10
-125.4196062999701
 20
3.835309124392563
 10
-125.4257159756546
 20
0.535314780175738
 10
-135.4256988369177
 20
0.5538289489169235
 10
-135.4195891612331
 20
3.853823293133749
 10
-140.4134709252378
 20
3.86306982941087
 10
-140.415952047546
 20
28.58530275382686
 10
-143.7159520198802
 20
28.58573006455155
 10
-143.7122052262584
 20
57.52115839339753
  0
LINE
  5
258
330
1003A
100
AcDbEntity
  8
0
100
AcDbLine
 10
-140.0481561186592
 20
199.7627391378873
 30
0.0
 11
-140.0499504609915
 21
200.1520525151487
 31
0.0000000000000024
  0
LINE
  5
259
330
1003A
100
AcDbEntity
  8
0
100
AcDbLine
 10
-140.4134709252378
 20
3.863069829410869
 30
0.0
 11
-135.4195891612331
 21
3.853823293133749
 31
0.0
  0
LINE
  5
260
330
1003A
100
AcDbEntity
  8
0
100
AcDbLine
 10
-125.4196062999701
 20
3.835309124392563
 30
0.0
 11
-120.4135394801267
 21
3.826041555390408
 31
0.0
  0
VIEWPORT
  5
100E5
330
10036
100
AcDbEntity
 67
     1
  8
0
100
AcDbViewport
 10
5.25
 20
4.0
 30
0.0
 40
11.638
 41
8.993
 68
     1
 69
     1
1001
ACAD
1000
MVIEW
1002
{
1070
    16
1010
0.0
1020
0.0
1030
0.0
1010
0.0
1020
0.0
1030
1.0
1040
0.0
1040
8.993
1040
5.25
1040
4.0
1040
50.0
1040
0.0
1040
0.0
1070
     0
1070
   100
1070
     0
1070
     3
1070
     0
1070
     0
1070
     0
1070
     0
1040
0.0
1040
0.0
1040
0.0
1040
0.5
1040
0.5
1040
0.5
1040
0.5
1070
     0
1002
{
1002
}
1002
}
  0
ENDSEC
  0
SECTION
  2
OBJECTS
  0
DICTIONARY
  5
10028
330
0
100
AcDbDictionary
  3
ACAD_GROUP
350
10029
  3
ACAD_LAYOUT
350
10035
  3
ACAD_MATERIAL
350
1005E
  3
ACAD_MLEADERSTYLE
350
10076
  3
ACAD_MLINESTYLE
350
10032
  3
ACAD_PLOTSETTINGS
350
10034
  3
ACAD_SCALELIST
350
10062
  3
ACAD_VISUALSTYLE
350
10045
  3
ACDBHEADERROUNDTRIPXREC
350
100E7
  3
ACDBVARIABLEDICTIONARY
350
10108
  3
DWGPROPS
350
1010F
  3
QCAD_OBJECTS
350
1007A
  0
DICTIONARY
  5
10110
330
10024
100
AcDbDictionary
280
     1
  3
ACAD_XREC_ROUNDTRIP
360
10111
  0
DICTIONARY
  5
10029
102
{ACAD_REACTORS
330
10028
102
}
330
10028
100
AcDbDictionary
  0
DICTIONARY
  5
10035
102
{ACAD_REACTORS
330
10028
102
}
330
10028
100
AcDbDictionary
  0
DICTIONARY
  5
1005E
102
{ACAD_REACTORS
330
10028
102
}
330
10028
100
AcDbDictionary
  3
BYBLOCK
350
10060
  3
BYLAYER
350
1005F
  3
GLOBAL
350
10061
  0
DICTIONARY
  5
10076
102
{ACAD_REACTORS
330
10028
102
}
330
10028
100
AcDbDictionary
  3
STANDARD
350
10077
  0
DICTIONARY
  5
10032
102
{ACAD_REACTORS
330
10028
102
}
330
10028
100
AcDbDictionary
  3
STANDARD
350
10033
  0
DICTIONARY
  5
10034
102
{ACAD_REACTORS
330
10028
102
}
330
10028
100
AcDbDictionary
  0
DICTIONARY
  5
10062
102
{ACAD_REACTORS
330
10028
102
}
330
10028
100
AcDbDictionary
  3
A0
350
10063
  3
A1
350
10064
  3
A2
350
10065
  3
A3
350
10066
  3
A4
350
10067
  3
A5
350
10068
  3
A6
350
10069
  3
A7
350
1006A
  3
A8
350
1006B
  3
A9
350
1006C
  3
B1
350
1006D
  3
B2
350
1006E
  3
B3
350
1006F
  3
B4
350
10070
  3
B5
350
10071
  3
B6
350
10072
  3
B7
350
10073
  0
DICTIONARY
  5
10045
102
{ACAD_REACTORS
330
10028
102
}
330
10028
100
AcDbDictionary
  3
2DWIREFRAME
350
1004A
  3
BASIC
350
1004D
  3
BRIGHTEN
350
10051
  3
COLORCHANGE
350
10055
  3
CONCEPTUAL
350
1004F
  3
DIM
350
10050
  3
EDGECOLOROFF
350
10058
  3
FACEPATTERN
350
10054
  3
FLAT
350
10046
  3
FLATWITHEDGES
350
10047
  3
GOURAUD
350
10048
  3
GOURAUDWITHEDGES
350
10049
  3
HIDDEN
350
1004C
  3
JITTEROFF
350
10056
  3
LINEPATTERN
350
10053
  3
OVERHANGOFF
350
10057
  3
REALISTIC
350
1004E
  3
SHADED
350
1005D
  3
SHADED_WITH_EDGES
350
1005C
  3
SHADES_OF_GRAY
350
10059
  3
SKETCHY
350
1005A
  3
THICKEN
350
10052
  3
WIREFRAME
350
1004B
  3
X-RAY
350
1005B
  0
DICTIONARY
  5
100E7
102
{ACAD_REACTORS
330
10028
102
}
330
10028
100
AcDbDictionary
  3
CEPSNID
350
100F1
  3
CEPSNTYPE
350
100F0
  3
DIMSTYLEDATA
350
10107
  3
FINGERPRINTGUID
350
100F2
  3
HYPERLINKBASE
350
100EA
  3
INSUNITS
350
100EF
  3
LAYOUTDICT
350
100EC
  3
LWETCUNION
350
100EE
  3
PLOTSETDICT
350
100ED
  3
PSVPSCALE
350
100F4
  3
PUCSBASE
350
100F7
  3
PUCSORGBACK
350
100FD
  3
PUCSORGBOTTOM
350
100F9
  3
PUCSORGFRONT
350
100FC
  3
PUCSORGLEFT
350
100FA
  3
PUCSORGRIGHT
350
100FB
  3
PUCSORGTOP
350
100F8
  3
PUCSORTHOREF
350
100F5
  3
PUCSORTHOVIEW
350
100F6
  3
STYLESHEET
350
100EB
  3
TSTACKALIGN
350
100E8
  3
TSTACKSIZE
350
100E9
  3
UCSBASE
350
10100
  3
UCSORGBACK
350
10106
  3
UCSORGBOTTOM
350
10102
  3
UCSORGFRONT
350
10105
  3
UCSORGLEFT
350
10103
  3
UCSORGRIGHT
350
10104
  3
UCSORGTOP
350
10101
  3
UCSORTHOREF
350
100FE
  3
UCSORTHOVIEW
350
100FF
  3
VERSIONGUID
350
100F3
  0
DICTIONARY
  5
10108
102
{ACAD_REACTORS
330
10028
102
}
330
10028
100
AcDbDictionary
  3
CANNOSCALE
350
10112
  3
CMLEADERSTYLE
350
1010A
  3
CTABLESTYLE
350
10109
  3
DIMASSOC
350
1010D
  3
HIDETEXT
350
1010E
  3
MSLTSCALE
350
10113
  0
XRECORD
  5
1010F
102
{ACAD_REACTORS
330
10028
102
}
330
10028
100
AcDbXrecord
  1
DWGPROPS COOKIE
  2

  3

  4

  6

  7

  8
vincf
  9

300
=
301
=
302
=
303
=
304
=
305
=
306
=
307
=
308
=
309
=
 40
0.0
 41
2460354.916576655
 42
2460354.916577084
  1

 90
        0
  0
DICTIONARY
  5
1007A
102
{ACAD_REACTORS
330
10028
102
}
330
10028
100
AcDbDictionary
  3
COLORSETTINGS/BACKGROUNDCOLOR
350
1007C
  3
COLORSETTINGS/COLORMODE
350
1007D
  3
GRID/DISPLAYGRID00
350
1007E
  3
GRID/DISPLAYGRID01
350
1007F
  3
GRID/DISPLAYGRID02
350
10080
  3
GRID/DISPLAYGRID03
350
10081
  3
GRID/GRIDSPACINGX00
350
10082
  3
GRID/GRIDSPACINGX01
350
10083
  3
GRID/GRIDSPACINGX02
350
10084
  3
GRID/GRIDSPACINGX03
350
10085
  3
GRID/GRIDSPACINGY00
350
10086
  3
GRID/GRIDSPACINGY01
350
10087
  3
GRID/GRIDSPACINGY02
350
10088
  3
GRID/GRIDSPACINGY03
350
10089
  3
GRID/ISOMETRICGRID00
350
1008A
  3
GRID/ISOMETRICGRID01
350
1008B
  3
GRID/ISOMETRICGRID02
350
1008C
  3
GRID/ISOMETRICGRID03
350
1008D
  3
GRID/ISOMETRICPROJECTION00
350
1008E
  3
GRID/ISOMETRICPROJECTION01
350
1008F
  3
GRID/ISOMETRICPROJECTION02
350
10090
  3
GRID/ISOMETRICPROJECTION03
350
10091
  3
GRID/METAGRIDSPACINGX00
350
10092
  3
GRID/METAGRIDSPACINGX01
350
10093
  3
GRID/METAGRIDSPACINGX02
350
10094
  3
GRID/METAGRIDSPACINGX03
350
10095
  3
GRID/METAGRIDSPACINGY00
350
10096
  3
GRID/METAGRIDSPACINGY01
350
10097
  3
GRID/METAGRIDSPACINGY02
350
10098
  3
GRID/METAGRIDSPACINGY03
350
10099
  3
MULTIPAGESETTINGS/COLUMNS
350
1009A
  3
MULTIPAGESETTINGS/GLUEMAR0
350
1009C
  3
MULTIPAGESETTINGS/GLUEMAR1
350
1009D
  3
MULTIPAGESETTINGS/GLUEMAR2
350
1009E
  3
MULTIPAGESETTINGS/GLUEMARG
350
1009B
  3
MULTIPAGESETTINGS/PRINTCRO
350
1009F
  3
MULTIPAGESETTINGS/ROWS
350
100A0
  3
PAGESETTINGS/OFFSETX
350
100A1
  3
PAGESETTINGS/OFFSETY
350
100A2
  3
PAGESETTINGS/PAGEORIENTATION
350
100A3
  3
PAGESETTINGS/PAPERHEIGHT
350
100A4
  3
PAGESETTINGS/PAPERWIDTH
350
100A5
  3
PAGESETTINGS/SCALE
350
100A6
  3
PAGESETTINGS/SHOWPAPERBORDERS
350
100A7
  3
PAGETAGSETTINGS/ENABLEPAGETAGS
350
100A8
  3
PAGETAGSETTINGS/TAGALIGNMENT
350
100A9
  3
PAGETAGSETTINGS/TAGFONT
350
100AA
  3
PAGETAGSETTINGS/TAGPOSITION
350
100AB
  3
QCADVERSION
350
100AC
  3
UNITSETTINGS/PAPERUNIT
350
100AD
  3
VIEWPORTCENTER
350
100AE
  3
VIEWPORTHEIGHT
350
100AF
  3
VIEWPORTWIDTH
350
100B0
  0
XRECORD
  5
10111
102
{ACAD_REACTORS
330
10110
102
}
330
10110
100
AcDbXrecord
102
VTR_0.000_0.000_1.000_1.000_VISUALSTYLE
340
1004A
102
VTR_0.000_0.000_1.000_1.000_GRIDDISPLAY
 70
     3
102
VTR_0.000_0.000_1.000_1.000_GRIDMAJOR
 70
     5
102
VTR_0.000_0.000_1.000_1.000_DEFAULTLIGHTING
280
     1
102
VTR_0.000_0.000_1.000_1.000_DEFAULTLIGHTINGTYPE
 70
     1
102
VTR_0.000_0.000_1.000_1.000_BRIGHTNESS
141
0.0
102
VTR_0.000_0.000_1.000_1.000_CONTRAST
142
0.0
  0
MATERIAL
  5
10060
102
{ACAD_REACTORS
330
1005E
102
}
102
{ACAD_XDICTIONARY
360
10116
102
}
330
1005E
100
AcDbMaterial
  1
BYBLOCK
  0
MATERIAL
  5
1005F
102
{ACAD_REACTORS
330
1005E
102
}
102
{ACAD_XDICTIONARY
360
10114
102
}
330
1005E
100
AcDbMaterial
  1
BYLAYER
  0
MATERIAL
  5
10061
102
{ACAD_REACTORS
330
1005E
102
}
102
{ACAD_XDICTIONARY
360
10118
102
}
330
1005E
100
AcDbMaterial
  1
GLOBAL
  0
ACAD_PROXY_OBJECT
  5
10077
102
{ACAD_REACTORS
330
10076
102
}
330
10076
100
AcDbProxyObject
 90
      499
 91
      505
 93
      610
310
40901902A4063FBFFFFFE056BD1B81E855B9FC0AD7A3703D0AD73F4214DD185B99185C9900AD7A3703D0AC73F90141901A02B5E8DC0F42B1CFC02B5E8DC0F42B1CFE5764000000000000300FC0
340
1002F
340
0
340
1002D
340
0
 94
        0
1001
ACAD_MLEADERVER
1070
     2
  0
MLINESTYLE
  5
10033
102
{ACAD_REACTORS
330
10032
102
}
330
10032
100
AcDbMlineStyle
  2
Standard
 70
     0
  3

 62
   256
 51
90.0
 52
90.0
 71
     2
 49
0.5
 62
   256
  6
BYLAYER
 49
-0.5
 62
   256
  6
BYLAYER
  0
ACAD_PROXY_OBJECT
  5
10063
102
{ACAD_REACTORS
330
10062
102
}
330
10062
100
AcDbProxyObject
 90
      499
 91
      503
 93
       41
310
903313A31580
  0
ACAD_PROXY_OBJECT
  5
10064
102
{ACAD_REACTORS
330
10062
102
}
330
10062
100
AcDbProxyObject
 90
      499
 91
      503
 93
      257
310
90E312F31323822203D2031272D3022000000000000200FC000000000000284000
  0
ACAD_PROXY_OBJECT
  5
10065
102
{ACAD_REACTORS
330
10062
102
}
330
10062
100
AcDbProxyObject
 90
      499
 91
      503
 93
      249
310
90D312F363422203D2031272D3022000000000000240FC000000000000284000
  0
ACAD_PROXY_OBJECT
  5
10066
102
{ACAD_REACTORS
330
10062
102
}
330
10062
100
AcDbProxyObject
 90
      499
 91
      503
 93
      249
310
90D312F333222203D2031272D3022000000000000280FC000000000000284000
  0
ACAD_PROXY_OBJECT
  5
10067
102
{ACAD_REACTORS
330
10062
102
}
330
10062
100
AcDbProxyObject
 90
      499
 91
      503
 93
      249
310
90D312F313622203D2031272D30220000000000002C0FC000000000000284000
  0
ACAD_PROXY_OBJECT
  5
10068
102
{ACAD_REACTORS
330
10062
102
}
330
10062
100
AcDbProxyObject
 90
      499
 91
      503
 93
      249
310
90D332F333222203D2031272D30220000000000002E0FC000000000000284000
  0
ACAD_PROXY_OBJECT
  5
10069
102
{ACAD_REACTORS
330
10062
102
}
330
10062
100
AcDbProxyObject
 90
      499
 91
      503
 93
      241
310
90C312F3822203D2031272D3022000000000000300FC000000000000284000
  0
ACAD_PROXY_OBJECT
  5
1006A
102
{ACAD_REACTORS
330
10062
102
}
330
10062
100
AcDbProxyObject
 90
      499
 91
      503
 93
      249
310
90D332F313622203D2031272D3022000000000000320FC000000000000284000
  0
ACAD_PROXY_OBJECT
  5
1006B
102
{ACAD_REACTORS
330
10062
102
}
330
10062
100
AcDbProxyObject
 90
      499
 91
      503
 93
      241
310
90C312F3422203D2031272D3022000000000000340FC000000000000284000
  0
ACAD_PROXY_OBJECT
  5
1006C
102
{ACAD_REACTORS
330
10062
102
}
330
10062
100
AcDbProxyObject
 90
      499
 91
      503
 93
      241
310
90C332F3822203D2031272D3022000000000000360FC000000000000284000
  0
ACAD_PROXY_OBJECT
  5
1006D
102
{ACAD_REACTORS
330
10062
102
}
330
10062
100
AcDbProxyObject
 90
      499
 91
      503
 93
      241
310
90C312F3222203D2031272D3022000000000000380FC000000000000284000
  0
ACAD_PROXY_OBJECT
  5
1006E
102
{ACAD_REACTORS
330
10062
102
}
330
10062
100
AcDbProxyObject
 90
      499
 91
      503
 93
      241
310
90C332F3422203D2031272D30220000000000003A0FC000000000000284000
  0
ACAD_PROXY_OBJECT
  5
1006F
102
{ACAD_REACTORS
330
10062
102
}
330
10062
100
AcDbProxyObject
 90
      499
 91
      503
 93
      161
310
90A3122203D2031272D30224000000000000284000
  0
ACAD_PROXY_OBJECT
  5
10070
102
{ACAD_REACTORS
330
10062
102
}
330
10062
100
AcDbProxyObject
 90
      499
 91
      503
 93
      257
310
90E312D312F3222203D2031272D30220000000000003E0FC000000000000284000
  0
ACAD_PROXY_OBJECT
  5
10071
102
{ACAD_REACTORS
330
10062
102
}
330
10062
100
AcDbProxyObject
 90
      499
 91
      503
 93
      225
310
90A3322203D2031272D302200000000000002100000000000000284000
  0
ACAD_PROXY_OBJECT
  5
10072
102
{ACAD_REACTORS
330
10062
102
}
330
10062
100
AcDbProxyObject
 90
      499
 91
      503
 93
      225
310
90A3622203D2031272D302200000000000006100000000000000284000
  0
ACAD_PROXY_OBJECT
  5
10073
102
{ACAD_REACTORS
330
10062
102
}
330
10062
100
AcDbProxyObject
 90
      499
 91
      503
 93
      249
310
90D31272D3022203D2031272D30220000000000000A100000000000000284000
  0
ACAD_PROXY_OBJECT
  5
1004A
102
{ACAD_REACTORS
330
10045
102
}
330
10045
100
AcDbProxyObject
 90
      499
 91
      501
 93
      436
310
42CC9915DA5C99599C985B595049028333333333333E33F0000000000000F90107901411070040501600405405064090741402480A0340
1001
ACAD
1000
AcDbSavedByObjectVersion
1070
     0
  0
ACAD_PROXY_OBJECT
  5
1004D
102
{ACAD_REACTORS
330
10045
102
}
330
10045
100
AcDbProxyObject
 90
      499
 91
      501
 93
      388
310
4150985CDA58D07406404333333333333E33F0000000000000F90107A41107004050150841D405064090741402480A0350
1001
ACAD
1000
AcDbSavedByObjectVersion
1070
     0
  0
ACAD_PROXY_OBJECT
  5
10051
102
{ACAD_REACTORS
330
10045
102
}
330
10045
100
AcDbProxyObject
 90
      499
 91
      501
 93
      428
310
42109C9A59DA1D195B90C409028333333333333E33F0000000000000F9010790141107004050150841D405064090741402480A029950
1001
ACAD
1000
AcDbSavedByObjectVersion
1070
     0
  0
ACAD_PROXY_OBJECT
  5
10055
102
{ACAD_REACTORS
330
10045
102
}
330
10045
100
AcDbProxyObject
 90
      499
 91
      501
 93
      452
310
42D0DBDB1BDC90DA185B99D95104090240C333333333333E33F0000000000000F90108901411070040501508421405064090741402480A0350
1001
ACAD
1000
AcDbSavedByObjectVersion
1070
     0
  0
ACAD_PROXY_OBJECT
  5
1004F
102
{ACAD_REACTORS
330
10045
102
}
330
10045
100
AcDbProxyObject
 90
      499
 91
      501
 93
      500
310
4290DBDB98D95C1D1D585B10940D028333333333333E33F0000000000000F90107902409070040501000000000018199010841D405064090740C02480A0340
1001
ACAD
1000
AcDbSavedByObjectVersion
1070
     0
  0
ACAD_PROXY_OBJECT
  5
10050
102
{ACAD_REACTORS
330
10045
102
}
330
10045
100
AcDbProxyObject
 90
      499
 91
      501
 93
      412
310
40D11A5B50B409028333333333333E33F0000000000000F9010790141107004050150841D405064090741402480A02677FFFFFD0
1001
ACAD
1000
AcDbSavedByObjectVersion
1070
     0
  0
ACAD_PROXY_OBJECT
  5
10058
102
{ACAD_REACTORS
330
10045
102
}
330
10045
100
AcDbProxyObject
 90
      499
 91
      501
 93
      452
310
43115919D950DBDB1BDC93D999916409028333333333333E33F0000000000000F9010790141107004050150841D405064090741402480A0350
1001
ACAD
1000
AcDbSavedByObjectVersion
1070
     0
  0
ACAD_PROXY_OBJECT
  5
10054
102
{ACAD_REACTORS
330
10045
102
}
330
10045
100
AcDbProxyObject
 90
      499
 91
      501
 93
      444
310
42D19858D95C185D1D195C9B90F409028333333333333E33F0000000000000F9010790141107004050150841D405064090741402480A0350
1001
ACAD
1000
AcDbSavedByObjectVersion
1070
     0
  0
ACAD_PROXY_OBJECT
  5
10046
102
{ACAD_REACTORS
330
10045
102
}
330
10045
100
AcDbProxyObject
 90
      499
 91
      501
 93
      380
310
41119B185D240901404333333333333E33F0000000000000F9010740A907004050150841D405064090741402480A1B50
1001
ACAD
1000
AcDbSavedByObjectVersion
1070
     0
  0
ACAD_PROXY_OBJECT
  5
10047
102
{ACAD_REACTORS
330
10045
102
}
330
10045
100
AcDbProxyObject
 90
      499
 91
      501
 93
      468
310
43519B185D15DA5D1A115919D95CD0140901404333333333333E33F0000000000000F90107409019070040501600405405064090741402480A1B50
1001
ACAD
1000
AcDbSavedByObjectVersion
1070
     0
  0
ACAD_PROXY_OBJECT
  5
10048
102
{ACAD_REACTORS
330
10045
102
}
330
10045
100
AcDbProxyObject
 90
      499
 91
      501
 93
      404
310
41D1DBDD5C985D5910240902404333333333333E33F0000000000000F9010740A9070040501641D405064090741402480A1B50
1001
ACAD
1000
AcDbSavedByObjectVersion
1070
     0
  0
ACAD_PROXY_OBJECT
  5
10049
102
{ACAD_REACTORS
330
10045
102
}
330
10045
100
AcDbProxyObject
 90
      499
 91
      501
 93
      492
310
4411DBDD5C985D5915DA5D1A115919D95CD0340902404333333333333E33F0000000000000F90107409019070040501600405405064090741402480A1B50
1001
ACAD
1000
AcDbSavedByObjectVersion
1070
     0
  0
ACAD_PROXY_OBJECT
  5
1004C
102
{ACAD_REACTORS
330
10045
102
}
330
10045
100
AcDbProxyObject
 90
      499
 91
      501
 93
      476
310
41921A5919195B90640502408333333333333E33F0000000000000F901079024090700405020000000000001110200405405064090740C02480A0340
1001
ACAD
1000
AcDbSavedByObjectVersion
1070
     0
  0
ACAD_PROXY_OBJECT
  5
10056
102
{ACAD_REACTORS
330
10045
102
}
330
10045
100
AcDbProxyObject
 90
      499
 91
      501
 93
      428
310
42529A5D1D195C93D999914409028333333333333E33F0000000000000F9010790141107004050150A41D405064090741402480A0350
1001
ACAD
1000
AcDbSavedByObjectVersion
1070
     0
  0
ACAD_PROXY_OBJECT
  5
10053
102
{ACAD_REACTORS
330
10045
102
}
330
10045
100
AcDbProxyObject
 90
      499
 91
      501
 93
      444
310
42D31A5B995C185D1D195C9B90E409028333333333333E33F0000000000000F9010790141107004050750841D405064090741402483A0350
1001
ACAD
1000
AcDbSavedByObjectVersion
1070
     0
  0
ACAD_PROXY_OBJECT
  5
10057
102
{ACAD_REACTORS
330
10045
102
}
330
10045
100
AcDbProxyObject
 90
      499
 91
      501
 93
      444
310
42D3DD995C9A185B99D3D999915409028333333333333E33F0000000000000F9010790141107004050150941D405064090741402480A0350
1001
ACAD
1000
AcDbSavedByObjectVersion
1070
     0
  0
ACAD_PROXY_OBJECT
  5
1004E
102
{ACAD_REACTORS
330
10045
102
}
330
10045
100
AcDbProxyObject
 90
      499
 91
      501
 93
      428
310
425499585B1A5CDD1A58D08409038333333333333E33F0000000000000F9010740A907004050150800405405064090740C02480A1B40
1001
ACAD
1000
AcDbSavedByObjectVersion
1070
     0
  0
ACAD_PROXY_OBJECT
  5
1005D
102
{ACAD_REACTORS
330
10045
102
}
330
10045
100
AcDbProxyObject
 90
      499
 91
      501
 93
      420
310
4194DA1859195911B40902404333333333333E33F0000000000000F9010740A41107004050150800405405064090840C02480A0B40
1001
ACAD
1000
AcDbSavedByObjectVersion
1070
     0
  0
ACAD_PROXY_OBJECT
  5
1005C
102
{ACAD_REACTORS
330
10045
102
}
330
10045
100
AcDbProxyObject
 90
      499
 91
      501
 93
      516
310
4454DA18591959081DDA5D1A08195919D95CD1A40902404333333333333E33F0000000000000F901074090142907004050250800405405064090740C02480A0B40
1001
ACAD
1000
AcDbSavedByObjectVersion
1070
     0
  0
ACAD_PROXY_OBJECT
  5
10059
102
{ACAD_REACTORS
330
10045
102
}
330
10045
100
AcDbProxyObject
 90
      499
 91
      501
 93
      532
310
4394DA1859195CC81BD98811DC985E5174090240C333333333333E33F0000000000000F901079024090741D01000000000000111010841D405064090740C02480A0340
1001
ACAD
1000
AcDbSavedByObjectVersion
1070
     0
  0
ACAD_PROXY_OBJECT
  5
1005A
102
{ACAD_REACTORS
330
10045
102
}
330
10045
100
AcDbProxyObject
 90
      499
 91
      501
 93
      476
310
41D4DAD95D18DA1E51840502408333333333333E33F0000000000000F901079024090741D01000000000000111010B41D405064090741802480A0340
1001
ACAD
1000
AcDbSavedByObjectVersion
1070
     0
  0
ACAD_PROXY_OBJECT
  5
10052
102
{ACAD_REACTORS
330
10045
102
}
330
10045
100
AcDbProxyObject
 90
      499
 91
      501
 93
      412
310
41D51A1A58DAD95B90D409028333333333333E33F0000000000000F9010790141107004050150C41D405064090741402480A0350
1001
ACAD
1000
AcDbSavedByObjectVersion
1070
     0
  0
ACAD_PROXY_OBJECT
  5
1004B
102
{ACAD_REACTORS
330
10045
102
}
330
10045
100
AcDbProxyObject
 90
      499
 91
      501
 93
      420
310
4255DA5C99599C985B595059028333333333333E33F0000000000000F90107901411070040501600405405064090740C02480A0340
1001
ACAD
1000
AcDbSavedByObjectVersion
1070
     0
  0
ACAD_PROXY_OBJECT
  5
1005B
102
{ACAD_REACTORS
330
10045
102
}
330
10045
100
AcDbProxyObject
 90
      499
 91
      501
 93
      404
310
41560B54985E51940902404000000000000E03F0000000000000F9010740501907004050150841D405064090740C02480A1B40
1001
ACAD
1000
AcDbSavedByObjectVersion
1070
     0
  0
XRECORD
  5
100F1
102
{ACAD_REACTORS
330
100E7
102
}
330
100E7
100
AcDbXrecord
340
0
  0
XRECORD
  5
100F0
102
{ACAD_REACTORS
330
100E7
102
}
330
100E7
100
AcDbXrecord
 90
        0
  0
XRECORD
  5
10107
102
{ACAD_REACTORS
330
100E7
102
}
330
100E7
100
AcDbXrecord
1000
DSTYLE
1002
{
1070
   340
340
1002D
1002
}
  0
XRECORD
  5
100F2
102
{ACAD_REACTORS
330
100E7
102
}
330
100E7
100
AcDbXrecord
  1
{02edac99-83d2-4c01-9a7d-cb669674517d}
  0
XRECORD
  5
100EA
102
{ACAD_REACTORS
330
100E7
102
}
330
100E7
100
AcDbXrecord
  1

  0
XRECORD
  5
100EF
102
{ACAD_REACTORS
330
100E7
102
}
330
100E7
100
AcDbXrecord
 90
        4
  0
XRECORD
  5
100EC
102
{ACAD_REACTORS
330
100E7
102
}
330
100E7
100
AcDbXrecord
340
10035
  0
XRECORD
  5
100EE
102
{ACAD_REACTORS
330
100E7
102
}
330
100E7
100
AcDbXrecord
 90
    10781
  0
XRECORD
  5
100ED
102
{ACAD_REACTORS
330
100E7
102
}
330
100E7
100
AcDbXrecord
340
10034
  0
XRECORD
  5
100F4
102
{ACAD_REACTORS
330
100E7
102
}
330
100E7
100
AcDbXrecord
 40
0.0
  0
XRECORD
  5
100F7
102
{ACAD_REACTORS
330
100E7
102
}
330
100E7
100
AcDbXrecord
340
0
  0
XRECORD
  5
100FD
102
{ACAD_REACTORS
330
100E7
102
}
330
100E7
100
AcDbXrecord
 10
0.0
 20
0.0
 30
0.0
  0
XRECORD
  5
100F9
102
{ACAD_REACTORS
330
100E7
102
}
330
100E7
100
AcDbXrecord
 10
0.0
 20
0.0
 30
0.0
  0
XRECORD
  5
100FC
102
{ACAD_REACTORS
330
100E7
102
}
330
100E7
100
AcDbXrecord
 10
0.0
 20
0.0
 30
0.0
  0
XRECORD
  5
100FA
102
{ACAD_REACTORS
330
100E7
102
}
330
100E7
100
AcDbXrecord
 10
0.0
 20
0.0
 30
0.0
  0
XRECORD
  5
100FB
102
{ACAD_REACTORS
330
100E7
102
}
330
100E7
100
AcDbXrecord
 10
0.0
 20
0.0
 30
0.0
  0
XRECORD
  5
100F8
102
{ACAD_REACTORS
330
100E7
102
}
330
100E7
100
AcDbXrecord
 10
0.0
 20
0.0
 30
0.0
  0
XRECORD
  5
100F5
102
{ACAD_REACTORS
330
100E7
102
}
330
100E7
100
AcDbXrecord
340
0
  0
XRECORD
  5
100F6
102
{ACAD_REACTORS
330
100E7
102
}
330
100E7
100
AcDbXrecord
 70
     0
  0
XRECORD
  5
100EB
102
{ACAD_REACTORS
330
100E7
102
}
330
100E7
100
AcDbXrecord
  1

  0
XRECORD
  5
100E8
102
{ACAD_REACTORS
330
100E7
102
}
330
100E7
100
AcDbXrecord
 90
        1
  0
XRECORD
  5
100E9
102
{ACAD_REACTORS
330
100E7
102
}
330
100E7
100
AcDbXrecord
 90
       70
  0
XRECORD
  5
10100
102
{ACAD_REACTORS
330
100E7
102
}
330
100E7
100
AcDbXrecord
340
0
  0
XRECORD
  5
10106
102
{ACAD_REACTORS
330
100E7
102
}
330
100E7
100
AcDbXrecord
 10
0.0
 20
0.0
 30
0.0
  0
XRECORD
  5
10102
102
{ACAD_REACTORS
330
100E7
102
}
330
100E7
100
AcDbXrecord
 10
0.0
 20
0.0
 30
0.0
  0
XRECORD
  5
10105
102
{ACAD_REACTORS
330
100E7
102
}
330
100E7
100
AcDbXrecord
 10
0.0
 20
0.0
 30
0.0
  0
XRECORD
  5
10103
102
{ACAD_REACTORS
330
100E7
102
}
330
100E7
100
AcDbXrecord
 10
0.0
 20
0.0
 30
0.0
  0
XRECORD
  5
10104
102
{ACAD_REACTORS
330
100E7
102
}
330
100E7
100
AcDbXrecord
 10
0.0
 20
0.0
 30
0.0
  0
XRECORD
  5
10101
102
{ACAD_REACTORS
330
100E7
102
}
330
100E7
100
AcDbXrecord
 10
0.0
 20
0.0
 30
0.0
  0
XRECORD
  5
100FE
102
{ACAD_REACTORS
330
100E7
102
}
330
100E7
100
AcDbXrecord
340
0
  0
XRECORD
  5
100FF
102
{ACAD_REACTORS
330
100E7
102
}
330
100E7
100
AcDbXrecord
 70
     0
  0
XRECORD
  5
100F3
102
{ACAD_REACTORS
330
100E7
102
}
330
100E7
100
AcDbXrecord
  1
{FAEB1C32-E019-11D5-929B-00C0DF256EC4}
  0
DICTIONARYVAR
  5
10112
102
{ACAD_REACTORS
330
10108
102
}
330
10108
100
DictionaryVariables
280
     0
  1
1:1
  0
DICTIONARYVAR
  5
1010A
102
{ACAD_REACTORS
330
10108
102
}
330
10108
100
DictionaryVariables
280
     0
  1
Standard
  0
DICTIONARYVAR
  5
10109
102
{ACAD_REACTORS
330
10108
102
}
330
10108
100
DictionaryVariables
280
     0
  1
Standard
  0
DICTIONARYVAR
  5
1010D
102
{ACAD_REACTORS
330
10108
102
}
330
10108
100
DictionaryVariables
280
     0
  1
2
  0
DICTIONARYVAR
  5
1010E
102
{ACAD_REACTORS
330
10108
102
}
330
10108
100
DictionaryVariables
280
     0
  1
1
  0
DICTIONARYVAR
  5
10113
102
{ACAD_REACTORS
330
10108
102
}
330
10108
100
DictionaryVariables
280
     0
  1
1
  0
XRECORD
  5
1007C
102
{ACAD_REACTORS
330
1007A
102
}
330
1007A
100
AcDbXrecord
1000
#ffffff
  0
XRECORD
  5
1007D
102
{ACAD_REACTORS
330
1007A
102
}
330
1007A
100
AcDbXrecord
1000
FullColor
  0
ACAD_PROXY_OBJECT
  5
1007E
102
{ACAD_REACTORS
330
1007A
102
}
330
1007A
100
AcDbProxyObject
 90
      499
 91
      508
 93
       34
310
40C8804040
  0
ACAD_PROXY_OBJECT
  5
1007F
102
{ACAD_REACTORS
330
1007A
102
}
330
1007A
100
AcDbProxyObject
 90
      499
 91
      508
 93
       34
310
40C8804040
  0
ACAD_PROXY_OBJECT
  5
10080
102
{ACAD_REACTORS
330
1007A
102
}
330
1007A
100
AcDbProxyObject
 90
      499
 91
      508
 93
       34
310
40C8804040
  0
ACAD_PROXY_OBJECT
  5
10081
102
{ACAD_REACTORS
330
1007A
102
}
330
1007A
100
AcDbProxyObject
 90
      499
 91
      508
 93
       34
310
40C8804040
  0
XRECORD
  5
10082
102
{ACAD_REACTORS
330
1007A
102
}
330
1007A
100
AcDbXrecord
1000
auto
  0
XRECORD
  5
10083
102
{ACAD_REACTORS
330
1007A
102
}
330
1007A
100
AcDbXrecord
1000
auto
  0
XRECORD
  5
10084
102
{ACAD_REACTORS
330
1007A
102
}
330
1007A
100
AcDbXrecord
1000
auto
  0
XRECORD
  5
10085
102
{ACAD_REACTORS
330
1007A
102
}
330
1007A
100
AcDbXrecord
1000
auto
  0
XRECORD
  5
10086
102
{ACAD_REACTORS
330
1007A
102
}
330
1007A
100
AcDbXrecord
1000
auto
  0
XRECORD
  5
10087
102
{ACAD_REACTORS
330
1007A
102
}
330
1007A
100
AcDbXrecord
1000
auto
  0
XRECORD
  5
10088
102
{ACAD_REACTORS
330
1007A
102
}
330
1007A
100
AcDbXrecord
1000
auto
  0
XRECORD
  5
10089
102
{ACAD_REACTORS
330
1007A
102
}
330
1007A
100
AcDbXrecord
1000
auto
  0
ACAD_PROXY_OBJECT
  5
1008A
102
{ACAD_REACTORS
330
1007A
102
}
330
1007A
100
AcDbProxyObject
 90
      499
 91
      508
 93
       34
310
40C8804000
  0
ACAD_PROXY_OBJECT
  5
1008B
102
{ACAD_REACTORS
330
1007A
102
}
330
1007A
100
AcDbProxyObject
 90
      499
 91
      508
 93
       34
310
40C8804000
  0
ACAD_PROXY_OBJECT
  5
1008C
102
{ACAD_REACTORS
330
1007A
102
}
330
1007A
100
AcDbProxyObject
 90
      499
 91
      508
 93
       34
310
40C8804000
  0
ACAD_PROXY_OBJECT
  5
1008D
102
{ACAD_REACTORS
330
1007A
102
}
330
1007A
100
AcDbProxyObject
 90
      499
 91
      508
 93
       34
310
40C8804000
  0
XRECORD
  5
1008E
102
{ACAD_REACTORS
330
1007A
102
}
330
1007A
100
AcDbXrecord
 90
    65537
  0
XRECORD
  5
1008F
102
{ACAD_REACTORS
330
1007A
102
}
330
1007A
100
AcDbXrecord
 90
    65537
  0
XRECORD
  5
10090
102
{ACAD_REACTORS
330
1007A
102
}
330
1007A
100
AcDbXrecord
 90
    65537
  0
XRECORD
  5
10091
102
{ACAD_REACTORS
330
1007A
102
}
330
1007A
100
AcDbXrecord
 90
    65537
  0
XRECORD
  5
10092
102
{ACAD_REACTORS
330
1007A
102
}
330
1007A
100
AcDbXrecord
1000
auto
  0
XRECORD
  5
10093
102
{ACAD_REACTORS
330
1007A
102
}
330
1007A
100
AcDbXrecord
1000
auto
  0
XRECORD
  5
10094
102
{ACAD_REACTORS
330
1007A
102
}
330
1007A
100
AcDbXrecord
1000
auto
  0
XRECORD
  5
10095
102
{ACAD_REACTORS
330
1007A
102
}
330
1007A
100
AcDbXrecord
1000
auto
  0
XRECORD
  5
10096
102
{ACAD_REACTORS
330
1007A
102
}
330
1007A
100
AcDbXrecord
1000
auto
  0
XRECORD
  5
10097
102
{ACAD_REACTORS
330
1007A
102
}
330
1007A
100
AcDbXrecord
1000
auto
  0
XRECORD
  5
10098
102
{ACAD_REACTORS
330
1007A
102
}
330
1007A
100
AcDbXrecord
1000
auto
  0
XRECORD
  5
10099
102
{ACAD_REACTORS
330
1007A
102
}
330
1007A
100
AcDbXrecord
1000
auto
  0
XRECORD
  5
1009A
102
{ACAD_REACTORS
330
1007A
102
}
330
1007A
100
AcDbXrecord
 90
        1
  0
XRECORD
  5
1009C
102
{ACAD_REACTORS
330
1007A
102
}
330
1007A
100
AcDbXrecord
 40
10.0
  0
XRECORD
  5
1009D
102
{ACAD_REACTORS
330
1007A
102
}
330
1007A
100
AcDbXrecord
 40
10.0
  0
XRECORD
  5
1009E
102
{ACAD_REACTORS
330
1007A
102
}
330
1007A
100
AcDbXrecord
 40
10.0
  0
XRECORD
  5
1009B
102
{ACAD_REACTORS
330
1007A
102
}
330
1007A
100
AcDbXrecord
 40
10.0
  0
ACAD_PROXY_OBJECT
  5
1009F
102
{ACAD_REACTORS
330
1007A
102
}
330
1007A
100
AcDbProxyObject
 90
      499
 91
      508
 93
       34
310
40C8804000
  0
XRECORD
  5
100A0
102
{ACAD_REACTORS
330
1007A
102
}
330
1007A
100
AcDbXrecord
 90
        1
  0
XRECORD
  5
100A1
102
{ACAD_REACTORS
330
1007A
102
}
330
1007A
100
AcDbXrecord
 40
0.0
  0
XRECORD
  5
100A2
102
{ACAD_REACTORS
330
1007A
102
}
330
1007A
100
AcDbXrecord
 40
0.0
  0
XRECORD
  5
100A3
102
{ACAD_REACTORS
330
1007A
102
}
330
1007A
100
AcDbXrecord
1000
Portrait
  0
XRECORD
  5
100A4
102
{ACAD_REACTORS
330
1007A
102
}
330
1007A
100
AcDbXrecord
 40
279.4
  0
XRECORD
  5
100A5
102
{ACAD_REACTORS
330
1007A
102
}
330
1007A
100
AcDbXrecord
 40
215.9
  0
XRECORD
  5
100A6
102
{ACAD_REACTORS
330
1007A
102
}
330
1007A
100
AcDbXrecord
1000
1:1
  0
ACAD_PROXY_OBJECT
  5
100A7
102
{ACAD_REACTORS
330
1007A
102
}
330
1007A
100
AcDbProxyObject
 90
      499
 91
      508
 93
       34
310
40C8804040
  0
ACAD_PROXY_OBJECT
  5
100A8
102
{ACAD_REACTORS
330
1007A
102
}
330
1007A
100
AcDbProxyObject
 90
      499
 91
      508
 93
       34
310
40C8804000
  0
XRECORD
  5
100A9
102
{ACAD_REACTORS
330
1007A
102
}
330
1007A
100
AcDbXrecord
1000
Inside
  0
XRECORD
  5
100AA
102
{ACAD_REACTORS
330
1007A
102
}
330
1007A
100
AcDbXrecord
1000
Arial,10,-1,5,50,0,0,0,0,0
  0
XRECORD
  5
100AB
102
{ACAD_REACTORS
330
1007A
102
}
330
1007A
100
AcDbXrecord
1000
TopLeft
  0
XRECORD
  5
100AC
102
{ACAD_REACTORS
330
1007A
102
}
330
1007A
100
AcDbXrecord
1000
3.29.3
  0
XRECORD
  5
100AD
102
{ACAD_REACTORS
330
1007A
102
}
330
1007A
100
AcDbXrecord
 90
        4
  0
XRECORD
  5
100AE
102
{ACAD_REACTORS
330
1007A
102
}
330
1007A
100
AcDbXrecord
  0
XRECORD
  5
100AF
102
{ACAD_REACTORS
330
1007A
102
}
330
1007A
100
AcDbXrecord
 40
723.6494132356786
  0
XRECORD
  5
100B0
102
{ACAD_REACTORS
330
1007A
102
}
330
1007A
100
AcDbXrecord
 40
1375.940224407662
  0
DICTIONARY
  5
10116
330
10060
100
AcDbDictionary
280
     1
  3
ACAD_XREC_ROUNDTRIP
360
10117
  0
DICTIONARY
  5
10114
330
1005F
100
AcDbDictionary
280
     1
  3
ACAD_XREC_ROUNDTRIP
360
10115
  0
DICTIONARY
  5
10118
330
10061
100
AcDbDictionary
280
     1
  3
ACAD_XREC_ROUNDTRIP
360
10119
  0
XRECORD
  5
10117
102
{ACAD_REACTORS
330
10116
102
}
330
10116
100
AcDbXrecord
102
MATERIAL
148
0.0
149
0.0
149
0.0
 93
        0
 94
      127
282
     0
 72
     1
 77
     1
171
     1
175
     1
179
     1
273
     0
  0
XRECORD
  5
10115
102
{ACAD_REACTORS
330
10114
102
}
330
10114
100
AcDbXrecord
102
MATERIAL
148
0.0
149
0.0
149
0.0
 93
        0
 94
      127
282
     0
 72
     1
 77
     1
171
     1
175
     1
179
     1
273
     0
  0
XRECORD
  5
10119
102
{ACAD_REACTORS
330
10118
102
}
330
10118
100
AcDbXrecord
102
MATERIAL
148
0.0
149
0.0
149
0.0
 93
        0
 94
      127
282
     0
 72
     1
 77
     1
171
     1
175
     1
179
     1
273
     0
  0
ENDSEC
  0
EOF
