0
SECTION
2
HEADER
9
$INSUNITS
70
4
9
$ACADVER
1
AC1014
9
$HANDSEED
5
FFFF
0
ENDSEC
0
SECTION
2
TABLES
0
TABLE
2
VPORT
5
8
100
AcDbSymbolTable
0
ENDTAB
0
TABLE
2
LTYPE
5
5
100
AcDbSymbolTable
0
LTYPE
5
14
100
AcDbSymbolTableRecord
100
AcDbLinetypeTableRecord
2
BYBLOCK
70
0
0
LTYPE
5
15
100
AcDbSymbolTableRecord
100
AcDbLinetypeTableRecord
2
BYLAYER
70
0
0
ENDTAB
0
TABLE
2
LAYER
5
2
100
AcDbSymbolTable
70
2
0
LAYER
5
50
100
AcDbSymbolTableRecord
100
AcDbLayerTableRecord
2
0
70
0
6
CONTINUOUS
0
ENDTAB
0
TABLE
2
STYLE
5
3
100
AcDbSymbolTable
70
1
0
STYLE
5
11
100
AcDbSymbolTableRecord
100
AcDbTextStyleTableRecord
2
STANDARD
70
0
0
ENDTAB
0
TABLE
2
VIEW
5
6
100
AcDbSymbolTable
70
0
0
ENDTAB
0
TABLE
2
UCS
5
7
100
AcDbSymbolTable
70
0
0
ENDTAB
0
TABLE
2
APPID
5
9
100
AcDbSymbolTable
70
2
0
APPID
5
12
100
AcDbSymbolTableRecord
100
AcDbRegAppTableRecord
2
ACAD
70
0
0
ENDTAB
0
TABLE
2
DIMSTYLE
5
A
100
AcDbSymbolTable
70
1
0
ENDTAB
0
TABLE
2
BLOCK_RECORD
5
1
100
AcDbSymbolTable
70
1
0
BLOCK_RECORD
5
1F
100
AcDbSymbolTableRecord
100
AcDbBlockTableRecord
2
*MODEL_SPACE
0
BLOCK_RECORD
5
1B
100
AcDbSymbolTableRecord
100
AcDbBlockTableRecord
2
*PAPER_SPACE
0
ENDTAB
0
ENDSEC
0
SECTION
2
BLOCKS
0
BLOCK
5
20
100
AcDbEntity
100
AcDbBlockBegin
2
*MODEL_SPACE
0
ENDBLK
5
21
100
AcDbEntity
100
AcDbBlockEnd
0
BLOCK
5
1C
100
AcDbEntity
100
AcDbBlockBegin
2
*PAPER_SPACE
0
ENDBLK
5
1D
100
AcDbEntity
100
AcDbBlockEnd
0
ENDSEC
0
SECTION
2
ENTITIES
0
LWPOLYLINE
5
100
100
AcDbEntity
8
0
100
AcDbPolyline
90
4
70
1
43
0.0
10
125.00000052154064
20
35.000000223517418
10
25.000000521540642
20
35.000000223517418
10
25.000000521540642
20
45.000000223517418
10
125.00000052154064
20
45.000000223517418
0
LINE
5
101
100
AcDbEntity
8
0
100
AcDbLine
10
145
20
0
30
0
11
145
21
65
31
0
0
LINE
5
102
100
AcDbEntity
8
0
100
AcDbLine
10
145
20
65
30
0
11
0
21
65
31
0
0
LINE
5
103
100
AcDbEntity
8
0
100
AcDbLine
10
0
20
65
30
0
11
0
21
0
31
0
0
LINE
5
104
100
AcDbEntity
8
0
100
AcDbLine
10
0
20
0
30
0
11
10
21
0
31
0
0
LINE
5
105
100
AcDbEntity
8
0
100
AcDbLine
10
10
20
0
30
0
11
10
21
19.999999999999996
31
0
0
LINE
5
106
100
AcDbEntity
8
0
100
AcDbLine
10
10
20
19.999999999999996
30
0
11
13.100000000000001
21
19.999999999999996
31
0
0
LINE
5
107
100
AcDbEntity
8
0
100
AcDbLine
10
13.100000000000001
20
19.999999999999996
30
0
11
13.100000000000003
21
0
31
0
0
LINE
5
108
100
AcDbEntity
8
0
100
AcDbLine
10
13.100000000000003
20
0
30
0
11
22.766666666666669
21
0
31
0
0
LINE
5
109
100
AcDbEntity
8
0
100
AcDbLine
10
22.766666666666669
20
0
30
0
11
22.766666666666669
21
20
31
0
0
LINE
5
110
100
AcDbEntity
8
0
100
AcDbLine
10
22.766666666666669
20
20
30
0
11
25.916666666666668
21
20
31
0
0
LINE
5
111
100
AcDbEntity
8
0
100
AcDbLine
10
25.916666666666668
20
20
30
0
11
25.916666666666668
21
0
31
0
0
LINE
5
112
100
AcDbEntity
8
0
100
AcDbLine
10
25.916666666666668
20
0
30
0
11
39.11666666666666
21
0
31
0
0
LINE
5
113
100
AcDbEntity
8
0
100
AcDbLine
10
39.11666666666666
20
0
30
0
11
39.11666666666666
21
20
31
0
0
LINE
5
114
100
AcDbEntity
8
0
100
AcDbLine
10
39.11666666666666
20
20
30
0
11
42.316666666666656
21
19.999999999999996
31
0
0
LINE
5
115
100
AcDbEntity
8
0
100
AcDbLine
10
42.316666666666656
20
19.999999999999996
30
0
11
42.316666666666656
21
0
31
0
0
LINE
5
116
100
AcDbEntity
8
0
100
AcDbLine
10
42.316666666666656
20
0
30
0
11
54.621929824561384
21
0
31
0
0
LINE
5
117
100
AcDbEntity
8
0
100
AcDbLine
10
54.621929824561384
20
0
30
0
11
54.621929824561384
21
20
31
0
0
LINE
5
118
100
AcDbEntity
8
0
100
AcDbLine
10
54.621929824561384
20
20
30
0
11
57.871929824561391
21
20
31
0
0
LINE
5
119
100
AcDbEntity
8
0
100
AcDbLine
10
57.871929824561391
20
20
30
0
11
57.871929824561391
21
0
31
0
0
LINE
5
120
100
AcDbEntity
8
0
100
AcDbLine
10
57.871929824561391
20
0
30
0
11
67.071929824561394
21
0
31
0
0
LINE
5
121
100
AcDbEntity
8
0
100
AcDbLine
10
67.071929824561394
20
0
30
0
11
67.071929824561394
21
20
31
0
0
LINE
5
122
100
AcDbEntity
8
0
100
AcDbLine
10
67.071929824561394
20
20
30
0
11
70.371929824561391
21
20
31
0
0
LINE
5
123
100
AcDbEntity
8
0
100
AcDbLine
10
70.371929824561391
20
20
30
0
11
70.371929824561391
21
0
31
0
0
LINE
5
124
100
AcDbEntity
8
0
100
AcDbLine
10
79.571929824561394
20
0
30
0
11
79.571929824561394
21
20
31
0
0
LINE
5
125
100
AcDbEntity
8
0
100
AcDbLine
10
83.5
20
0
30
0
11
92.077333333333343
21
0
31
0
0
LINE
5
126
100
AcDbEntity
8
0
100
AcDbLine
10
92.29811106806558
20
20
30
0
11
92.29811106806558
21
21.000000312924385
31
0
0
LINE
5
127
100
AcDbEntity
8
0
100
AcDbLine
10
92.077333333333343
20
0
30
0
11
92.077333333333343
21
20
31
0
0
LINE
5
128
100
AcDbEntity
8
0
100
AcDbLine
10
92.077333333333343
20
20
30
0
11
95.477333333333334
21
20
31
0
0
LINE
5
129
100
AcDbEntity
8
0
100
AcDbLine
10
95.477333333333334
20
20
30
0
11
95.477333333333334
21
-1.8503717077085948e-15
31
0
0
LINE
5
130
100
AcDbEntity
8
0
100
AcDbLine
10
104.67733333333334
20
-1.850371707708594e-15
30
0
11
104.67733333333334
21
19.999999999999996
31
0
0
LINE
5
131
100
AcDbEntity
8
0
100
AcDbLine
10
104.67733333333334
20
19.999999999999996
30
0
11
108.12733333333334
21
19.999999999999996
31
0
0
LINE
5
132
100
AcDbEntity
8
0
100
AcDbLine
10
108.12733333333334
20
19.999999999999996
30
0
11
108.12733333333334
21
-3.7797656121318069e-15
31
0
0
LINE
5
133
100
AcDbEntity
8
0
100
AcDbLine
10
108.12733333333334
20
-3.7797656121318069e-15
30
0
11
117.32733333333334
21
-3.7797656121318077e-15
31
0
0
LINE
5
134
100
AcDbEntity
8
0
100
AcDbLine
10
117.32733333333334
20
-3.7797656121318077e-15
30
0
11
117.32733333333334
21
19.999999999999996
31
0
0
LINE
5
135
100
AcDbEntity
8
0
100
AcDbLine
10
117.32733333333334
20
19.999999999999996
30
0
11
120.82733333333334
21
19.999999999999996
31
0
0
LINE
5
136
100
AcDbEntity
8
0
100
AcDbLine
10
120.82733333333334
20
19.999999999999996
30
0
11
120.82733333333334
21
-3.2671374714220189e-15
31
0
0
LINE
5
137
100
AcDbEntity
8
0
100
AcDbLine
10
120.82733333333334
20
-3.2671374714220189e-15
30
0
11
145
21
0
31
0
0
LINE
5
138
100
AcDbEntity
8
0
100
AcDbLine
10
95.477333333333334
20
-1.8503717077085948e-15
30
0
11
104.21066666666667
21
-1.8503717077085944e-15
31
0
0
LINE
5
139
100
AcDbEntity
8
0
100
AcDbLine
10
79.571929824561394
20
20
30
0
11
82.921929824561403
21
20
31
0
0
LINE
5
140
100
AcDbEntity
8
0
100
AcDbLine
10
82.921929824561403
20
20
30
0
11
82.921929824561403
21
0
31
0
0
LINE
5
141
100
AcDbEntity
8
0
100
AcDbLine
10
70.371929824561391
20
0
30
0
11
79.105263157894726
21
0
31
0
0
LINE
5
142
100
AcDbEntity
8
0
100
AcDbLine
10
82.921929824561403
20
0
30
0
11
91.655263157894723
21
0
31
0
0
LWPOLYLINE
5
143
100
AcDbEntity
8
0
100
AcDbPolyline
90
12
70
1
43
0.0
10
25
20
55.999999940395355
10
25
20
60
10
25.529331490397453
20
60
10
25.529331490397453
20
58.016370832920074
10
27.515688687562943
20
60
10
28.233288079500198
20
60
10
26.555252373218536
20
58.379262983798981
10
28.306957632303238
20
55.999999940395355
10
27.608458548784256
20
55.999999940395355
10
26.184174567461014
20
58.024556338787079
10
25.529331490397453
20
57.386084496974945
10
25.529331490397453
20
55.999999940395355
0
LINE
5
144
100
AcDbEntity
8
0
100
AcDbLine
10
30.669850260019302
20
56.933151185512543
30
0
11
31.177353411912918
21
56.870395541191101
31
0
0
SPLINE
5
145
100
AcDbEntity
8
0
100
AcDbSpline
70
0
71
2
72
6
73
3
74
0
42
0.000000001
43
0.0000000001
44
0.0000000001
40
0
40
0
40
0
40
1
40
1
40
1
10
31.177353411912918
20
56.870395541191101
30
0
10
31.057298928499222
20
56.425648033618927
30
0
10
30.732606202363968
20
56.1800816655159
30
0
0
SPLINE
5
146
100
AcDbEntity
8
0
100
AcDbSpline
70
0
71
2
72
6
73
3
74
0
42
0.000000001
43
0.0000000001
44
0.0000000001
40
0
40
0
40
0
40
1
40
1
40
1
10
30.732606202363968
20
56.1800816655159
30
0
10
30.407912880182266
20
55.93451589345932
30
0
10
29.90313783288002
20
55.93451589345932
30
0
0
SPLINE
5
147
100
AcDbEntity
8
0
100
AcDbSpline
70
0
71
2
72
6
73
3
74
0
42
0.000000001
43
0.0000000001
44
0.0000000001
40
0
40
0
40
0
40
1
40
1
40
1
10
29.90313783288002
20
55.93451589345932
30
0
10
29.26739439368248
20
55.93451589345932
30
0
10
28.894952386617661
20
56.326057314872742
30
0
0
SPLINE
5
148
100
AcDbEntity
8
0
100
AcDbSpline
70
0
71
2
72
6
73
3
74
0
42
0.000000001
43
0.0000000001
44
0.0000000001
40
0
40
0
40
0
40
1
40
1
40
1
10
28.894952386617661
20
56.326057314872742
30
0
10
28.522510379552841
20
56.717598736286163
30
0
10
28.522510379552841
20
57.424283623695374
30
0
0
SPLINE
5
149
100
AcDbEntity
8
0
100
AcDbSpline
70
0
71
2
72
6
73
3
74
0
42
0.000000001
43
0.0000000001
44
0.0000000001
40
0
40
0
40
0
40
1
40
1
40
1
10
28.522510379552841
20
57.424283623695374
30
0
10
28.522510379552841
20
58.155525028705597
30
0
10
28.899045139551163
20
58.559345006942749
30
0
0
SPLINE
5
150
100
AcDbEntity
8
0
100
AcDbSpline
70
0
71
2
72
6
73
3
74
0
42
0.000000001
43
0.0000000001
44
0.0000000001
40
0
40
0
40
0
40
1
40
1
40
1
10
28.899045139551163
20
58.559345006942749
30
0
10
29.275579899549484
20
58.963164985179901
30
0
10
29.87585261464119
20
58.963164985179901
30
0
0
SPLINE
5
151
100
AcDbEntity
8
0
100
AcDbSpline
70
0
71
2
72
6
73
3
74
0
42
0.000000001
43
0.0000000001
44
0.0000000001
40
0
40
0
40
0
40
1
40
1
40
1
10
29.87585261464119
20
58.963164985179901
30
0
10
30.457025915384293
20
58.963164985179901
30
0
10
30.825375467538834
20
58.567530512809753
30
0
0
SPLINE
5
152
100
AcDbEntity
8
0
100
AcDbSpline
70
0
71
2
72
6
73
3
74
0
42
0.000000001
43
0.0000000001
44
0.0000000001
40
0
40
0
40
0
40
1
40
1
40
1
10
30.825375467538834
20
58.567530512809753
30
0
10
31.193724423646927
20
58.171896040439606
30
0
10
31.193724423646927
20
57.454297244548798
30
0
0
SPLINE
5
153
100
AcDbEntity
8
0
100
AcDbSpline
70
0
71
2
72
6
73
3
74
0
42
0.000000001
43
0.0000000001
44
0.0000000001
40
0
40
0
40
0
40
1
40
1
40
1
10
31.193724423646927
20
57.454297244548798
30
0
10
31.193724423646927
20
57.410641014575958
30
0
10
31.190995723009109
20
57.32332855463028
30
0
0
LINE
5
154
100
AcDbEntity
8
0
100
AcDbLine
10
31.190995723009109
20
57.323328554630287
30
0
11
29.030013829469681
21
57.32332855463028
31
0
0
SPLINE
5
155
100
AcDbEntity
8
0
100
AcDbSpline
70
0
71
2
72
6
73
3
74
0
42
0.000000001
43
0.0000000001
44
0.0000000001
40
0
40
0
40
0
40
1
40
1
40
1
10
29.030013829469681
20
57.32332855463028
30
0
10
29.057299047708511
20
56.845838725566864
30
0
10
29.300136715173721
20
56.592087149620056
30
0
0
SPLINE
5
156
100
AcDbEntity
8
0
100
AcDbSpline
70
0
71
2
72
6
73
3
74
0
42
0.000000001
43
0.0000000001
44
0.0000000001
40
0
40
0
40
0
40
1
40
1
40
1
10
29.300136715173721
20
56.592087149620056
30
0
10
29.542974382638931
20
56.338335573673248
30
0
10
29.905866533517838
20
56.338335573673248
30
0
0
SPLINE
5
157
100
AcDbEntity
8
0
100
AcDbSpline
70
0
71
2
72
6
73
3
74
0
42
0.000000001
43
0.0000000001
44
0.0000000001
40
0
40
0
40
0
40
1
40
1
40
1
10
29.905866533517838
20
56.338335573673248
30
0
10
30.175989419221878
20
56.338335573673248
30
0
10
30.366985350847244
20
56.480218172073364
30
0
0
SPLINE
5
158
100
AcDbEntity
8
0
100
AcDbSpline
70
0
71
2
72
6
73
3
74
0
42
0.000000001
43
0.0000000001
44
0.0000000001
40
0
40
0
40
0
40
1
40
1
40
1
10
30.366985350847244
20
56.480218172073364
30
0
10
30.55798128247261
20
56.62210077047348
30
0
10
30.669850260019302
20
56.933151185512543
30
0
0
LINE
5
159
100
AcDbEntity
8
0
100
AcDbLine
10
29.057299047708511
20
57.727148532867432
30
0
11
30.675307065248489
21
57.727148532867432
31
0
0
SPLINE
5
160
100
AcDbEntity
8
0
100
AcDbSpline
70
0
71
2
72
6
73
3
74
0
42
0.000000001
43
0.0000000001
44
0.0000000001
40
0
40
0
40
0
40
1
40
1
40
1
10
30.675307065248489
20
57.727148532867432
30
0
10
30.642565041780472
20
58.092769384384155
30
0
10
30.489768534898758
20
58.275579512119293
30
0
0
SPLINE
5
161
100
AcDbEntity
8
0
100
AcDbSpline
70
0
71
2
72
6
73
3
74
0
42
0.000000001
43
0.0000000001
44
0.0000000001
40
0
40
0
40
0
40
1
40
1
40
1
10
30.489768534898758
20
58.275579512119293
30
0
10
30.255115777254105
20
58.559345006942749
30
0
10
29.881310015916824
20
58.559345006942749
30
0
0
SPLINE
5
162
100
AcDbEntity
8
0
100
AcDbSpline
70
0
71
2
72
6
73
3
74
0
42
0.000000001
43
0.0000000001
44
0.0000000001
40
0
40
0
40
0
40
1
40
1
40
1
10
29.881310015916824
20
58.559345006942749
30
0
10
29.542974382638931
20
58.559345006942749
30
0
10
29.312414973974228
20
58.332878649234772
30
0
0
SPLINE
5
163
100
AcDbEntity
8
0
100
AcDbSpline
70
0
71
2
72
6
73
3
74
0
42
0.000000001
43
0.0000000001
44
0.0000000001
40
0
40
0
40
0
40
1
40
1
40
1
10
29.312414973974228
20
58.332878649234772
30
0
10
29.081855565309525
20
58.106411993503571
30
0
10
29.057299047708511
20
57.727148532867432
30
0
0
LINE
5
164
100
AcDbEntity
8
0
100
AcDbLine
10
31.788540035486221
20
55.999999940395355
30
0
11
31.788540035486221
21
58.897680640220642
31
0
0
LINE
5
165
100
AcDbEntity
8
0
100
AcDbLine
10
31.788540035486221
20
58.897680640220642
30
0
11
32.230559140443802
21
58.897680640220642
31
0
0
LINE
5
166
100
AcDbEntity
8
0
100
AcDbLine
10
32.230559140443802
20
58.897680640220642
30
0
11
32.230559140443802
21
58.458389937877655
31
0
0
SPLINE
5
167
100
AcDbEntity
8
0
100
AcDbSpline
70
0
71
2
72
6
73
3
74
0
42
0.000000001
43
0.0000000001
44
0.0000000001
40
0
40
0
40
0
40
1
40
1
40
1
10
32.230559140443802
20
58.458389937877655
30
0
10
32.399726659059525
20
58.766711950302124
30
0
10
32.542973905801773
20
58.864938616752625
30
0
0
SPLINE
5
168
100
AcDbEntity
8
0
100
AcDbSpline
70
0
71
2
72
6
73
3
74
0
42
0.000000001
43
0.0000000001
44
0.0000000001
40
0
40
0
40
0
40
1
40
1
40
1
10
32.542973905801773
20
58.864938616752625
30
0
10
32.686220556497574
20
58.963164985179901
30
0
10
32.858117371797562
20
58.963164985179901
30
0
0
SPLINE
5
169
100
AcDbEntity
8
0
100
AcDbSpline
70
0
71
2
72
6
73
3
74
0
42
0.000000001
43
0.0000000001
44
0.0000000001
40
0
40
0
40
0
40
1
40
1
40
1
10
32.858117371797562
20
58.963164985179901
30
0
10
33.106411844491959
20
58.963164985179901
30
0
10
33.36289182305336
20
58.804911077022552
30
0
0
LINE
5
170
100
AcDbEntity
8
0
100
AcDbLine
10
33.36289182305336
20
58.804911077022552
30
0
11
33.193724304437637
21
58.349249660968781
31
0
0
SPLINE
5
171
100
AcDbEntity
8
0
100
AcDbSpline
70
0
71
2
72
6
73
3
74
0
42
0.000000001
43
0.0000000001
44
0.0000000001
40
0
40
0
40
0
40
1
40
1
40
1
10
33.193724304437637
20
58.349249660968781
30
0
10
33.013642579317093
20
58.455661535263062
30
0
10
32.833560258150101
20
58.455661535263062
30
0
0
SPLINE
5
172
100
AcDbEntity
8
0
100
AcDbSpline
70
0
71
2
72
6
73
3
74
0
42
0.000000001
43
0.0000000001
44
0.0000000001
40
0
40
0
40
0
40
1
40
1
40
1
10
32.833560258150101
20
58.455661535263062
30
0
10
32.672578245401382
20
58.455661535263062
30
0
10
32.544338256120682
20
58.358799517154694
30
0
0
SPLINE
5
173
100
AcDbEntity
8
0
100
AcDbSpline
70
0
71
2
72
6
73
3
74
0
42
0.000000001
43
0.0000000001
44
0.0000000001
40
0
40
0
40
0
40
1
40
1
40
1
10
32.544338256120682
20
58.358799517154694
30
0
10
32.416098266839981
20
58.261937201023102
30
0
10
32.36152783036232
20
58.090040981769562
30
0
0
SPLINE
5
174
100
AcDbEntity
8
0
100
AcDbSpline
70
0
71
2
72
6
73
3
74
0
42
0.000000001
43
0.0000000001
44
0.0000000001
40
0
40
0
40
0
40
1
40
1
40
1
10
32.36152783036232
20
58.090040981769562
30
0
10
32.279672175645828
20
57.828103601932526
30
0
10
32.279672175645828
20
57.517053186893463
30
0
0
LINE
5
175
100
AcDbEntity
8
0
100
AcDbLine
10
32.279672175645828
20
57.517053186893463
30
0
11
32.279672175645828
21
55.999999940395355
31
0
0
LINE
5
176
100
AcDbEntity
8
0
100
AcDbLine
10
32.279672175645828
20
55.999999940395355
30
0
11
31.788540035486221
21
55.999999940395355
31
0
0
LINE
5
177
100
AcDbEntity
8
0
100
AcDbLine
10
33.772168904542923
20
55.999999940395355
30
0
11
33.772168904542923
21
58.51568877696991
31
0
0
LINE
5
178
100
AcDbEntity
8
0
100
AcDbLine
10
33.772168904542923
20
58.51568877696991
30
0
11
33.338335305452347
21
58.51568877696991
31
0
0
LINE
5
179
100
AcDbEntity
8
0
100
AcDbLine
10
33.338335305452347
20
58.51568877696991
30
0
11
33.338335305452347
21
58.897680640220642
31
0
0
LINE
5
180
100
AcDbEntity
8
0
100
AcDbLine
10
33.338335305452347
20
58.897680640220642
30
0
11
33.772168904542923
21
58.897680640220642
31
0
0
LINE
5
181
100
AcDbEntity
8
0
100
AcDbLine
10
33.772168904542923
20
58.897680640220642
30
0
11
33.772168904542923
21
59.206002652645111
31
0
0
SPLINE
5
182
100
AcDbEntity
8
0
100
AcDbSpline
70
0
71
2
72
6
73
3
74
0
42
0.000000001
43
0.0000000001
44
0.0000000001
40
0
40
0
40
0
40
1
40
1
40
1
10
33.772168904542923
20
59.206002652645111
30
0
10
33.772168904542923
20
59.497953355312347
30
0
10
33.824010640382767
20
59.639836251735687
30
0
0
SPLINE
5
183
100
AcDbEntity
8
0
100
AcDbSpline
70
0
71
2
72
6
73
3
74
0
42
0.000000001
43
0.0000000001
44
0.0000000001
40
0
40
0
40
0
40
1
40
1
40
1
10
33.824010640382767
20
59.639836251735687
30
0
10
33.894952088594437
20
59.830832183361053
30
0
10
34.073669463396072
20
59.949522316455841
30
0
0
SPLINE
5
184
100
AcDbEntity
8
0
100
AcDbSpline
70
0
71
2
72
6
73
3
74
0
42
0.000000001
43
0.0000000001
44
0.0000000001
40
0
40
0
40
0
40
1
40
1
40
1
10
34.073669463396072
20
59.949522316455841
30
0
10
34.252386838197708
20
60.068212747573853
30
0
10
34.574351459741592
20
60.068212747573853
30
0
0
SPLINE
5
185
100
AcDbEntity
8
0
100
AcDbSpline
70
0
71
2
72
6
73
3
74
0
42
0.000000001
43
0.0000000001
44
0.0000000001
40
0
40
0
40
0
40
1
40
1
40
1
10
34.574351459741592
20
60.068212747573853
30
0
10
34.781718999147415
20
60.068212747573853
30
0
10
35.032741576433182
20
60.019099414348602
30
0
0
LINE
5
186
100
AcDbEntity
8
0
100
AcDbLine
10
35.032741576433182
20
60.019099414348602
30
0
11
34.95907261967659
21
59.590722918510437
31
0
0
SPLINE
5
187
100
AcDbEntity
8
0
100
AcDbSpline
70
0
71
2
72
6
73
3
74
0
42
0.000000001
43
0.0000000001
44
0.0000000001
40
0
40
0
40
0
40
1
40
1
40
1
10
34.95907261967659
20
59.590722918510437
30
0
10
34.806274920701981
20
59.618008136749268
30
0
10
34.669849425554276
20
59.618008136749268
30
0
0
SPLINE
5
188
100
AcDbEntity
8
0
100
AcDbSpline
70
0
71
2
72
6
73
3
74
0
42
0.000000001
43
0.0000000001
44
0.0000000001
40
0
40
0
40
0
40
1
40
1
40
1
10
34.669849425554276
20
59.618008136749268
30
0
10
34.446111470460892
20
59.618008136749268
30
0
10
34.353342205286026
20
59.522510170936584
30
0
0
SPLINE
5
189
100
AcDbEntity
8
0
100
AcDbSpline
70
0
71
2
72
6
73
3
74
0
42
0.000000001
43
0.0000000001
44
0.0000000001
40
0
40
0
40
0
40
1
40
1
40
1
10
34.353342205286026
20
59.522510170936584
30
0
10
34.26057294011116
20
59.427012205123901
30
0
10
34.26057294011116
20
59.165074825286865
30
0
0
LINE
5
190
100
AcDbEntity
8
0
100
AcDbLine
10
34.26057294011116
20
59.165074825286858
30
0
11
34.26057294011116
21
58.897680640220642
31
0
0
LINE
5
191
100
AcDbEntity
8
0
100
AcDbLine
10
34.26057294011116
20
58.897680640220642
30
0
11
34.825374633073807
21
58.897680640220642
31
0
0
LINE
5
192
100
AcDbEntity
8
0
100
AcDbLine
10
34.825374633073807
20
58.897680640220642
30
0
11
34.825374633073807
21
58.51568877696991
31
0
0
LINE
5
193
100
AcDbEntity
8
0
100
AcDbLine
10
34.825374633073807
20
58.51568877696991
30
0
11
34.26057294011116
21
58.51568877696991
31
0
0
LINE
5
194
100
AcDbEntity
8
0
100
AcDbLine
10
34.26057294011116
20
58.51568877696991
30
0
11
34.26057294011116
21
55.999999940395355
31
0
0
LINE
5
195
100
AcDbEntity
8
0
100
AcDbLine
10
34.26057294011116
20
55.999999940395355
30
0
11
33.772168904542923
21
55.999999940395355
31
0
0
LWPOLYLINE
5
196
100
AcDbEntity
8
0
100
AcDbPolyline
90
8
70
1
43
0.0
10
37.739426642656326
20
55.999999940395355
10
37.739426642656326
20
59.527967274188995
10
36.421554833650589
20
59.527967274188995
10
36.421554833650589
20
60
10
39.59208682179451
20
60
10
39.59208682179451
20
59.527967274188995
10
38.268757611513138
20
59.527967274188995
10
38.268757611513138
20
55.999999940395355
0
LINE
5
197
100
AcDbEntity
8
0
100
AcDbLine
10
41.436562091112137
20
56.933151185512543
30
0
11
41.9440658390522
21
56.870395541191101
31
0
0
SPLINE
5
198
100
AcDbEntity
8
0
100
AcDbSpline
70
0
71
2
72
6
73
3
74
0
42
0.000000001
43
0.0000000001
44
0.0000000001
40
0
40
0
40
0
40
1
40
1
40
1
10
41.9440658390522
20
56.870395541191101
30
0
10
41.824011355638504
20
56.425648033618927
30
0
10
41.49931862950325
20
56.1800816655159
30
0
0
SPLINE
5
199
100
AcDbEntity
8
0
100
AcDbSpline
70
0
71
2
72
6
73
3
74
0
42
0.000000001
43
0.0000000001
44
0.0000000001
40
0
40
0
40
0
40
1
40
1
40
1
10
41.49931862950325
20
56.1800816655159
30
0
10
41.174624711275101
20
55.93451589345932
30
0
10
40.669849663972855
20
55.93451589345932
30
0
0
SPLINE
5
200
100
AcDbEntity
8
0
100
AcDbSpline
70
0
71
2
72
6
73
3
74
0
42
0.000000001
43
0.0000000001
44
0.0000000001
40
0
40
0
40
0
40
1
40
1
40
1
10
40.669849663972855
20
55.93451589345932
30
0
10
40.034106522798538
20
55.93451589345932
30
0
10
39.661664515733719
20
56.326057314872742
30
0
0
SPLINE
5
201
100
AcDbEntity
8
0
100
AcDbSpline
70
0
71
2
72
6
73
3
74
0
42
0.000000001
43
0.0000000001
44
0.0000000001
40
0
40
0
40
0
40
1
40
1
40
1
10
39.661664515733719
20
56.326057314872742
30
0
10
39.2892225086689
20
56.717598736286163
30
0
10
39.2892225086689
20
57.424283623695374
30
0
0
SPLINE
5
202
100
AcDbEntity
8
0
100
AcDbSpline
70
0
71
2
72
6
73
3
74
0
42
0.000000001
43
0.0000000001
44
0.0000000001
40
0
40
0
40
0
40
1
40
1
40
1
10
39.2892225086689
20
57.424283623695374
30
0
10
39.2892225086689
20
58.155525028705597
30
0
10
39.665756970643997
20
58.559345006942749
30
0
0
SPLINE
5
203
100
AcDbEntity
8
0
100
AcDbSpline
70
0
71
2
72
6
73
3
74
0
42
0.000000001
43
0.0000000001
44
0.0000000001
40
0
40
0
40
0
40
1
40
1
40
1
10
39.665756970643997
20
58.559345006942749
30
0
10
40.04229262471199
20
58.963164985179901
30
0
10
40.642565041780472
20
58.963164985179901
30
0
0
SPLINE
5
204
100
AcDbEntity
8
0
100
AcDbSpline
70
0
71
2
72
6
73
3
74
0
42
0.000000001
43
0.0000000001
44
0.0000000001
40
0
40
0
40
0
40
1
40
1
40
1
10
40.642565041780472
20
58.963164985179901
30
0
10
41.223737746477127
20
58.963164985179901
30
0
10
41.592087298631668
20
58.567530512809753
30
0
0
SPLINE
5
205
100
AcDbEntity
8
0
100
AcDbSpline
70
0
71
2
72
6
73
3
74
0
42
0.000000001
43
0.0000000001
44
0.0000000001
40
0
40
0
40
0
40
1
40
1
40
1
10
41.592087298631668
20
58.567530512809753
30
0
10
41.960436850786209
20
58.171896040439606
30
0
10
41.960436850786209
20
57.454297244548798
30
0
0
SPLINE
5
206
100
AcDbEntity
8
0
100
AcDbSpline
70
0
71
2
72
6
73
3
74
0
42
0.000000001
43
0.0000000001
44
0.0000000001
40
0
40
0
40
0
40
1
40
1
40
1
10
41.960436850786209
20
57.454297244548798
30
0
10
41.960436850786209
20
57.410641014575958
30
0
10
41.957708150148392
20
57.32332855463028
30
0
0
LINE
5
207
100
AcDbEntity
8
0
100
AcDbLine
10
41.957708150148392
20
57.323328554630287
30
0
11
39.796726256608963
21
57.32332855463028
31
0
0
SPLINE
5
208
100
AcDbEntity
8
0
100
AcDbSpline
70
0
71
2
72
6
73
3
74
0
42
0.000000001
43
0.0000000001
44
0.0000000001
40
0
40
0
40
0
40
1
40
1
40
1
10
39.796726256608963
20
57.32332855463028
30
0
10
39.824010878801346
20
56.845838725566864
30
0
10
40.066848546266556
20
56.592087149620056
30
0
0
SPLINE
5
209
100
AcDbEntity
8
0
100
AcDbSpline
70
0
71
2
72
6
73
3
74
0
42
0.000000001
43
0.0000000001
44
0.0000000001
40
0
40
0
40
0
40
1
40
1
40
1
10
40.066848546266556
20
56.592087149620056
30
0
10
40.309686213731766
20
56.338335573673248
30
0
10
40.672578364610672
20
56.338335573673248
30
0
0
SPLINE
5
210
100
AcDbEntity
8
0
100
AcDbSpline
70
0
71
2
72
6
73
3
74
0
42
0.000000001
43
0.0000000001
44
0.0000000001
40
0
40
0
40
0
40
1
40
1
40
1
10
40.672578364610672
20
56.338335573673248
30
0
10
40.94270184636116
20
56.338335573673248
30
0
10
41.133696585893631
20
56.480218172073364
30
0
0
SPLINE
5
211
100
AcDbEntity
8
0
100
AcDbSpline
70
0
71
2
72
6
73
3
74
0
42
0.000000001
43
0.0000000001
44
0.0000000001
40
0
40
0
40
0
40
1
40
1
40
1
10
41.133696585893631
20
56.480218172073364
30
0
10
41.324693709611893
20
56.62210077047348
30
0
10
41.436562091112137
20
56.933151185512543
30
0
0
LINE
5
212
100
AcDbEntity
8
0
100
AcDbLine
10
39.824010878801346
20
57.727148532867432
30
0
11
41.442019492387772
21
57.727148532867432
31
0
0
SPLINE
5
213
100
AcDbEntity
8
0
100
AcDbSpline
70
0
71
2
72
6
73
3
74
0
42
0.000000001
43
0.0000000001
44
0.0000000001
40
0
40
0
40
0
40
1
40
1
40
1
10
41.442019492387772
20
57.727148532867432
30
0
10
41.409277468919754
20
58.092769384384155
30
0
10
41.256479769945145
20
58.275579512119293
30
0
0
SPLINE
5
214
100
AcDbEntity
8
0
100
AcDbSpline
70
0
71
2
72
6
73
3
74
0
42
0.000000001
43
0.0000000001
44
0.0000000001
40
0
40
0
40
0
40
1
40
1
40
1
10
41.256479769945145
20
58.275579512119293
30
0
10
41.021828204393387
20
58.559345006942749
30
0
10
40.648022443056107
20
58.559345006942749
30
0
0
SPLINE
5
215
100
AcDbEntity
8
0
100
AcDbSpline
70
0
71
2
72
6
73
3
74
0
42
0.000000001
43
0.0000000001
44
0.0000000001
40
0
40
0
40
0
40
1
40
1
40
1
10
40.648022443056107
20
58.559345006942749
30
0
10
40.309686213731766
20
58.559345006942749
30
0
10
40.079127103090286
20
58.332878649234772
30
0
0
SPLINE
5
216
100
AcDbEntity
8
0
100
AcDbSpline
70
0
71
2
72
6
73
3
74
0
42
0.000000001
43
0.0000000001
44
0.0000000001
40
0
40
0
40
0
40
1
40
1
40
1
10
40.079127103090286
20
58.332878649234772
30
0
10
39.848567992448807
20
58.106411993503571
30
0
10
39.824010878801346
20
57.727148532867432
30
0
0
LINE
5
217
100
AcDbEntity
8
0
100
AcDbLine
10
42.36425593495369
20
56.86493843793869
30
0
11
42.849931269884109
21
56.941336691379547
31
0
0
SPLINE
5
218
100
AcDbEntity
8
0
100
AcDbSpline
70
0
71
2
72
6
73
3
74
0
42
0.000000001
43
0.0000000001
44
0.0000000001
40
0
40
0
40
0
40
1
40
1
40
1
10
42.849931269884109
20
56.941336691379547
30
0
10
42.890859395265579
20
56.649385988712311
30
0
10
43.077761679887772
20
56.49386078119278
30
0
0
SPLINE
5
219
100
AcDbEntity
8
0
100
AcDbSpline
70
0
71
2
72
6
73
3
74
0
42
0.000000001
43
0.0000000001
44
0.0000000001
40
0
40
0
40
0
40
1
40
1
40
1
10
43.077761679887772
20
56.49386078119278
30
0
10
43.264665156602859
20
56.338335573673248
30
0
10
43.600272685289383
20
56.338335573673248
30
0
0
SPLINE
5
220
100
AcDbEntity
8
0
100
AcDbSpline
70
0
71
2
72
6
73
3
74
0
42
0.000000001
43
0.0000000001
44
0.0000000001
40
0
40
0
40
0
40
1
40
1
40
1
10
43.600272685289383
20
56.338335573673248
30
0
10
43.938607722520828
20
56.338335573673248
30
0
10
44.102319031953812
20
56.476125419139862
30
0
0
SPLINE
5
221
100
AcDbEntity
8
0
100
AcDbSpline
70
0
71
2
72
6
73
3
74
0
42
0.000000001
43
0.0000000001
44
0.0000000001
40
0
40
0
40
0
40
1
40
1
40
1
10
44.102319031953812
20
56.476125419139862
30
0
10
44.2660291492939
20
56.613915264606476
30
0
10
44.2660291492939
20
56.799454391002655
30
0
0
SPLINE
5
222
100
AcDbEntity
8
0
100
AcDbSpline
70
0
71
2
72
6
73
3
74
0
42
0.000000001
43
0.0000000001
44
0.0000000001
40
0
40
0
40
0
40
1
40
1
40
1
10
44.2660291492939
20
56.799454391002655
30
0
10
44.2660291492939
20
56.965893507003784
30
0
10
44.121418744325638
20
57.061391472816467
30
0
0
SPLINE
5
223
100
AcDbEntity
8
0
100
AcDbSpline
70
0
71
2
72
6
73
3
74
0
42
0.000000001
43
0.0000000001
44
0.0000000001
40
0
40
0
40
0
40
1
40
1
40
1
10
44.121418744325638
20
57.061391472816467
30
0
10
44.020462781190872
20
57.126875817775726
30
0
10
43.619372397661209
20
57.227830588817596
30
0
0
SPLINE
5
224
100
AcDbEntity
8
0
100
AcDbSpline
70
0
71
2
72
6
73
3
74
0
42
0.000000001
43
0.0000000001
44
0.0000000001
40
0
40
0
40
0
40
1
40
1
40
1
10
43.619372397661209
20
57.227830588817596
30
0
10
43.079126626253128
20
57.364256381988525
30
0
10
42.870394736528397
20
57.463847100734711
30
0
0
SPLINE
5
225
100
AcDbEntity
8
0
100
AcDbSpline
70
0
71
2
72
6
73
3
74
0
42
0.000000001
43
0.0000000001
44
0.0000000001
40
0
40
0
40
0
40
1
40
1
40
1
10
42.870394736528397
20
57.463847100734711
30
0
10
42.661664038896561
20
57.563437819480896
30
0
10
42.553888112306595
20
57.739426791667938
30
0
0
SPLINE
5
226
100
AcDbEntity
8
0
100
AcDbSpline
70
0
71
2
72
6
73
3
74
0
42
0.000000001
43
0.0000000001
44
0.0000000001
40
0
40
0
40
0
40
1
40
1
40
1
10
42.553888112306595
20
57.739426791667938
30
0
10
42.446110993623734
20
57.915416061878204
30
0
10
42.446110993623734
20
58.128239810466766
30
0
0
SPLINE
5
227
100
AcDbEntity
8
0
100
AcDbSpline
70
0
71
2
72
6
73
3
74
0
42
0.000000001
43
0.0000000001
44
0.0000000001
40
0
40
0
40
0
40
1
40
1
40
1
10
42.446110993623734
20
58.128239810466766
30
0
10
42.446110993623734
20
58.32196444272995
30
0
10
42.534788399934769
20
58.487039506435394
30
0
0
SPLINE
5
228
100
AcDbEntity
8
0
100
AcDbSpline
70
0
71
2
72
6
73
3
74
0
42
0.000000001
43
0.0000000001
44
0.0000000001
40
0
40
0
40
0
40
1
40
1
40
1
10
42.534788399934769
20
58.487039506435394
30
0
10
42.623464614152908
20
58.652114570140839
30
0
10
42.776261121034622
20
58.761254847049713
30
0
0
SPLINE
5
229
100
AcDbEntity
8
0
100
AcDbSpline
70
0
71
2
72
6
73
3
74
0
42
0.000000001
43
0.0000000001
44
0.0000000001
40
0
40
0
40
0
40
1
40
1
40
1
10
42.776261121034622
20
58.761254847049713
30
0
10
42.890859395265579
20
58.845838904380798
30
0
10
43.088676482439041
20
58.904501795768738
30
0
0
SPLINE
5
230
100
AcDbEntity
8
0
100
AcDbSpline
70
0
71
2
72
6
73
3
74
0
42
0.000000001
43
0.0000000001
44
0.0000000001
40
0
40
0
40
0
40
1
40
1
40
1
10
43.088676482439041
20
58.904501795768738
30
0
10
43.286493569612503
20
58.963164985179901
30
0
10
43.512960225343704
20
58.963164985179901
30
0
0
SPLINE
5
231
100
AcDbEntity
8
0
100
AcDbSpline
70
0
71
2
72
6
73
3
74
0
42
0.000000001
43
0.0000000001
44
0.0000000001
40
0
40
0
40
0
40
1
40
1
40
1
10
43.512960225343704
20
58.963164985179901
30
0
10
43.854023963212967
20
58.963164985179901
30
0
10
44.111868888139725
20
58.864938616752625
30
0
0
SPLINE
5
232
100
AcDbEntity
8
0
100
AcDbSpline
70
0
71
2
72
6
73
3
74
0
42
0.000000001
43
0.0000000001
44
0.0000000001
40
0
40
0
40
0
40
1
40
1
40
1
10
44.111868888139725
20
58.864938616752625
30
0
10
44.369712620973587
20
58.766711950302124
30
0
10
44.492495805025101
20
58.598908483982086
30
0
0
SPLINE
5
233
100
AcDbEntity
8
0
100
AcDbSpline
70
0
71
2
72
6
73
3
74
0
42
0.000000001
43
0.0000000001
44
0.0000000001
40
0
40
0
40
0
40
1
40
1
40
1
10
44.492495805025101
20
58.598908483982086
30
0
10
44.61528018116951
20
58.431104719638824
30
0
10
44.661664515733719
20
58.15006822347641
30
0
0
LINE
5
234
100
AcDbEntity
8
0
100
AcDbLine
10
44.661664515733719
20
58.15006822347641
30
0
11
44.181445389986038
21
58.084583580493927
31
0
0
SPLINE
5
235
100
AcDbEntity
8
0
100
AcDbSpline
70
0
71
2
72
6
73
3
74
0
42
0.000000001
43
0.0000000001
44
0.0000000001
40
0
40
0
40
0
40
1
40
1
40
1
10
44.181445389986038
20
58.084583580493927
30
0
10
44.148703366518021
20
58.308321833610535
30
0
10
43.991814404726028
20
58.433833420276642
30
0
0
SPLINE
5
236
100
AcDbEntity
8
0
100
AcDbSpline
70
0
71
2
72
6
73
3
74
0
42
0.000000001
43
0.0000000001
44
0.0000000001
40
0
40
0
40
0
40
1
40
1
40
1
10
43.991814404726028
20
58.433833420276642
30
0
10
43.834924250841141
20
58.559345006942749
30
0
10
43.548430949449539
20
58.559345006942749
30
0
0
SPLINE
5
237
100
AcDbEntity
8
0
100
AcDbSpline
70
0
71
2
72
6
73
3
74
0
42
0.000000001
43
0.0000000001
44
0.0000000001
40
0
40
0
40
0
40
1
40
1
40
1
10
43.548430949449539
20
58.559345006942749
30
0
10
43.210094720125198
20
58.559345006942749
30
0
10
43.065483123064041
20
58.447476029396057
30
0
0
SPLINE
5
238
100
AcDbEntity
8
0
100
AcDbSpline
70
0
71
2
72
6
73
3
74
0
42
0.000000001
43
0.0000000001
44
0.0000000001
40
0
40
0
40
0
40
1
40
1
40
1
10
43.065483123064041
20
58.447476029396057
30
0
10
42.920872718095779
20
58.335606753826141
30
0
10
42.920872718095779
20
58.185538947582245
30
0
0
SPLINE
5
239
100
AcDbEntity
8
0
100
AcDbSpline
70
0
71
2
72
6
73
3
74
0
42
0.000000001
43
0.0000000001
44
0.0000000001
40
0
40
0
40
0
40
1
40
1
40
1
10
42.920872718095779
20
58.185538947582245
30
0
10
42.920872718095779
20
58.090040981769562
30
0
10
42.98089936375618
20
58.013642430305481
30
0
0
SPLINE
5
240
100
AcDbEntity
8
0
100
AcDbSpline
70
0
71
2
72
6
73
3
74
0
42
0.000000001
43
0.0000000001
44
0.0000000001
40
0
40
0
40
0
40
1
40
1
40
1
10
42.98089936375618
20
58.013642430305481
30
0
10
43.040927201509476
20
57.934515774250031
30
0
10
43.169167786836624
20
57.882674038410187
30
0
0
SPLINE
5
241
100
AcDbEntity
8
0
100
AcDbSpline
70
0
71
2
72
6
73
3
74
0
42
0.000000001
43
0.0000000001
44
0.0000000001
40
0
40
0
40
0
40
1
40
1
40
1
10
43.169167786836624
20
57.882674038410187
30
0
10
43.242836743593216
20
57.855388820171356
30
0
10
43.603000193834305
20
57.757162153720856
30
0
0
SPLINE
5
242
100
AcDbEntity
8
0
100
AcDbSpline
70
0
71
2
72
6
73
3
74
0
42
0.000000001
43
0.0000000001
44
0.0000000001
40
0
40
0
40
0
40
1
40
1
40
1
10
43.603000193834305
20
57.757162153720856
30
0
10
44.12414625287056
20
57.618007957935333
30
0
10
44.330149441957474
20
57.52933144569397
30
0
0
SPLINE
5
243
100
AcDbEntity
8
0
100
AcDbSpline
70
0
71
2
72
6
73
3
74
0
42
0.000000001
43
0.0000000001
44
0.0000000001
40
0
40
0
40
0
40
1
40
1
40
1
10
44.330149441957474
20
57.52933144569397
30
0
10
44.536152631044388
20
57.440654933452606
30
0
10
44.653477221727371
20
57.271486818790436
30
0
0
SPLINE
5
244
100
AcDbEntity
8
0
100
AcDbSpline
70
0
71
2
72
6
73
3
74
0
42
0.000000001
43
0.0000000001
44
0.0000000001
40
0
40
0
40
0
40
1
40
1
40
1
10
44.653477221727371
20
57.271486818790436
30
0
10
44.770805388689041
20
57.102319300174713
30
0
10
44.770805388689041
20
56.851296126842499
30
0
0
SPLINE
5
245
100
AcDbEntity
8
0
100
AcDbSpline
70
0
71
2
72
6
73
3
74
0
42
0.000000001
43
0.0000000001
44
0.0000000001
40
0
40
0
40
0
40
1
40
1
40
1
10
44.770805388689041
20
56.851296126842499
30
0
10
44.770805388689041
20
56.605729758739471
30
0
10
44.627556353807449
20
56.388812959194183
30
0
0
SPLINE
5
246
100
AcDbEntity
8
0
100
AcDbSpline
70
0
71
2
72
6
73
3
74
0
42
0.000000001
43
0.0000000001
44
0.0000000001
40
0
40
0
40
0
40
1
40
1
40
1
10
44.627556353807449
20
56.388812959194183
30
0
10
44.484310895204544
20
56.171896159648895
30
0
10
44.214187413454056
20
56.053206026554108
30
0
0
SPLINE
5
247
100
AcDbEntity
8
0
100
AcDbSpline
70
0
71
2
72
6
73
3
74
0
42
0.000000001
43
0.0000000001
44
0.0000000001
40
0
40
0
40
0
40
1
40
1
40
1
10
44.214187413454056
20
56.053206026554108
30
0
10
43.944065123796463
20
55.93451589345932
30
0
10
43.603000193834305
20
55.93451589345932
30
0
0
SPLINE
5
248
100
AcDbEntity
8
0
100
AcDbSpline
70
0
71
2
72
6
73
3
74
0
42
0.000000001
43
0.0000000001
44
0.0000000001
40
0
40
0
40
0
40
1
40
1
40
1
10
43.603000193834305
20
55.93451589345932
30
0
10
43.038198500871658
20
55.93451589345932
30
0
10
42.742155343294144
20
56.169167757034302
30
0
0
SPLINE
5
249
100
AcDbEntity
8
0
100
AcDbSpline
70
0
71
2
72
6
73
3
74
0
42
0.000000001
43
0.0000000001
44
0.0000000001
40
0
40
0
40
0
40
1
40
1
40
1
10
42.742155343294144
20
56.169167757034302
30
0
10
42.446110993623734
20
56.403819918632507
30
0
10
42.36425593495369
20
56.86493843793869
30
0
0
LINE
5
250
100
AcDbEntity
8
0
100
AcDbLine
10
46.427011042833328
20
56.439290642738342
30
0
11
46.497952491044998
21
56.005456745624542
31
0
0
SPLINE
5
251
100
AcDbEntity
8
0
100
AcDbSpline
70
0
71
2
72
6
73
3
74
0
42
0.000000001
43
0.0000000001
44
0.0000000001
40
0
40
0
40
0
40
1
40
1
40
1
10
46.497952491044998
20
56.005456745624542
30
0
10
46.290585547685623
20
55.961800515651703
30
0
10
46.126875430345535
20
55.961800515651703
30
0
0
SPLINE
5
252
100
AcDbEntity
8
0
100
AcDbSpline
70
0
71
2
72
6
73
3
74
0
42
0.000000001
43
0.0000000001
44
0.0000000001
40
0
40
0
40
0
40
1
40
1
40
1
10
46.126875430345535
20
55.961800515651703
30
0
10
45.85948184132576
20
55.961800515651703
30
0
10
45.712141543626785
20
56.046384871006012
30
0
0
SPLINE
5
253
100
AcDbEntity
8
0
100
AcDbSpline
70
0
71
2
72
6
73
3
74
0
42
0.000000001
43
0.0000000001
44
0.0000000001
40
0
40
0
40
0
40
1
40
1
40
1
10
45.712141543626785
20
56.046384871006012
30
0
10
45.564801245927811
20
56.130968630313873
30
0
10
45.50477460026741
20
56.268758475780487
30
0
0
SPLINE
5
254
100
AcDbEntity
8
0
100
AcDbSpline
70
0
71
2
72
6
73
3
74
0
42
0.000000001
43
0.0000000001
44
0.0000000001
40
0
40
0
40
0
40
1
40
1
40
1
10
45.50477460026741
20
56.268758475780487
30
0
10
45.44474795460701
20
56.406548321247101
30
0
10
45.44474795460701
20
56.848567426204681
30
0
0
LINE
5
255
100
AcDbEntity
8
0
100
AcDbLine
10
45.44474795460701
20
56.848567426204681
30
0
11
45.44474795460701
21
58.51568877696991
31
0
0
LINE
5
256
100
AcDbEntity
8
0
100
AcDbLine
10
45.44474795460701
20
58.51568877696991
30
0
11
45.084583312273026
21
58.51568877696991
31
0
0
LINE
5
257
100
AcDbEntity
8
0
100
AcDbLine
10
45.084583312273026
20
58.51568877696991
30
0
11
45.084583312273026
21
58.897680640220642
31
0
0
LINE
5
258
100
AcDbEntity
8
0
100
AcDbLine
10
45.084583312273026
20
58.897680640220642
30
0
11
45.44474795460701
21
58.897680640220642
31
0
0
LINE
5
259
100
AcDbEntity
8
0
100
AcDbLine
10
45.44474795460701
20
58.897680640220642
30
0
11
45.44474795460701
21
59.615279734134674
31
0
0
LINE
5
260
100
AcDbEntity
8
0
100
AcDbLine
10
45.44474795460701
20
59.615279734134674
30
0
11
45.933150798082352
21
59.909959137439728
31
0
0
LINE
5
261
100
AcDbEntity
8
0
100
AcDbLine
10
45.933150798082352
20
59.909959137439728
30
0
11
45.933150798082352
21
58.897680640220642
31
0
0
LINE
5
262
100
AcDbEntity
8
0
100
AcDbLine
10
45.933150798082352
20
58.897680640220642
30
0
11
46.427011042833328
21
58.897680640220642
31
0
0
LINE
5
263
100
AcDbEntity
8
0
100
AcDbLine
10
46.427011042833328
20
58.897680640220642
30
0
11
46.427011042833328
21
58.51568877696991
31
0
0
LINE
5
264
100
AcDbEntity
8
0
100
AcDbLine
10
46.427011042833328
20
58.51568877696991
30
0
11
45.933150798082352
21
58.51568877696991
31
0
0
LINE
5
265
100
AcDbEntity
8
0
100
AcDbLine
10
45.933150798082352
20
58.51568877696991
30
0
11
45.933150798082352
21
56.821282207965851
31
0
0
SPLINE
5
266
100
AcDbEntity
8
0
100
AcDbSpline
70
0
71
2
72
6
73
3
74
0
42
0.000000001
43
0.0000000001
44
0.0000000001
40
0
40
0
40
0
40
1
40
1
40
1
10
45.933150798082352
20
56.821282207965851
30
0
10
45.933150798082352
20
56.611186861991882
30
0
10
45.959071666002274
20
56.551159620285034
30
0
0
SPLINE
5
267
100
AcDbEntity
8
0
100
AcDbSpline
70
0
71
2
72
6
73
3
74
0
42
0.000000001
43
0.0000000001
44
0.0000000001
40
0
40
0
40
0
40
1
40
1
40
1
10
45.959071666002274
20
56.551159620285034
30
0
10
45.984992533922195
20
56.491132378578186
30
0
10
46.043655425310135
20
56.455661654472351
30
0
0
SPLINE
5
268
100
AcDbEntity
8
0
100
AcDbSpline
70
0
71
2
72
6
73
3
74
0
42
0.000000001
43
0.0000000001
44
0.0000000001
40
0
40
0
40
0
40
1
40
1
40
1
10
46.043655425310135
20
56.455661654472351
30
0
10
46.102318316698074
20
56.420190930366516
30
0
10
46.211459189653397
20
56.420190930366516
30
0
0
SPLINE
5
269
100
AcDbEntity
8
0
100
AcDbSpline
70
0
71
2
72
6
73
3
74
0
42
0.000000001
43
0.0000000001
44
0.0000000001
40
0
40
0
40
0
40
1
40
1
40
1
10
46.211459189653397
20
56.420190930366516
30
0
10
46.293315440416336
20
56.420190930366516
30
0
10
46.427011042833328
20
56.439290642738342
30
0
0
LWPOLYLINE
5
270
100
AcDbEntity
8
0
100
AcDbPolyline
90
4
70
1
43
0.0
10
3.9754873845730065
20
25.090976231553576
10
3.9762277069809264
20
25.461371271308963
10
5.1078763078954665
20
25.459109402959701
10
5.1071359854875462
20
25.088714363204314
0
SPLINE
5
271
100
AcDbEntity
8
0
100
AcDbSpline
70
0
71
2
72
6
73
3
74
0
42
0.000000001
43
0.0000000001
44
0.0000000001
40
0
40
0
40
0
40
1
40
1
40
1
10
6.5775946857891761
20
25.664903532526779
30
0
10
6.5786581318055593
20
26.196962437271047
30
0
10
6.688787719661768
20
26.521094901611328
30
0
0
SPLINE
5
272
100
AcDbEntity
8
0
100
AcDbSpline
70
0
71
2
72
6
73
3
74
0
42
0.000000001
43
0.0000000001
44
0.0000000001
40
0
40
0
40
0
40
1
40
1
40
1
10
6.688787719661768
20
26.521094901611328
30
0
10
6.7989176055406038
20
26.845227365355942
30
0
10
7.0151623177232381
20
27.020784770712641
30
0
0
SPLINE
5
273
100
AcDbEntity
8
0
100
AcDbSpline
70
0
71
2
72
6
73
3
74
0
42
0.000000001
43
0.0000000001
44
0.0000000001
40
0
40
0
40
0
40
1
40
1
40
1
10
7.0151623177232381
20
27.020784770712641
30
0
10
7.2314073273328301
20
27.196341877451044
30
0
10
7.5588281000915707
20
27.195687449316559
30
0
0
SPLINE
5
274
100
AcDbEntity
8
0
100
AcDbSpline
70
0
71
2
72
6
73
3
74
0
42
0.000000001
43
0.0000000001
44
0.0000000001
40
0
40
0
40
0
40
1
40
1
40
1
10
7.5588281000915707
20
27.195687449316559
30
0
10
7.8003012329249009
20
27.195204807941916
30
0
10
7.9822345383158888
20
27.097637722184803
30
0
0
SPLINE
5
275
100
AcDbEntity
8
0
100
AcDbSpline
70
0
71
2
72
6
73
3
74
0
42
0.000000001
43
0.0000000001
44
0.0000000001
40
0
40
0
40
0
40
1
40
1
40
1
10
7.9822345383158888
20
27.097637722184803
30
0
10
8.1641684397521335
20
27.000070635236352
30
0
10
8.2824922650218173
20
26.816682406818444
30
0
0
SPLINE
5
276
100
AcDbEntity
8
0
100
AcDbSpline
70
0
71
2
72
6
73
3
74
0
42
0.000000001
43
0.0000000001
44
0.0000000001
40
0
40
0
40
0
40
1
40
1
40
1
10
8.2824922650218173
20
26.816682406818444
30
0
10
8.4008163883141282
20
26.633294177804871
30
0
10
8.4678212376247437
20
26.370199084875384
30
0
0
SPLINE
5
277
100
AcDbEntity
8
0
100
AcDbSpline
70
0
71
2
72
6
73
3
74
0
42
0.000000001
43
0.0000000001
44
0.0000000001
40
0
40
0
40
0
40
1
40
1
40
1
10
8.4678212376247437
20
26.370199084875384
30
0
10
8.5348263855536572
20
26.107104289372856
30
0
10
8.5339347268927952
20
25.66099332257663
30
0
0
SPLINE
5
278
100
AcDbEntity
8
0
100
AcDbSpline
70
0
71
2
72
6
73
3
74
0
42
0.000000001
43
0.0000000001
44
0.0000000001
40
0
40
0
40
0
40
1
40
1
40
1
10
8.5339347268927952
20
25.66099332257663
30
0
10
8.5328794606026435
20
25.133026864568091
30
0
10
8.423772984728199
20
24.808892504307561
30
0
0
SPLINE
5
279
100
AcDbEntity
8
0
100
AcDbSpline
70
0
71
2
72
6
73
3
74
0
42
0.000000001
43
0.0000000001
44
0.0000000001
40
0
40
0
40
0
40
1
40
1
40
1
10
8.423772984728199
20
24.808892504307561
30
0
10
8.3146665082580888
20
24.484757846024404
30
0
10
8.0984194531212683
20
24.308177329579443
30
0
0
SPLINE
5
280
100
AcDbEntity
8
0
100
AcDbSpline
70
0
71
2
72
6
73
3
74
0
42
0.000000001
43
0.0000000001
44
0.0000000001
40
0
40
0
40
0
40
1
40
1
40
1
10
8.0984194531212683
20
24.308177329579443
30
0
10
7.8821723985801189
20
24.131597111157109
30
0
10
7.5527051044308884
20
24.132255629750382
30
0
0
SPLINE
5
281
100
AcDbEntity
8
0
100
AcDbSpline
70
0
71
2
72
6
73
3
74
0
42
0.000000001
43
0.0000000001
44
0.0000000001
40
0
40
0
40
0
40
1
40
1
40
1
10
7.5527051044308884
20
24.132255629750382
30
0
10
7.1188723719097178
20
24.133122747445551
30
0
10
6.8718822758197007
20
24.444667452134858
30
0
0
SPLINE
5
282
100
AcDbEntity
8
0
100
AcDbSpline
70
0
71
2
72
6
73
3
74
0
42
0.000000001
43
0.0000000001
44
0.0000000001
40
0
40
0
40
0
40
1
40
1
40
1
10
6.8718822758197007
20
24.444667452134858
30
0
10
6.5759054418714413
20
24.819748014644063
30
0
10
6.5775946857891761
20
25.664903532526779
30
0
0
SPLINE
5
283
100
AcDbEntity
8
0
100
AcDbSpline
70
0
71
2
72
6
73
3
74
0
42
0.000000001
43
0.0000000001
44
0.0000000001
40
0
40
0
40
0
40
1
40
1
40
1
10
6.9561752150612683
20
25.664146849475063
30
0
10
6.9546986607042127
20
24.92540329135478
30
0
10
7.1271288721149082
20
24.680515203827056
30
0
0
SPLINE
5
284
100
AcDbEntity
8
0
100
AcDbSpline
70
0
71
2
72
6
73
3
74
0
42
0.000000001
43
0.0000000001
44
0.0000000001
40
0
40
0
40
0
40
1
40
1
40
1
10
7.1271288721149082
20
24.680515203827056
30
0
10
7.2995593815482334
20
24.435627115703667
30
0
10
7.553310450633993
20
24.435119933959008
30
0
0
SPLINE
5
285
100
AcDbEntity
8
0
100
AcDbSpline
70
0
71
2
72
6
73
3
74
0
42
0.000000001
43
0.0000000001
44
0.0000000001
40
0
40
0
40
0
40
1
40
1
40
1
10
7.553310450633993
20
24.435119933959008
30
0
10
7.8070618177423823
20
24.434612751618676
30
0
10
7.9804716264232578
20
24.679832711545131
30
0
0
SPLINE
5
286
100
AcDbEntity
8
0
100
AcDbSpline
70
0
71
2
72
6
73
3
74
0
42
0.000000001
43
0.0000000001
44
0.0000000001
40
0
40
0
40
0
40
1
40
1
40
1
10
7.9804716264232578
20
24.679832711545131
30
0
10
8.1538817331267612
20
24.925052670875925
30
0
10
8.1553541976207029
20
25.661750005628345
30
0
0
SPLINE
5
287
100
AcDbEntity
8
0
100
AcDbSpline
70
0
71
2
72
6
73
3
74
0
42
0.000000001
43
0.0000000001
44
0.0000000001
40
0
40
0
40
0
40
1
40
1
40
1
10
8.1553541976207029
20
25.661750005628345
30
0
10
8.1568348418408743
20
26.402539787116488
30
0
10
7.9844022874759935
20
26.64640476355595
30
0
0
SPLINE
5
288
100
AcDbEntity
8
0
100
AcDbSpline
70
0
71
2
72
6
73
3
74
0
42
0.000000001
43
0.0000000001
44
0.0000000001
40
0
40
0
40
0
40
1
40
1
40
1
10
7.9844022874759935
20
26.64640476355595
30
0
10
7.8119700311337414
20
26.890269739399741
30
0
10
7.5541259192669985
20
26.890785102061969
30
0
0
SPLINE
5
289
100
AcDbEntity
8
0
100
AcDbSpline
70
0
71
2
72
6
73
3
74
0
42
0.000000001
43
0.0000000001
44
0.0000000001
40
0
40
0
40
0
40
1
40
1
40
1
10
7.5541259192669985
20
26.890785102061969
30
0
10
7.300374850181238
20
26.891292283806632
30
0
10
7.1485132290924565
20
26.676724814015458
30
0
0
SPLINE
5
290
100
AcDbEntity
8
0
100
AcDbSpline
70
0
71
2
72
6
73
3
74
0
42
0.000000001
43
0.0000000001
44
0.0000000001
40
0
40
0
40
0
40
1
40
1
40
1
10
7.1485132290924565
20
26.676724814015458
30
0
10
6.957651769120492
20
26.402890258584037
30
0
10
6.9561752150612683
20
25.664146849475063
30
0
0
LWPOLYLINE
5
291
100
AcDbEntity
8
0
100
AcDbPolyline
90
4
70
1
43
0.0
10
9.1121496681826972
20
24.180298372493382
10
9.1129881544533902
20
24.599806349349002
10
9.53249613130901
20
24.598967863078308
10
9.5316576450383188
20
24.179459886222688
0
LINE
5
292
100
AcDbEntity
8
0
100
AcDbLine
10
12.006439435745317
20
24.528538624379991
30
0
11
12.005731835220656
21
24.174514861680642
31
0
0
LINE
5
293
100
AcDbEntity
8
0
100
AcDbLine
10
12.005731835220656
20
24.174514861680642
30
0
11
10.022789400221686
21
24.17847824282962
31
0
0
SPLINE
5
294
100
AcDbEntity
8
0
100
AcDbSpline
70
0
71
2
72
6
73
3
74
0
42
0.000000001
43
0.0000000001
44
0.0000000001
40
0
40
0
40
0
40
1
40
1
40
1
10
10.022789400221686
20
24.17847824282962
30
0
10
10.018962218795881
20
24.311501075427596
30
0
10
10.066274343376524
20
24.434189940223781
30
0
0
SPLINE
5
295
100
AcDbEntity
8
0
100
AcDbSpline
70
0
71
2
72
6
73
3
74
0
42
0.000000001
43
0.0000000001
44
0.0000000001
40
0
40
0
40
0
40
1
40
1
40
1
10
10.066274343376524
20
24.434189940223781
30
0
10
10.142395495863102
20
24.636630213970207
30
0
10
10.309568172554989
20
24.83274950698144
30
0
0
SPLINE
5
296
100
AcDbEntity
8
0
100
AcDbSpline
70
0
71
2
72
6
73
3
74
0
42
0.000000001
43
0.0000000001
44
0.0000000001
40
0
40
0
40
0
40
1
40
1
40
1
10
10.309568172554989
20
24.83274950698144
30
0
10
10.476740848651207
20
25.028868501970049
30
0
10
10.792398451774492
20
25.286082727263665
30
0
0
SPLINE
5
297
100
AcDbEntity
8
0
100
AcDbSpline
70
0
71
2
72
6
73
3
74
0
42
0.000000001
43
0.0000000001
44
0.0000000001
40
0
40
0
40
0
40
1
40
1
40
1
10
10.792398451774492
20
25.286082727263665
30
0
10
11.282285062366892
20
25.686195800368079
30
0
10
11.454649859672791
20
25.920162830454942
30
0
0
SPLINE
5
298
100
AcDbEntity
8
0
100
AcDbSpline
70
0
71
2
72
6
73
3
74
0
42
0.000000001
43
0.0000000001
44
0.0000000001
40
0
40
0
40
0
40
1
40
1
40
1
10
11.454649859672791
20
25.920162830454942
30
0
10
11.627014060933433
20
26.154129861733146
30
0
10
11.627431259137225
20
26.362860738477025
30
0
0
SPLINE
5
299
100
AcDbEntity
8
0
100
AcDbSpline
70
0
71
2
72
6
73
3
74
0
42
0.000000001
43
0.0000000001
44
0.0000000001
40
0
40
0
40
0
40
1
40
1
40
1
10
11.627431259137225
20
26.362860738477025
30
0
10
11.627868907847922
20
26.581823328105472
30
0
10
11.471621229746527
20
26.732545416487842
30
0
0
SPLINE
5
300
100
AcDbEntity
8
0
100
AcDbSpline
70
0
71
2
72
6
73
3
74
0
42
0.000000001
43
0.0000000001
44
0.0000000001
40
0
40
0
40
0
40
1
40
1
40
1
10
11.471621229746527
20
26.732545416487842
30
0
10
11.315374146796886
20
26.883267056644932
30
0
10
11.06366900305636
20
26.883770149122146
30
0
0
SPLINE
5
301
100
AcDbEntity
8
0
100
AcDbSpline
70
0
71
2
72
6
73
3
74
0
42
0.000000001
43
0.0000000001
44
0.0000000001
40
0
40
0
40
0
40
1
40
1
40
1
10
11.06366900305636
20
26.883770149122146
30
0
10
10.797639699695541
20
26.884301871832502
30
0
10
10.637702726306548
20
26.725003264552502
30
0
0
SPLINE
5
302
100
AcDbEntity
8
0
100
AcDbSpline
70
0
71
2
72
6
73
3
74
0
42
0.000000001
43
0.0000000001
44
0.0000000001
40
0
40
0
40
0
40
1
40
1
40
1
10
10.637702726306548
20
26.725003264552502
30
0
10
10.477766348962811
20
26.565704656081163
30
0
10
10.475155084956075
20
26.283308166718754
30
0
0
LINE
5
303
100
AcDbEntity
8
0
100
AcDbLine
10
10.475155084956075
20
26.283308166718754
30
0
11
10.096652865085103
21
26.322946072794796
31
0
0
SPLINE
5
304
100
AcDbEntity
8
0
100
AcDbSpline
70
0
71
2
72
6
73
3
74
0
42
0.000000001
43
0.0000000001
44
0.0000000001
40
0
40
0
40
0
40
1
40
1
40
1
10
10.096652865085103
20
26.322946072794799
30
0
10
10.136380755893359
20
26.746469081052911
30
0
10
10.390575311653198
20
26.967994420629413
30
0
0
SPLINE
5
305
100
AcDbEntity
8
0
100
AcDbSpline
70
0
71
2
72
6
73
3
74
0
42
0.000000001
43
0.0000000001
44
0.0000000001
40
0
40
0
40
0
40
1
40
1
40
1
10
10.390575311653198
20
26.967994420629413
30
0
10
10.644770462862624
20
27.189519460991953
30
0
10
11.072463929234955
20
27.188664614077464
30
0
0
SPLINE
5
306
100
AcDbEntity
8
0
100
AcDbSpline
70
0
71
2
72
6
73
3
74
0
42
0.000000001
43
0.0000000001
44
0.0000000001
40
0
40
0
40
0
40
1
40
1
40
1
10
11.072463929234955
20
27.188664614077464
30
0
10
11.504250438388262
20
27.187801586245417
30
0
10
11.755476435167678
20
26.947871883516697
30
0
0
SPLINE
5
307
100
AcDbEntity
8
0
100
AcDbSpline
70
0
71
2
72
6
73
3
74
0
42
0.000000001
43
0.0000000001
44
0.0000000001
40
0
40
0
40
0
40
1
40
1
40
1
10
11.755476435167678
20
26.947871883516697
30
0
10
12.006703027992348
20
26.707942179596639
30
0
10
12.005995427467687
20
26.353918416897294
30
0
0
SPLINE
5
308
100
AcDbEntity
8
0
100
AcDbSpline
70
0
71
2
72
6
73
3
74
0
42
0.000000001
43
0.0000000001
44
0.0000000001
40
0
40
0
40
0
40
1
40
1
40
1
10
12.005995427467687
20
26.353918416897294
30
0
10
12.005635491815013
20
26.173836902473194
30
0
10
11.931617825247418
20
26.00004190118344
30
0
0
SPLINE
5
309
100
AcDbEntity
8
0
100
AcDbSpline
70
0
71
2
72
6
73
3
74
0
42
0.000000001
43
0.0000000001
44
0.0000000001
40
0
40
0
40
0
40
1
40
1
40
1
10
11.931617825247418
20
26.00004190118344
30
0
10
11.857600754427242
20
25.826246749691034
30
0
10
11.686343215574107
20
25.634228531367029
30
0
0
SPLINE
5
310
100
AcDbEntity
8
0
100
AcDbSpline
70
0
71
2
72
6
73
3
74
0
42
0.000000001
43
0.0000000001
44
0.0000000001
40
0
40
0
40
0
40
1
40
1
40
1
10
11.686343215574107
20
25.634228531367029
30
0
10
11.515086272766224
20
25.442210311851689
30
0
10
11.117417751718904
20
25.107397245756033
30
0
0
SPLINE
5
311
100
AcDbEntity
8
0
100
AcDbSpline
70
0
71
2
72
6
73
3
74
0
42
0.000000001
43
0.0000000001
44
0.0000000001
40
0
40
0
40
0
40
1
40
1
40
1
10
11.117417751718904
20
25.107397245756033
30
0
10
10.785347672503134
20
24.829752317172211
30
0
10
10.691015871189951
20
24.73069088324187
30
0
0
SPLINE
5
312
100
AcDbEntity
8
0
100
AcDbSpline
70
0
71
2
72
6
73
3
74
0
42
0.000000001
43
0.0000000001
44
0.0000000001
40
0
40
0
40
0
40
1
40
1
40
1
10
10.691015871189951
20
24.73069088324187
30
0
10
10.59668347383151
20
24.631629450502864
30
0
10
10.535091585653591
20
24.531479462313413
30
0
0
LINE
5
313
100
AcDbEntity
8
0
100
AcDbLine
10
10.535091585653591
20
24.531479462313417
30
0
11
12.006439435745317
21
24.528538624379991
31
0
0
SPLINE
5
314
100
AcDbEntity
8
0
100
AcDbSpline
70
0
71
2
72
6
73
3
74
0
42
0.000000001
43
0.0000000001
44
0.0000000001
40
0
40
0
40
0
40
1
40
1
40
1
10
12.403640542103389
20
25.653258796949771
30
0
10
12.404703988119772
20
26.185317701694039
30
0
10
12.51483387399861
20
26.509450165438651
30
0
0
SPLINE
5
315
100
AcDbEntity
8
0
100
AcDbSpline
70
0
71
2
72
6
73
3
74
0
42
0.000000001
43
0.0000000001
44
0.0000000001
40
0
40
0
40
0
40
1
40
1
40
1
10
12.51483387399861
20
26.509450165438651
30
0
10
12.624963163832188
20
26.833582630374604
30
0
10
12.84120847206008
20
27.009140034539968
30
0
0
SPLINE
5
316
100
AcDbEntity
8
0
100
AcDbSpline
70
0
71
2
72
6
73
3
74
0
42
0.000000001
43
0.0000000001
44
0.0000000001
40
0
40
0
40
0
40
1
40
1
40
1
10
12.84120847206008
20
27.009140034539968
30
0
10
13.057453183647043
20
27.184697141874036
30
0
10
13.384873956405784
20
27.184042713739551
30
0
0
SPLINE
5
317
100
AcDbEntity
8
0
100
AcDbSpline
70
0
71
2
72
6
73
3
74
0
42
0.000000001
43
0.0000000001
44
0.0000000001
40
0
40
0
40
0
40
1
40
1
40
1
10
13.384873956405784
20
27.184042713739551
30
0
10
13.626346791216486
20
27.183560072960582
30
0
10
13.80828069265273
20
27.085992986012126
30
0
0
SPLINE
5
318
100
AcDbEntity
8
0
100
AcDbSpline
70
0
71
2
72
6
73
3
74
0
42
0.000000001
43
0.0000000001
44
0.0000000001
40
0
40
0
40
0
40
1
40
1
40
1
10
13.80828069265273
20
27.085992986012126
30
0
10
13.990214594088975
20
26.988425899063671
30
0
10
14.108537823313402
20
26.805037671837106
30
0
0
SPLINE
5
319
100
AcDbEntity
8
0
100
AcDbSpline
70
0
71
2
72
6
73
3
74
0
42
0.000000001
43
0.0000000001
44
0.0000000001
40
0
40
0
40
0
40
1
40
1
40
1
10
14.108537823313402
20
26.805037671837106
30
0
10
14.226862244628343
20
26.621649442227863
30
0
10
14.293867391961586
20
26.358554348702711
30
0
0
SPLINE
5
320
100
AcDbEntity
8
0
100
AcDbSpline
70
0
71
2
72
6
73
3
74
0
42
0.000000001
43
0.0000000001
44
0.0000000001
40
0
40
0
40
0
40
1
40
1
40
1
10
14.293867391961586
20
26.358554348702711
30
0
10
14.360872539890499
20
26.095459553200186
30
0
10
14.359980881229637
20
25.649348586403956
30
0
0
SPLINE
5
321
100
AcDbEntity
8
0
100
AcDbSpline
70
0
71
2
72
6
73
3
74
0
42
0.000000001
43
0.0000000001
44
0.0000000001
40
0
40
0
40
0
40
1
40
1
40
1
10
14.359980881229637
20
25.649348586403956
30
0
10
14.358925614939487
20
25.121382128395414
30
0
10
14.249818543019783
20
24.797247769326223
30
0
0
SPLINE
5
322
100
AcDbEntity
8
0
100
AcDbSpline
70
0
71
2
72
6
73
3
74
0
42
0.000000001
43
0.0000000001
44
0.0000000001
40
0
40
0
40
0
40
1
40
1
40
1
10
14.249818543019783
20
24.797247769326223
30
0
10
14.140712662594929
20
24.473113109851731
30
0
10
13.924465309435483
20
24.296532594002436
30
0
0
SPLINE
5
323
100
AcDbEntity
8
0
100
AcDbSpline
70
0
71
2
72
6
73
3
74
0
42
0.000000001
43
0.0000000001
44
0.0000000001
40
0
40
0
40
0
40
1
40
1
40
1
10
13.924465309435483
20
24.296532594002436
30
0
10
13.708218552916961
20
24.119952374984432
30
0
10
13.378750960745101
20
24.120610894173375
30
0
0
SPLINE
5
324
100
AcDbEntity
8
0
100
AcDbSpline
70
0
71
2
72
6
73
3
74
0
42
0.000000001
43
0.0000000001
44
0.0000000001
40
0
40
0
40
0
40
1
40
1
40
1
10
13.378750960745101
20
24.120610894173375
30
0
10
12.944918228223932
20
24.121478011868543
30
0
10
12.697927834111287
20
24.43302271715352
30
0
0
SPLINE
5
325
100
AcDbEntity
8
0
100
AcDbSpline
70
0
71
2
72
6
73
3
74
0
42
0.000000001
43
0.0000000001
44
0.0000000001
40
0
40
0
40
0
40
1
40
1
40
1
10
12.697927834111287
20
24.43302271715352
30
0
10
12.401951298185654
20
24.808103279067055
30
0
10
12.403640542103389
20
25.653258796949771
30
0
0
SPLINE
5
326
100
AcDbEntity
8
0
100
AcDbSpline
70
0
71
2
72
6
73
3
74
0
42
0.000000001
43
0.0000000001
44
0.0000000001
40
0
40
0
40
0
40
1
40
1
40
1
10
12.782221071375481
20
25.652502113898056
30
0
10
12.780744517018425
20
24.913758555777772
30
0
10
12.953175026451751
20
24.668870467654379
30
0
0
SPLINE
5
327
100
AcDbEntity
8
0
100
AcDbSpline
70
0
71
2
72
6
73
3
74
0
42
0.000000001
43
0.0000000001
44
0.0000000001
40
0
40
0
40
0
40
1
40
1
40
1
10
12.953175026451751
20
24.668870467654379
30
0
10
13.125604939839818
20
24.423982380722329
30
0
10
13.379356306948205
20
24.423475198382
30
0
0
SPLINE
5
328
100
AcDbEntity
8
0
100
AcDbSpline
70
0
71
2
72
6
73
3
74
0
42
0.000000001
43
0.0000000001
44
0.0000000001
40
0
40
0
40
0
40
1
40
1
40
1
10
13.379356306948205
20
24.423475198382
30
0
10
13.633107674056593
20
24.422968016041668
30
0
10
13.8065177807601
20
24.668187975372454
30
0
0
SPLINE
5
329
100
AcDbEntity
8
0
100
AcDbSpline
70
0
71
2
72
6
73
3
74
0
42
0.000000001
43
0.0000000001
44
0.0000000001
40
0
40
0
40
0
40
1
40
1
40
1
10
13.8065177807601
20
24.668187975372454
30
0
10
13.979927887463601
20
24.913407934703248
30
0
10
13.981400351957545
20
25.650105269455668
30
0
0
SPLINE
5
330
100
AcDbEntity
8
0
100
AcDbSpline
70
0
71
2
72
6
73
3
74
0
42
0.000000001
43
0.0000000001
44
0.0000000001
40
0
40
0
40
0
40
1
40
1
40
1
10
13.981400351957545
20
25.650105269455668
30
0
10
13.982880996177713
20
26.390895050943818
30
0
10
13.810448441812834
20
26.634760027383276
30
0
0
SPLINE
5
331
100
AcDbEntity
8
0
100
AcDbSpline
70
0
71
2
72
6
73
3
74
0
42
0.000000001
43
0.0000000001
44
0.0000000001
40
0
40
0
40
0
40
1
40
1
40
1
10
13.810448441812834
20
26.634760027383276
30
0
10
13.638015887447953
20
26.878625003822734
30
0
10
13.380172073603839
20
26.879140365889292
30
0
0
SPLINE
5
332
100
AcDbEntity
8
0
100
AcDbSpline
70
0
71
2
72
6
73
3
74
0
42
0.000000001
43
0.0000000001
44
0.0000000001
40
0
40
0
40
0
40
1
40
1
40
1
10
13.380172073603839
20
26.879140365889292
30
0
10
13.126420706495452
20
26.879647548229624
30
0
10
12.974558787384041
20
26.665080079034119
30
0
0
SPLINE
5
333
100
AcDbEntity
8
0
100
AcDbSpline
70
0
71
2
72
6
73
3
74
0
42
0.000000001
43
0.0000000001
44
0.0000000001
40
0
40
0
40
0
40
1
40
1
40
1
10
12.974558787384041
20
26.665080079034119
30
0
10
12.783697625434707
20
26.391245523007029
30
0
10
12.782221071375481
20
25.652502113898056
30
0
0
LWPOLYLINE
5
334
100
AcDbEntity
8
0
100
AcDbPolyline
90
4
70
1
43
0.0
10
18.185554312786614
20
25.062574039742596
10
18.186294635194535
20
25.432969079497983
10
19.317942584184575
20
25.43070721245175
10
19.317202261776657
20
25.060312172696356
0
SPLINE
5
335
100
AcDbEntity
8
0
100
AcDbSpline
70
0
71
2
72
6
73
3
74
0
42
0.000000001
43
0.0000000001
44
0.0000000001
40
0
40
0
40
0
40
1
40
1
40
1
10
19.623271502055367
20
25.638828650746731
30
0
10
19.624334948071748
20
26.170887555490999
30
0
10
19.734464833950586
20
26.495020019235614
30
0
0
SPLINE
5
336
100
AcDbEntity
8
0
100
AcDbSpline
70
0
71
2
72
6
73
3
74
0
42
0.000000001
43
0.0000000001
44
0.0000000001
40
0
40
0
40
0
40
1
40
1
40
1
10
19.734464833950586
20
26.495020019235614
30
0
10
19.844594719829423
20
26.819152482980229
30
0
10
20.060838835966798
20
26.994709889528266
30
0
0
SPLINE
5
337
100
AcDbEntity
8
0
100
AcDbSpline
70
0
71
2
72
6
73
3
74
0
42
0.000000001
43
0.0000000001
44
0.0000000001
40
0
40
0
40
0
40
1
40
1
40
1
10
20.060838835966798
20
26.994709889528266
30
0
10
20.277084143599019
20
27.170266995671
30
0
10
20.604504916357762
20
27.169612567536511
30
0
0
SPLINE
5
338
100
AcDbEntity
8
0
100
AcDbSpline
70
0
71
2
72
6
73
3
74
0
42
0.000000001
43
0.0000000001
44
0.0000000001
40
0
40
0
40
0
40
1
40
1
40
1
10
20.604504916357762
20
27.169612567536511
30
0
10
20.84597834721372
20
27.169129925566207
30
0
10
21.027911652604704
20
27.07156283980909
30
0
0
SPLINE
5
339
100
AcDbEntity
8
0
100
AcDbSpline
70
0
71
2
72
6
73
3
74
0
42
0.000000001
43
0.0000000001
44
0.0000000001
40
0
40
0
40
0
40
1
40
1
40
1
10
21.027911652604704
20
27.07156283980909
30
0
10
21.209844957995692
20
26.973995754051977
30
0
10
21.328169379310637
20
26.790607524442734
30
0
0
SPLINE
5
340
100
AcDbEntity
8
0
100
AcDbSpline
70
0
71
2
72
6
73
3
74
0
42
0.000000001
43
0.0000000001
44
0.0000000001
40
0
40
0
40
0
40
1
40
1
40
1
10
21.328169379310637
20
26.790607524442734
30
0
10
21.446493800625575
20
26.607219294833492
30
0
10
21.513497755868304
20
26.34412420369101
30
0
0
SPLINE
5
341
100
AcDbEntity
8
0
100
AcDbSpline
70
0
71
2
72
6
73
3
74
0
42
0.000000001
43
0.0000000001
44
0.0000000001
40
0
40
0
40
0
40
1
40
1
40
1
10
21.513497755868304
20
26.34412420369101
30
0
10
21.580502903797218
20
26.081029408188485
30
0
10
21.579611245136356
20
25.634918441392255
30
0
0
SPLINE
5
342
100
AcDbEntity
8
0
100
AcDbSpline
70
0
71
2
72
6
73
3
74
0
42
0.000000001
43
0.0000000001
44
0.0000000001
40
0
40
0
40
0
40
1
40
1
40
1
10
21.579611245136356
20
25.634918441392255
30
0
10
21.578555978846204
20
25.106951983383713
30
0
10
21.469450099017017
20
24.782817621931848
30
0
0
SPLINE
5
343
100
AcDbEntity
8
0
100
AcDbSpline
70
0
71
2
72
6
73
3
74
0
42
0.000000001
43
0.0000000001
44
0.0000000001
40
0
40
0
40
0
40
1
40
1
40
1
10
21.469450099017017
20
24.782817621931848
30
0
10
21.360343026501649
20
24.45868296484003
30
0
10
21.144096865432719
20
24.282102446608064
30
0
0
SPLINE
5
344
100
AcDbEntity
8
0
100
AcDbSpline
70
0
71
2
72
6
73
3
74
0
42
0.000000001
43
0.0000000001
44
0.0000000001
40
0
40
0
40
0
40
1
40
1
40
1
10
21.144096865432719
20
24.282102446608064
30
0
10
20.927849512868939
20
24.1055222287814
30
0
10
20.598381920697079
20
24.106180747970338
30
0
0
SPLINE
5
345
100
AcDbEntity
8
0
100
AcDbSpline
70
0
71
2
72
6
73
3
74
0
42
0.000000001
43
0.0000000001
44
0.0000000001
40
0
40
0
40
0
40
1
40
1
40
1
10
20.598381920697079
20
24.106180747970338
30
0
10
20.164549188175908
20
24.107047865665507
30
0
10
19.917559390108515
20
24.418592569759149
30
0
0
SPLINE
5
346
100
AcDbEntity
8
0
100
AcDbSpline
70
0
71
2
72
6
73
3
74
0
42
0.000000001
43
0.0000000001
44
0.0000000001
40
0
40
0
40
0
40
1
40
1
40
1
10
19.917559390108515
20
24.418592569759149
30
0
10
19.621582258137629
20
24.793673132864015
30
0
10
19.623271502055367
20
25.638828650746731
30
0
0
SPLINE
5
347
100
AcDbEntity
8
0
100
AcDbSpline
70
0
71
2
72
6
73
3
74
0
42
0.000000001
43
0.0000000001
44
0.0000000001
40
0
40
0
40
0
40
1
40
1
40
1
10
20.001852031327459
20
25.638071967695019
30
0
10
20.000375476970405
20
24.899328409574736
30
0
10
20.172805390358469
20
24.654440322642685
30
0
0
SPLINE
5
348
100
AcDbEntity
8
0
100
AcDbSpline
70
0
71
2
72
6
73
3
74
0
42
0.000000001
43
0.0000000001
44
0.0000000001
40
0
40
0
40
0
40
1
40
1
40
1
10
20.172805390358469
20
24.654440322642685
30
0
10
20.34523649583705
20
24.409552233327958
30
0
10
20.598987266900185
20
24.409045052178961
30
0
0
SPLINE
5
349
100
AcDbEntity
8
0
100
AcDbSpline
70
0
71
2
72
6
73
3
74
0
42
0.000000001
43
0.0000000001
44
0.0000000001
40
0
40
0
40
0
40
1
40
1
40
1
10
20.598987266900185
20
24.409045052178961
30
0
10
20.852738037963313
20
24.408537871029967
30
0
10
21.026148740712074
20
24.653757829169418
30
0
0
SPLINE
5
350
100
AcDbEntity
8
0
100
AcDbSpline
70
0
71
2
72
6
73
3
74
0
42
0.000000001
43
0.0000000001
44
0.0000000001
40
0
40
0
40
0
40
1
40
1
40
1
10
21.026148740712074
20
24.653757829169418
30
0
10
21.19955825137032
20
24.898977789691546
30
0
10
21.201030715864263
20
25.635675124443971
30
0
0
SPLINE
5
351
100
AcDbEntity
8
0
100
AcDbSpline
70
0
71
2
72
6
73
3
74
0
42
0.000000001
43
0.0000000001
44
0.0000000001
40
0
40
0
40
0
40
1
40
1
40
1
10
21.201030715864263
20
25.635675124443971
30
0
10
21.202511360084433
20
26.376464905932117
30
0
10
21.030079401764809
20
26.62032988118024
30
0
0
SPLINE
5
352
100
AcDbEntity
8
0
100
AcDbSpline
70
0
71
2
72
6
73
3
74
0
42
0.000000001
43
0.0000000001
44
0.0000000001
40
0
40
0
40
0
40
1
40
1
40
1
10
21.030079401764809
20
26.62032988118024
30
0
10
20.857646251354673
20
26.864194858811032
30
0
10
20.599803033555816
20
26.864710219686255
30
0
0
SPLINE
5
353
100
AcDbEntity
8
0
100
AcDbSpline
70
0
71
2
72
6
73
3
74
0
42
0.000000001
43
0.0000000001
44
0.0000000001
40
0
40
0
40
0
40
1
40
1
40
1
10
20.599803033555816
20
26.864710219686255
30
0
10
20.346051070402172
20
26.865217403217923
30
0
10
20.194190343381276
20
26.650649931639748
30
0
0
SPLINE
5
354
100
AcDbEntity
8
0
100
AcDbSpline
70
0
71
2
72
6
73
3
74
0
42
0.000000001
43
0.0000000001
44
0.0000000001
40
0
40
0
40
0
40
1
40
1
40
1
10
20.194190343381276
20
26.650649931639748
30
0
10
20.003328585386683
20
26.376815376803989
30
0
10
20.001852031327459
20
25.638071967695019
30
0
0
LWPOLYLINE
5
355
100
AcDbEntity
8
0
100
AcDbPolyline
90
4
70
1
43
0.0
10
22.157826782471513
20
24.154223490117666
10
22.158665268742205
20
24.573731466973285
10
22.578173841643085
20
24.572892979511263
10
22.577335355372394
20
24.153385002655643
0
LINE
5
356
100
AcDbEntity
8
0
100
AcDbLine
10
24.502979959799678
20
24.149536144821894
30
0
11
24.134631143412154
21
24.150272377366697
31
0
0
LINE
5
357
100
AcDbEntity
8
0
100
AcDbLine
10
24.134631143412154
20
24.150272377366697
30
0
11
24.139322577081884
21
26.497471033006153
31
0
0
SPLINE
5
358
100
AcDbEntity
8
0
100
AcDbSpline
70
0
71
2
72
6
73
3
74
0
42
0.000000001
43
0.0000000001
44
0.0000000001
40
0
40
0
40
0
40
1
40
1
40
1
10
24.139322577081884
20
26.497471033006153
30
0
10
24.006053142140797
20
26.370861213189812
30
0
10
23.789907190759699
20
26.244417190775952
30
0
0
SPLINE
5
359
100
AcDbEntity
8
0
100
AcDbSpline
70
0
71
2
72
6
73
3
74
0
42
0.000000001
43
0.0000000001
44
0.0000000001
40
0
40
0
40
0
40
1
40
1
40
1
10
23.789907190759699
20
26.244417190775952
30
0
10
23.573760046990245
20
26.117973021733452
30
0
10
23.401737375806924
20
26.054878903678706
30
0
0
LINE
5
360
100
AcDbEntity
8
0
100
AcDbLine
10
23.401737375806924
20
26.054878903678706
30
0
11
23.402449066492537
21
26.410949038757231
31
0
0
SPLINE
5
361
100
AcDbEntity
8
0
100
AcDbSpline
70
0
71
2
72
6
73
3
74
0
42
0.000000001
43
0.0000000001
44
0.0000000001
40
0
40
0
40
0
40
1
40
1
40
1
10
23.402449066492533
20
26.410949038757231
30
0
10
23.71174244342345
20
26.555624457931568
30
0
10
23.943396077645001
20
26.761846922226866
30
0
0
SPLINE
5
362
100
AcDbEntity
8
0
100
AcDbSpline
70
0
71
2
72
6
73
3
74
0
42
0.000000001
43
0.0000000001
44
0.0000000001
40
0
40
0
40
0
40
1
40
1
40
1
10
23.943396077645001
20
26.761846922226866
30
0
10
24.175050903361395
20
26.968069086116856
30
0
10
24.271619717018574
20
27.162282968141419
30
0
0
LINE
5
363
100
AcDbEntity
8
0
100
AcDbLine
10
24.271619717018574
20
27.162282968141419
30
0
11
24.509000701138813
21
27.161808505897337
31
0
0
LINE
5
364
100
AcDbEntity
8
0
100
AcDbLine
10
24.509000701138813
20
27.161808505897337
30
0
11
24.502979959799678
21
24.149536144821894
31
0
0
LINE
5
365
100
AcDbEntity
8
0
100
AcDbLine
10
25.447930490126435
20
24.93346084800962
30
0
11
25.834762547535671
21
24.965429761189597
31
0
0
SPLINE
5
366
100
AcDbEntity
8
0
100
AcDbSpline
70
0
71
2
72
6
73
3
74
0
42
0.000000001
43
0.0000000001
44
0.0000000001
40
0
40
0
40
0
40
1
40
1
40
1
10
25.834762547535671
20
24.965429761189597
30
0
10
25.877170581802929
20
24.682943290073322
30
0
10
26.033436409577394
20
24.540407134667586
30
0
0
SPLINE
5
367
100
AcDbEntity
8
0
100
AcDbSpline
70
0
71
2
72
6
73
3
74
0
42
0.000000001
43
0.0000000001
44
0.0000000001
40
0
40
0
40
0
40
1
40
1
40
1
10
26.033436409577394
20
24.540407134667586
30
0
10
26.189699852575163
20
24.397870686004577
30
0
10
26.410708665571473
20
24.397428947430765
30
0
0
SPLINE
5
368
100
AcDbEntity
8
0
100
AcDbSpline
70
0
71
2
72
6
73
3
74
0
42
0.000000001
43
0.0000000001
44
0.0000000001
40
0
40
0
40
0
40
1
40
1
40
1
10
26.410708665571473
20
24.397428947430765
30
0
10
26.676737968932294
20
24.396897224720409
30
0
10
26.861312022595531
20
24.597074498057854
30
0
0
SPLINE
5
369
100
AcDbEntity
8
0
100
AcDbSpline
70
0
71
2
72
6
73
3
74
0
42
0.000000001
43
0.0000000001
44
0.0000000001
40
0
40
0
40
0
40
1
40
1
40
1
10
26.861312022595531
20
24.597074498057854
30
0
10
27.045888459844139
20
24.797251468607321
30
0
10
27.046551068300527
20
25.128764986124416
30
0
0
SPLINE
5
370
100
AcDbEntity
8
0
100
AcDbSpline
70
0
71
2
72
6
73
3
74
0
42
0.000000001
43
0.0000000001
44
0.0000000001
40
0
40
0
40
0
40
1
40
1
40
1
10
27.046551068300527
20
25.128764986124416
30
0
10
27.047180956064992
20
25.443907822630724
30
0
10
26.870531461404479
20
25.626389512972505
30
0
0
SPLINE
5
371
100
AcDbEntity
8
0
100
AcDbSpline
70
0
71
2
72
6
73
3
74
0
42
0.000000001
43
0.0000000001
44
0.0000000001
40
0
40
0
40
0
40
1
40
1
40
1
10
26.870531461404479
20
25.626389512972505
30
0
10
26.693884350925
20
25.808871198548935
30
0
10
26.407391621795043
20
25.80944382227311
30
0
0
SPLINE
5
372
100
AcDbEntity
8
0
100
AcDbSpline
70
0
71
2
72
6
73
3
74
0
42
0.000000001
43
0.0000000001
44
0.0000000001
40
0
40
0
40
0
40
1
40
1
40
1
10
26.407391621795043
20
25.80944382227311
30
0
10
26.229355287659608
20
25.809799670147505
30
0
10
26.085947360992567
20
25.729253900503842
30
0
0
SPLINE
5
373
100
AcDbEntity
8
0
100
AcDbSpline
70
0
71
2
72
6
73
3
74
0
42
0.000000001
43
0.0000000001
44
0.0000000001
40
0
40
0
40
0
40
1
40
1
40
1
10
26.085947360992567
20
25.729253900503842
30
0
10
25.942539434623356
20
25.648708279871485
30
0
10
25.860428050215702
20
25.519949827993393
30
0
0
LINE
5
374
100
AcDbEntity
8
0
100
AcDbLine
10
25.860428050215702
20
25.519949827993393
30
0
11
25.514678270758626
21
25.565661412205799
31
0
0
LINE
5
375
100
AcDbEntity
8
0
100
AcDbLine
10
25.514678270758626
20
25.565661412205799
30
0
11
25.808344542418347
21
27.106005266367752
31
0
0
LINE
5
376
100
AcDbEntity
8
0
100
AcDbLine
10
25.808344542418347
20
27.106005266367752
30
0
11
27.300155222233951
21
27.103023528611846
31
0
0
LINE
5
377
100
AcDbEntity
8
0
100
AcDbLine
10
27.300155222233951
20
27.103023528611846
30
0
11
27.299451711572402
21
26.751045989280367
31
0
0
LINE
5
378
100
AcDbEntity
8
0
100
AcDbLine
10
27.299451711572402
20
26.751045989280367
30
0
11
26.102318654358207
21
26.753438743859633
31
0
0
LINE
5
379
100
AcDbEntity
8
0
100
AcDbLine
10
26.102318654358207
20
26.753438743859633
30
0
11
25.939045345561524
21
25.947487867653997
31
0
0
SPLINE
5
380
100
AcDbEntity
8
0
100
AcDbSpline
70
0
71
2
72
6
73
3
74
0
42
0.000000001
43
0.0000000001
44
0.0000000001
40
0
40
0
40
0
40
1
40
1
40
1
10
25.939045345561521
20
25.947487867653997
30
0
10
26.209542200161849
20
26.135215120552203
30
0
10
26.506267834266886
20
26.134622043938442
30
0
0
SPLINE
5
381
100
AcDbEntity
8
0
100
AcDbSpline
70
0
71
2
72
6
73
3
74
0
42
0.000000001
43
0.0000000001
44
0.0000000001
40
0
40
0
40
0
40
1
40
1
40
1
10
26.506267834266886
20
26.134622043938442
30
0
10
26.899173715249788
20
26.133836728270914
30
0
10
27.168750279466941
20
25.861128109696029
30
0
0
SPLINE
5
382
100
AcDbEntity
8
0
100
AcDbSpline
70
0
71
2
72
6
73
3
74
0
42
0.000000001
43
0.0000000001
44
0.0000000001
40
0
40
0
40
0
40
1
40
1
40
1
10
27.168750279466941
20
25.861128109696029
30
0
10
27.43832922816296
20
25.58841963536711
30
0
10
27.43747438095064
20
25.160726019983464
30
0
0
SPLINE
5
383
100
AcDbEntity
8
0
100
AcDbSpline
70
0
71
2
72
6
73
3
74
0
42
0.000000001
43
0.0000000001
44
0.0000000001
40
0
40
0
40
0
40
1
40
1
40
1
10
27.43747438095064
20
25.160726019983464
30
0
10
27.436660435645642
20
24.753496277402903
30
0
10
27.198686376102987
20
24.457245701587205
30
0
0
SPLINE
5
384
100
AcDbEntity
8
0
100
AcDbSpline
70
0
71
2
72
6
73
3
74
0
42
0.000000001
43
0.0000000001
44
0.0000000001
40
0
40
0
40
0
40
1
40
1
40
1
10
27.198686376102987
20
24.457245701587205
30
0
10
26.90941996802318
20
24.093566640376611
30
0
10
26.410103319368368
20
24.094564643222142
30
0
0
SPLINE
5
385
100
AcDbEntity
8
0
100
AcDbSpline
70
0
71
2
72
6
73
3
74
0
42
0.000000001
43
0.0000000001
44
0.0000000001
40
0
40
0
40
0
40
1
40
1
40
1
10
26.410103319368368
20
24.094564643222142
30
0
10
26.00082765144257
20
24.095382677794582
30
0
10
25.742418527705176
20
24.325094685924007
30
0
0
SPLINE
5
386
100
AcDbEntity
8
0
100
AcDbSpline
70
0
71
2
72
6
73
3
74
0
42
0.000000001
43
0.0000000001
44
0.0000000001
40
0
40
0
40
0
40
1
40
1
40
1
10
25.742418527705176
20
24.325094685924007
30
0
10
25.484009403967782
20
24.55480669405344
30
0
10
25.447930490126435
20
24.93346084800962
30
0
0
LWPOLYLINE
5
387
100
AcDbEntity
8
0
100
AcDbPolyline
90
4
70
1
43
0.0
10
34.724404724517569
20
25.029517221354602
10
34.725145046925483
20
25.399912261109989
10
35.856794188006035
20
25.397650391681079
10
35.85605386559812
20
25.027255351925692
0
SPLINE
5
388
100
AcDbEntity
8
0
100
AcDbSpline
70
0
71
2
72
6
73
3
74
0
42
0.000000001
43
0.0000000001
44
0.0000000001
40
0
40
0
40
0
40
1
40
1
40
1
10
36.162119529605292
20
25.605771837124095
30
0
10
36.163182975621673
20
26.13783074186836
30
0
10
36.273312861500514
20
26.461963205612978
30
0
0
SPLINE
5
389
100
AcDbEntity
8
0
100
AcDbSpline
70
0
71
2
72
6
73
3
74
0
42
0.000000001
43
0.0000000001
44
0.0000000001
40
0
40
0
40
0
40
1
40
1
40
1
10
36.273312861500514
20
26.461963205612978
30
0
10
36.383442747379341
20
26.786095669357589
30
0
10
36.599686863516723
20
26.96165307590563
30
0
0
SPLINE
5
390
100
AcDbEntity
8
0
100
AcDbSpline
70
0
71
2
72
6
73
3
74
0
42
0.000000001
43
0.0000000001
44
0.0000000001
40
0
40
0
40
0
40
1
40
1
40
1
10
36.599686863516723
20
26.96165307590563
30
0
10
36.815930979058429
20
27.137210184431041
30
0
10
37.143352943907686
20
27.136555753913875
30
0
0
SPLINE
5
391
100
AcDbEntity
8
0
100
AcDbSpline
70
0
71
2
72
6
73
3
74
0
42
0.000000001
43
0.0000000001
44
0.0000000001
40
0
40
0
40
0
40
1
40
1
40
1
10
37.143352943907686
20
27.136555753913875
30
0
10
37.384825182673126
20
27.136073114326244
30
0
10
37.566758488064117
20
27.038506028569131
30
0
0
SPLINE
5
392
100
AcDbEntity
8
0
100
AcDbSpline
70
0
71
2
72
6
73
3
74
0
42
0.000000001
43
0.0000000001
44
0.0000000001
40
0
40
0
40
0
40
1
40
1
40
1
10
37.566758488064117
20
27.038506028569131
30
0
10
37.748694177636125
20
26.940938938046664
30
0
10
37.867017406860555
20
26.757550710820098
30
0
0
SPLINE
5
393
100
AcDbEntity
8
0
100
AcDbSpline
70
0
71
2
72
6
73
3
74
0
42
0.000000001
43
0.0000000001
44
0.0000000001
40
0
40
0
40
0
40
1
40
1
40
1
10
37.867017406860555
20
26.757550710820098
30
0
10
37.985340636084985
20
26.574162483593533
30
0
10
38.05234697550874
20
26.311067387685696
30
0
0
SPLINE
5
394
100
AcDbEntity
8
0
100
AcDbSpline
70
0
71
2
72
6
73
3
74
0
42
0.000000001
43
0.0000000001
44
0.0000000001
40
0
40
0
40
0
40
1
40
1
40
1
10
38.05234697550874
20
26.311067387685696
30
0
10
38.119350931347142
20
26.047972594565849
30
0
10
38.11845927268628
20
25.601861627769619
30
0
0
SPLINE
5
395
100
AcDbEntity
8
0
100
AcDbSpline
70
0
71
2
72
6
73
3
74
0
42
0.000000001
43
0.0000000001
44
0.0000000001
40
0
40
0
40
0
40
1
40
1
40
1
10
38.11845927268628
20
25.601861627769619
30
0
10
38.117404006396129
20
25.073895169761077
30
0
10
38.008296934476427
20
24.749760810691885
30
0
0
SPLINE
5
396
100
AcDbEntity
8
0
100
AcDbSpline
70
0
71
2
72
6
73
3
74
0
42
0.000000001
43
0.0000000001
44
0.0000000001
40
0
40
0
40
0
40
1
40
1
40
1
10
38.008296934476427
20
24.749760810691885
30
0
10
37.899192246142086
20
24.425626148834716
30
0
10
37.682943700892125
20
24.249045635368098
30
0
0
SPLINE
5
397
100
AcDbEntity
8
0
100
AcDbSpline
70
0
71
2
72
6
73
3
74
0
42
0.000000001
43
0.0000000001
44
0.0000000001
40
0
40
0
40
0
40
1
40
1
40
1
10
37.682943700892125
20
24.249045635368098
30
0
10
37.466697540418856
20
24.07246541515876
30
0
10
37.137229948246997
20
24.073123934347702
30
0
0
SPLINE
5
398
100
AcDbEntity
8
0
100
AcDbSpline
70
0
71
2
72
6
73
3
74
0
42
0.000000001
43
0.0000000001
44
0.0000000001
40
0
40
0
40
0
40
1
40
1
40
1
10
37.137229948246997
20
24.073123934347702
30
0
10
36.703397215725829
20
24.073991052042871
30
0
10
36.45640741765844
20
24.385535756136505
30
0
0
SPLINE
5
399
100
AcDbEntity
8
0
100
AcDbSpline
70
0
71
2
72
6
73
3
74
0
42
0.000000001
43
0.0000000001
44
0.0000000001
40
0
40
0
40
0
40
1
40
1
40
1
10
36.45640741765844
20
24.385535756136505
30
0
10
36.160430285687553
20
24.760616319241379
30
0
10
36.162119529605292
20
25.605771837124095
30
0
0
SPLINE
5
400
100
AcDbEntity
8
0
100
AcDbSpline
70
0
71
2
72
6
73
3
74
0
42
0.000000001
43
0.0000000001
44
0.0000000001
40
0
40
0
40
0
40
1
40
1
40
1
10
36.540698866786869
20
25.605015156455057
30
0
10
36.539222312429807
20
24.866271598334777
30
0
10
36.711653417908387
20
24.621383509020049
30
0
0
SPLINE
5
401
100
AcDbEntity
8
0
100
AcDbSpline
70
0
71
2
72
6
73
3
74
0
42
0.000000001
43
0.0000000001
44
0.0000000001
40
0
40
0
40
0
40
1
40
1
40
1
10
36.711653417908387
20
24.621383509020049
30
0
10
36.884084523386974
20
24.376495419705321
30
0
10
37.137835294450106
20
24.375988238556324
30
0
0
SPLINE
5
402
100
AcDbEntity
8
0
100
AcDbSpline
70
0
71
2
72
6
73
3
74
0
42
0.000000001
43
0.0000000001
44
0.0000000001
40
0
40
0
40
0
40
1
40
1
40
1
10
37.137835294450106
20
24.375988238556324
30
0
10
37.391586065513238
20
24.375481057407331
30
0
10
37.564996768261999
20
24.620701015546782
30
0
0
SPLINE
5
403
100
AcDbEntity
8
0
100
AcDbSpline
70
0
71
2
72
6
73
3
74
0
42
0.000000001
43
0.0000000001
44
0.0000000001
40
0
40
0
40
0
40
1
40
1
40
1
10
37.564996768261999
20
24.620701015546782
30
0
10
37.73840747101076
20
24.865920973686233
30
0
10
37.739879935504703
20
25.602618308438654
30
0
0
SPLINE
5
404
100
AcDbEntity
8
0
100
AcDbSpline
70
0
71
2
72
6
73
3
74
0
42
0.000000001
43
0.0000000001
44
0.0000000001
40
0
40
0
40
0
40
1
40
1
40
1
10
37.739879935504703
20
25.602618308438654
30
0
10
37.741360579724869
20
26.343408089926804
30
0
10
37.568927429314734
20
26.587273067557597
30
0
0
SPLINE
5
405
100
AcDbEntity
8
0
100
AcDbSpline
70
0
71
2
72
6
73
3
74
0
42
0.000000001
43
0.0000000001
44
0.0000000001
40
0
40
0
40
0
40
1
40
1
40
1
10
37.568927429314734
20
26.587273067557597
30
0
10
37.396494278904598
20
26.831138045188396
30
0
10
37.138649869015225
20
26.831653408446293
30
0
0
SPLINE
5
406
100
AcDbEntity
8
0
100
AcDbSpline
70
0
71
2
72
6
73
3
74
0
42
0.000000001
43
0.0000000001
44
0.0000000001
40
0
40
0
40
0
40
1
40
1
40
1
10
37.138649869015225
20
26.831653408446293
30
0
10
36.884899097952093
20
26.832160589595286
30
0
10
36.733038370931197
20
26.617593118017105
30
0
0
SPLINE
5
407
100
AcDbEntity
8
0
100
AcDbSpline
70
0
71
2
72
6
73
3
74
0
42
0.000000001
43
0.0000000001
44
0.0000000001
40
0
40
0
40
0
40
1
40
1
40
1
10
36.733038370931197
20
26.617593118017105
30
0
10
36.542175420846085
20
26.343758565564027
30
0
10
36.540698866786869
20
25.605015156455057
30
0
0
LWPOLYLINE
5
408
100
AcDbEntity
8
0
100
AcDbPolyline
90
4
70
1
43
0.0
10
38.696674810021435
20
24.121166676495029
10
38.697513296292129
20
24.540674653350649
10
39.117021869193003
20
24.539836165888623
10
39.116183382922316
20
24.120328189033003
0
LINE
5
409
100
AcDbEntity
8
0
100
AcDbLine
10
41.041826795259091
20
24.116479333581932
30
0
11
40.67347797887156
21
24.117215566126738
31
0
0
LINE
5
410
100
AcDbEntity
8
0
100
AcDbLine
10
40.67347797887156
20
24.117215566126738
30
0
11
40.678169412541294
21
26.464414221766187
31
0
0
SPLINE
5
411
100
AcDbEntity
8
0
100
AcDbSpline
70
0
71
2
72
6
73
3
74
0
42
0.000000001
43
0.0000000001
44
0.0000000001
40
0
40
0
40
0
40
1
40
1
40
1
10
40.678169412541294
20
26.464414221766191
30
0
10
40.54489997760021
20
26.337804401949853
30
0
10
40.328754026219109
20
26.211360379535989
30
0
0
SPLINE
5
412
100
AcDbEntity
8
0
100
AcDbSpline
70
0
71
2
72
6
73
3
74
0
42
0.000000001
43
0.0000000001
44
0.0000000001
40
0
40
0
40
0
40
1
40
1
40
1
10
40.328754026219109
20
26.211360379535989
30
0
10
40.112608074540177
20
26.084916208110815
30
0
10
39.940584211266327
20
26.021822092438747
30
0
0
LINE
5
413
100
AcDbEntity
8
0
100
AcDbLine
10
39.940584211266327
20
26.021822092438747
30
0
11
39.941295901951939
21
26.377892227517272
31
0
0
SPLINE
5
414
100
AcDbEntity
8
0
100
AcDbSpline
70
0
71
2
72
6
73
3
74
0
42
0.000000001
43
0.0000000001
44
0.0000000001
40
0
40
0
40
0
40
1
40
1
40
1
10
39.941295901951939
20
26.377892227517272
30
0
10
40.250590470973371
20
26.522567644308932
30
0
10
40.482242913104407
20
26.728790110986903
30
0
0
SPLINE
5
415
100
AcDbEntity
8
0
100
AcDbSpline
70
0
71
2
72
6
73
3
74
0
42
0.000000001
43
0.0000000001
44
0.0000000001
40
0
40
0
40
0
40
1
40
1
40
1
10
40.482242913104407
20
26.728790110986903
30
0
10
40.713897738820812
20
26.935012274876897
30
0
10
40.81046655247799
20
27.12922615690146
30
0
0
LINE
5
416
100
AcDbEntity
8
0
100
AcDbLine
10
40.810466552477997
20
27.12922615690146
30
0
11
41.047847536598219
21
27.128751694657378
31
0
0
LINE
5
417
100
AcDbEntity
8
0
100
AcDbLine
10
41.047847536598219
20
27.128751694657378
30
0
11
41.041826795259091
21
24.116479333581932
31
0
0
SPLINE
5
418
100
AcDbEntity
8
0
100
AcDbSpline
70
0
71
2
72
6
73
3
74
0
42
0.000000001
43
0.0000000001
44
0.0000000001
40
0
40
0
40
0
40
1
40
1
40
1
10
41.988166279987389
20
25.594127099760083
30
0
10
41.989229726003771
20
26.126186004504348
30
0
10
42.099359611882612
20
26.450318468248962
30
0
0
SPLINE
5
419
100
AcDbEntity
8
0
100
AcDbSpline
70
0
71
2
72
6
73
3
74
0
42
0.000000001
43
0.0000000001
44
0.0000000001
40
0
40
0
40
0
40
1
40
1
40
1
10
42.099359611882612
20
26.450318468248962
30
0
10
42.209489497761446
20
26.774450931993577
30
0
10
42.425733613898814
20
26.950008338541615
30
0
0
SPLINE
5
420
100
AcDbEntity
8
0
100
AcDbSpline
70
0
71
2
72
6
73
3
74
0
42
0.000000001
43
0.0000000001
44
0.0000000001
40
0
40
0
40
0
40
1
40
1
40
1
10
42.425733613898814
20
26.950008338541615
30
0
10
42.641977729440526
20
27.125565447067025
30
0
10
42.969399694289777
20
27.124911016549863
30
0
0
SPLINE
5
421
100
AcDbEntity
8
0
100
AcDbSpline
70
0
71
2
72
6
73
3
74
0
42
0.000000001
43
0.0000000001
44
0.0000000001
40
0
40
0
40
0
40
1
40
1
40
1
10
42.969399694289777
20
27.124911016549863
30
0
10
43.21087193305523
20
27.124428376962229
30
0
10
43.392805238446215
20
27.026861291205115
30
0
0
SPLINE
5
422
100
AcDbEntity
8
0
100
AcDbSpline
70
0
71
2
72
6
73
3
74
0
42
0.000000001
43
0.0000000001
44
0.0000000001
40
0
40
0
40
0
40
1
40
1
40
1
10
43.392805238446215
20
27.026861291205115
30
0
10
43.57474092801823
20
26.929294200682648
30
0
10
43.693064157242659
20
26.745905973456082
30
0
0
SPLINE
5
423
100
AcDbEntity
8
0
100
AcDbSpline
70
0
71
2
72
6
73
3
74
0
42
0.000000001
43
0.0000000001
44
0.0000000001
40
0
40
0
40
0
40
1
40
1
40
1
10
43.693064157242659
20
26.745905973456082
30
0
10
43.811387386467082
20
26.562517746229517
30
0
10
43.878393725890845
20
26.299422650321684
30
0
0
SPLINE
5
424
100
AcDbEntity
8
0
100
AcDbSpline
70
0
71
2
72
6
73
3
74
0
42
0.000000001
43
0.0000000001
44
0.0000000001
40
0
40
0
40
0
40
1
40
1
40
1
10
43.878393725890845
20
26.299422650321684
30
0
10
43.945397681729247
20
26.036327857201833
30
0
10
43.944506023068385
20
25.590216890405607
30
0
0
SPLINE
5
425
100
AcDbEntity
8
0
100
AcDbSpline
70
0
71
2
72
6
73
3
74
0
42
0.000000001
43
0.0000000001
44
0.0000000001
40
0
40
0
40
0
40
1
40
1
40
1
10
43.944506023068385
20
25.590216890405607
30
0
10
43.943450756778226
20
25.062250432397061
30
0
10
43.834343684858524
20
24.738116073327873
30
0
0
SPLINE
5
426
100
AcDbEntity
8
0
100
AcDbSpline
70
0
71
2
72
6
73
3
74
0
42
0.000000001
43
0.0000000001
44
0.0000000001
40
0
40
0
40
0
40
1
40
1
40
1
10
43.834343684858524
20
24.738116073327873
30
0
10
43.725238996524183
20
24.413981411470704
30
0
10
43.508990451274229
20
24.237400898004083
30
0
0
SPLINE
5
427
100
AcDbEntity
8
0
100
AcDbSpline
70
0
71
2
72
6
73
3
74
0
42
0.000000001
43
0.0000000001
44
0.0000000001
40
0
40
0
40
0
40
1
40
1
40
1
10
43.508990451274229
20
24.237400898004083
30
0
10
43.292744290800954
20
24.060820677794744
30
0
10
42.963276698629102
20
24.06147919698369
30
0
0
SPLINE
5
428
100
AcDbEntity
8
0
100
AcDbSpline
70
0
71
2
72
6
73
3
74
0
42
0.000000001
43
0.0000000001
44
0.0000000001
40
0
40
0
40
0
40
1
40
1
40
1
10
42.963276698629102
20
24.06147919698369
30
0
10
42.529443966107927
20
24.062346314678855
30
0
10
42.282454168040537
20
24.373891018772493
30
0
0
SPLINE
5
429
100
AcDbEntity
8
0
100
AcDbSpline
70
0
71
2
72
6
73
3
74
0
42
0.000000001
43
0.0000000001
44
0.0000000001
40
0
40
0
40
0
40
1
40
1
40
1
10
42.282454168040537
20
24.373891018772493
30
0
10
41.986477036069651
20
24.748971581877367
30
0
10
41.988166279987389
20
25.594127099760083
30
0
0
SPLINE
5
430
100
AcDbEntity
8
0
100
AcDbSpline
70
0
71
2
72
6
73
3
74
0
42
0.000000001
43
0.0000000001
44
0.0000000001
40
0
40
0
40
0
40
1
40
1
40
1
10
42.366745617168966
20
25.593370419091045
30
0
10
42.365269062811912
20
24.854626860970761
30
0
10
42.537700168290499
20
24.609738771656033
30
0
0
SPLINE
5
431
100
AcDbEntity
8
0
100
AcDbSpline
70
0
71
2
72
6
73
3
74
0
42
0.000000001
43
0.0000000001
44
0.0000000001
40
0
40
0
40
0
40
1
40
1
40
1
10
42.537700168290499
20
24.609738771656033
30
0
10
42.710131273769072
20
24.364850682341306
30
0
10
42.963882044832204
20
24.364343501192312
30
0
0
SPLINE
5
432
100
AcDbEntity
8
0
100
AcDbSpline
70
0
71
2
72
6
73
3
74
0
42
0.000000001
43
0.0000000001
44
0.0000000001
40
0
40
0
40
0
40
1
40
1
40
1
10
42.963882044832204
20
24.364343501192312
30
0
10
43.217632815895335
20
24.363836320043319
30
0
10
43.391043518644096
20
24.60905627818277
30
0
0
SPLINE
5
433
100
AcDbEntity
8
0
100
AcDbSpline
70
0
71
2
72
6
73
3
74
0
42
0.000000001
43
0.0000000001
44
0.0000000001
40
0
40
0
40
0
40
1
40
1
40
1
10
43.391043518644096
20
24.60905627818277
30
0
10
43.564454221392864
20
24.854276236322221
30
0
10
43.565926685886808
20
25.590973571074642
30
0
0
SPLINE
5
434
100
AcDbEntity
8
0
100
AcDbSpline
70
0
71
2
72
6
73
3
74
0
42
0.000000001
43
0.0000000001
44
0.0000000001
40
0
40
0
40
0
40
1
40
1
40
1
10
43.565926685886808
20
25.590973571074642
30
0
10
43.567407330106967
20
26.331763352562788
30
0
10
43.394974179696831
20
26.575628330193585
30
0
0
SPLINE
5
435
100
AcDbEntity
8
0
100
AcDbSpline
70
0
71
2
72
6
73
3
74
0
42
0.000000001
43
0.0000000001
44
0.0000000001
40
0
40
0
40
0
40
1
40
1
40
1
10
43.394974179696831
20
26.575628330193585
30
0
10
43.222541029286688
20
26.819493307824381
30
0
10
42.964696619397323
20
26.820008671082277
30
0
0
SPLINE
5
436
100
AcDbEntity
8
0
100
AcDbSpline
70
0
71
2
72
6
73
3
74
0
42
0.000000001
43
0.0000000001
44
0.0000000001
40
0
40
0
40
0
40
1
40
1
40
1
10
42.964696619397323
20
26.820008671082277
30
0
10
42.710945848334198
20
26.820515852231274
30
0
10
42.559085121313302
20
26.605948380653093
30
0
0
SPLINE
5
437
100
AcDbEntity
8
0
100
AcDbSpline
70
0
71
2
72
6
73
3
74
0
42
0.000000001
43
0.0000000001
44
0.0000000001
40
0
40
0
40
0
40
1
40
1
40
1
10
42.559085121313302
20
26.605948380653093
30
0
10
42.368222171228197
20
26.332113828200011
30
0
10
42.366745617168966
20
25.593370419091045
30
0
0
LWPOLYLINE
5
438
100
AcDbEntity
8
0
100
AcDbPolyline
90
4
70
1
43
0.0
10
50.098860460829606
20
24.998787722118735
10
50.09960078323752
20
25.369182761874121
10
51.231247540137048
20
25.366920897210562
10
51.230507217729127
20
24.996525857455175
0
SPLINE
5
439
100
AcDbEntity
8
0
100
AcDbSpline
70
0
71
2
72
6
73
3
74
0
42
0.000000001
43
0.0000000001
44
0.0000000001
40
0
40
0
40
0
40
1
40
1
40
1
10
51.536577650098351
20
25.575042333122873
30
0
10
51.537641096114733
20
26.107101237867138
30
0
10
51.647770981993574
20
26.431233701611756
30
0
0
SPLINE
5
440
100
AcDbEntity
8
0
100
AcDbSpline
70
0
71
2
72
6
73
3
74
0
42
0.000000001
43
0.0000000001
44
0.0000000001
40
0
40
0
40
0
40
1
40
1
40
1
10
51.647770981993574
20
26.431233701611756
30
0
10
51.757900867872415
20
26.755366165356371
30
0
10
51.974144984009783
20
26.930923571904408
30
0
0
SPLINE
5
441
100
AcDbEntity
8
0
100
AcDbSpline
70
0
71
2
72
6
73
3
74
0
42
0.000000001
43
0.0000000001
44
0.0000000001
40
0
40
0
40
0
40
1
40
1
40
1
10
51.974144984009783
20
26.930923571904408
30
0
10
52.190389099551489
20
27.106480680429819
30
0
10
52.517813448581769
20
27.105826245147302
30
0
0
SPLINE
5
442
100
AcDbEntity
8
0
100
AcDbSpline
70
0
71
2
72
6
73
3
74
0
42
0.000000001
43
0.0000000001
44
0.0000000001
40
0
40
0
40
0
40
1
40
1
40
1
10
52.517813448581769
20
27.105826245147302
30
0
10
52.759283303166185
20
27.105343610325022
30
0
10
52.941216608557184
20
27.007776524567909
30
0
0
SPLINE
5
443
100
AcDbEntity
8
0
100
AcDbSpline
70
0
71
2
72
6
73
3
74
0
42
0.000000001
43
0.0000000001
44
0.0000000001
40
0
40
0
40
0
40
1
40
1
40
1
10
52.941216608557184
20
27.007776524567909
30
0
10
53.123149913948168
20
26.910209438810789
30
0
10
53.241473143172591
20
26.726821211584223
30
0
0
SPLINE
5
444
100
AcDbEntity
8
0
100
AcDbSpline
70
0
71
2
72
6
73
3
74
0
42
0.000000001
43
0.0000000001
44
0.0000000001
40
0
40
0
40
0
40
1
40
1
40
1
10
53.241473143172591
20
26.726821211584223
30
0
10
53.359801140759082
20
26.543432974826956
30
0
10
53.4268050960018
20
26.280337883684478
30
0
0
SPLINE
5
445
100
AcDbEntity
8
0
100
AcDbSpline
70
0
71
2
72
6
73
3
74
0
42
0.000000001
43
0.0000000001
44
0.0000000001
40
0
40
0
40
0
40
1
40
1
40
1
10
53.4268050960018
20
26.280337883684478
30
0
10
53.493809051840202
20
26.017243090564627
30
0
10
53.49291739317934
20
25.5711321237684
30
0
0
SPLINE
5
446
100
AcDbEntity
8
0
100
AcDbSpline
70
0
71
2
72
6
73
3
74
0
42
0.000000001
43
0.0000000001
44
0.0000000001
40
0
40
0
40
0
40
1
40
1
40
1
10
53.49291739317934
20
25.5711321237684
30
0
10
53.491862126889188
20
25.043165665759854
30
0
10
53.382757439150517
20
24.719031301925316
30
0
0
SPLINE
5
447
100
AcDbEntity
8
0
100
AcDbSpline
70
0
71
2
72
6
73
3
74
0
42
0.000000001
43
0.0000000001
44
0.0000000001
40
0
40
0
40
0
40
1
40
1
40
1
10
53.382757439150517
20
24.719031301925316
30
0
10
53.273647982454122
20
24.394896649598849
30
0
10
53.057401821385184
20
24.218316131366883
30
0
0
SPLINE
5
448
100
AcDbEntity
8
0
100
AcDbSpline
70
0
71
2
72
6
73
3
74
0
42
0.000000001
43
0.0000000001
44
0.0000000001
40
0
40
0
40
0
40
1
40
1
40
1
10
53.057401821385184
20
24.218316131366883
30
0
10
52.841155660911916
20
24.041735911157538
30
0
10
52.511690452921087
20
24.042394425581129
30
0
0
SPLINE
5
449
100
AcDbEntity
8
0
100
AcDbSpline
70
0
71
2
72
6
73
3
74
0
42
0.000000001
43
0.0000000001
44
0.0000000001
40
0
40
0
40
0
40
1
40
1
40
1
10
52.511690452921087
20
24.042394425581129
30
0
10
52.077855336218889
20
24.043261548041649
30
0
10
51.830865538151507
20
24.354806252135287
30
0
0
SPLINE
5
450
100
AcDbEntity
8
0
100
AcDbSpline
70
0
71
2
72
6
73
3
74
0
42
0.000000001
43
0.0000000001
44
0.0000000001
40
0
40
0
40
0
40
1
40
1
40
1
10
51.830865538151507
20
24.354806252135287
30
0
10
51.534888406180613
20
24.729886815240157
30
0
10
51.536577650098351
20
25.575042333122873
30
0
0
SPLINE
5
451
100
AcDbEntity
8
0
100
AcDbSpline
70
0
71
2
72
6
73
3
74
0
42
0.000000001
43
0.0000000001
44
0.0000000001
40
0
40
0
40
0
40
1
40
1
40
1
10
51.915156987279929
20
25.574285652453838
30
0
10
51.913680432922867
20
24.835542094333555
30
0
10
52.086111538401454
20
24.59065400501882
30
0
0
SPLINE
5
452
100
AcDbEntity
8
0
100
AcDbSpline
70
0
71
2
72
6
73
3
74
0
42
0.000000001
43
0.0000000001
44
0.0000000001
40
0
40
0
40
0
40
1
40
1
40
1
10
52.086111538401454
20
24.59065400501882
30
0
10
52.258542643880041
20
24.345765915704092
30
0
10
52.512295799124196
20
24.345258729789752
30
0
0
SPLINE
5
453
100
AcDbEntity
8
0
100
AcDbSpline
70
0
71
2
72
6
73
3
74
0
42
0.000000001
43
0.0000000001
44
0.0000000001
40
0
40
0
40
0
40
1
40
1
40
1
10
52.512295799124196
20
24.345258729789752
30
0
10
52.766044186006305
20
24.344751553406109
30
0
10
52.939454888755066
20
24.58997151154556
30
0
0
SPLINE
5
454
100
AcDbEntity
8
0
100
AcDbSpline
70
0
71
2
72
6
73
3
74
0
42
0.000000001
43
0.0000000001
44
0.0000000001
40
0
40
0
40
0
40
1
40
1
40
1
10
52.939454888755066
20
24.58997151154556
30
0
10
53.112865591503819
20
24.835191469685011
30
0
10
53.114338055997763
20
25.571888804437432
30
0
0
SPLINE
5
455
100
AcDbEntity
8
0
100
AcDbSpline
70
0
71
2
72
6
73
3
74
0
42
0.000000001
43
0.0000000001
44
0.0000000001
40
0
40
0
40
0
40
1
40
1
40
1
10
53.114338055997763
20
25.571888804437432
30
0
10
53.115818700217936
20
26.312678585925582
30
0
10
52.9433855498078
20
26.556543563556374
30
0
0
SPLINE
5
456
100
AcDbEntity
8
0
100
AcDbSpline
70
0
71
2
72
6
73
3
74
0
42
0.000000001
43
0.0000000001
44
0.0000000001
40
0
40
0
40
0
40
1
40
1
40
1
10
52.9433855498078
20
26.556543563556374
30
0
10
52.770952399397657
20
26.800408541187174
30
0
10
52.513107989508292
20
26.800923904445071
30
0
0
SPLINE
5
457
100
AcDbEntity
8
0
100
AcDbSpline
70
0
71
2
72
6
73
3
74
0
42
0.000000001
43
0.0000000001
44
0.0000000001
40
0
40
0
40
0
40
1
40
1
40
1
10
52.513107989508292
20
26.800923904445071
30
0
10
52.259359602626184
20
26.801431080828714
30
0
10
52.107496491424257
20
26.586863614015886
30
0
0
SPLINE
5
458
100
AcDbEntity
8
0
100
AcDbSpline
70
0
71
2
72
6
73
3
74
0
42
0.000000001
43
0.0000000001
44
0.0000000001
40
0
40
0
40
0
40
1
40
1
40
1
10
52.107496491424257
20
26.586863614015886
30
0
10
51.916633541339152
20
26.313029061562805
30
0
10
51.915156987279929
20
25.574285652453838
30
0
0
LWPOLYLINE
5
459
100
AcDbEntity
8
0
100
AcDbPolyline
90
4
70
1
43
0.0
10
54.071132930514509
20
24.090437172493807
10
54.071971416785196
20
24.509945149349427
10
54.49147760550504
20
24.509106666652755
10
54.490639119234352
20
24.089598689797135
0
SPLINE
5
460
100
AcDbEntity
8
0
100
AcDbSpline
70
0
71
2
72
6
73
3
74
0
42
0.000000001
43
0.0000000001
44
0.0000000001
40
0
40
0
40
0
40
1
40
1
40
1
10
55.03179657486308
20
25.56805630843882
30
0
10
55.032860020879468
20
26.100115213183088
30
0
10
55.142989906758316
20
26.424247676927703
30
0
0
SPLINE
5
461
100
AcDbEntity
8
0
100
AcDbSpline
70
0
71
2
72
6
73
3
74
0
42
0.000000001
43
0.0000000001
44
0.0000000001
40
0
40
0
40
0
40
1
40
1
40
1
10
55.142989906758316
20
26.424247676927703
30
0
10
55.25311979263715
20
26.748380140672317
30
0
10
55.469363908774525
20
26.923937547220355
30
0
0
SPLINE
5
462
100
AcDbEntity
8
0
100
AcDbSpline
70
0
71
2
72
6
73
3
74
0
42
0.000000001
43
0.0000000001
44
0.0000000001
40
0
40
0
40
0
40
1
40
1
40
1
10
55.469363908774525
20
26.923937547220355
30
0
10
55.685608024316224
20
27.099494655745765
30
0
10
56.013032373346512
20
27.098840220463249
30
0
0
SPLINE
5
463
100
AcDbEntity
8
0
100
AcDbSpline
70
0
71
2
72
6
73
3
74
0
42
0.000000001
43
0.0000000001
44
0.0000000001
40
0
40
0
40
0
40
1
40
1
40
1
10
56.013032373346512
20
27.098840220463249
30
0
10
56.254502227930921
20
27.098357585640969
30
0
10
56.436435533321912
20
27.000790499883855
30
0
0
SPLINE
5
464
100
AcDbEntity
8
0
100
AcDbSpline
70
0
71
2
72
6
73
3
74
0
42
0.000000001
43
0.0000000001
44
0.0000000001
40
0
40
0
40
0
40
1
40
1
40
1
10
56.436435533321912
20
27.000790499883855
30
0
10
56.618368838712897
20
26.903223414126739
30
0
10
56.736692067937327
20
26.71983518690017
30
0
0
SPLINE
5
465
100
AcDbEntity
8
0
100
AcDbSpline
70
0
71
2
72
6
73
3
74
0
42
0.000000001
43
0.0000000001
44
0.0000000001
40
0
40
0
40
0
40
1
40
1
40
1
10
56.736692067937327
20
26.71983518690017
30
0
10
56.855020065523817
20
26.536446950142903
30
0
10
56.922024020766543
20
26.273351859000424
30
0
0
SPLINE
5
466
100
AcDbEntity
8
0
100
AcDbSpline
70
0
71
2
72
6
73
3
74
0
42
0.000000001
43
0.0000000001
44
0.0000000001
40
0
40
0
40
0
40
1
40
1
40
1
10
56.922024020766543
20
26.273351859000424
30
0
10
56.989027976604937
20
26.010257065880573
30
0
10
56.988136317944075
20
25.56414609908434
30
0
0
SPLINE
5
467
100
AcDbEntity
8
0
100
AcDbSpline
70
0
71
2
72
6
73
3
74
0
42
0.000000001
43
0.0000000001
44
0.0000000001
40
0
40
0
40
0
40
1
40
1
40
1
10
56.988136317944075
20
25.56414609908434
30
0
10
56.987081051653917
20
25.036179641075801
30
0
10
56.877976363915259
20
24.712045277241259
30
0
0
SPLINE
5
468
100
AcDbEntity
8
0
100
AcDbSpline
70
0
71
2
72
6
73
3
74
0
42
0.000000001
43
0.0000000001
44
0.0000000001
40
0
40
0
40
0
40
1
40
1
40
1
10
56.877976363915259
20
24.712045277241259
30
0
10
56.768866907218857
20
24.387910624914795
30
0
10
56.552620746149927
20
24.211330106682823
30
0
0
SPLINE
5
469
100
AcDbEntity
8
0
100
AcDbSpline
70
0
71
2
72
6
73
3
74
0
42
0.000000001
43
0.0000000001
44
0.0000000001
40
0
40
0
40
0
40
1
40
1
40
1
10
56.552620746149927
20
24.211330106682823
30
0
10
56.336374585676658
20
24.034749886473485
30
0
10
56.00690937768583
20
24.035408400897076
30
0
0
SPLINE
5
470
100
AcDbEntity
8
0
100
AcDbSpline
70
0
71
2
72
6
73
3
74
0
42
0.000000001
43
0.0000000001
44
0.0000000001
40
0
40
0
40
0
40
1
40
1
40
1
10
56.00690937768583
20
24.035408400897076
30
0
10
55.573074260983624
20
24.036275523357595
30
0
10
55.326084462916242
20
24.347820227451233
30
0
0
SPLINE
5
471
100
AcDbEntity
8
0
100
AcDbSpline
70
0
71
2
72
6
73
3
74
0
42
0.000000001
43
0.0000000001
44
0.0000000001
40
0
40
0
40
0
40
1
40
1
40
1
10
55.326084462916242
20
24.347820227451233
30
0
10
55.030107330945349
20
24.722900790556107
30
0
10
55.03179657486308
20
25.56805630843882
30
0
0
SPLINE
5
472
100
AcDbEntity
8
0
100
AcDbSpline
70
0
71
2
72
6
73
3
74
0
42
0.000000001
43
0.0000000001
44
0.0000000001
40
0
40
0
40
0
40
1
40
1
40
1
10
55.410375912044671
20
25.567299627769785
30
0
10
55.408899357687609
20
24.828556069649501
30
0
10
55.581330463166196
20
24.58366798033477
30
0
0
SPLINE
5
473
100
AcDbEntity
8
0
100
AcDbSpline
70
0
71
2
72
6
73
3
74
0
42
0.000000001
43
0.0000000001
44
0.0000000001
40
0
40
0
40
0
40
1
40
1
40
1
10
55.581330463166196
20
24.58366798033477
30
0
10
55.753761568644777
20
24.338779891020042
30
0
10
56.007514723888939
20
24.338272705105698
30
0
0
SPLINE
5
474
100
AcDbEntity
8
0
100
AcDbSpline
70
0
71
2
72
6
73
3
74
0
42
0.000000001
43
0.0000000001
44
0.0000000001
40
0
40
0
40
0
40
1
40
1
40
1
10
56.007514723888939
20
24.338272705105698
30
0
10
56.26126311077104
20
24.337765528722059
30
0
10
56.434673813519794
20
24.58298548686151
30
0
0
SPLINE
5
475
100
AcDbEntity
8
0
100
AcDbSpline
70
0
71
2
72
6
73
3
74
0
42
0.000000001
43
0.0000000001
44
0.0000000001
40
0
40
0
40
0
40
1
40
1
40
1
10
56.434673813519794
20
24.58298548686151
30
0
10
56.608084516268555
20
24.828205445000961
30
0
10
56.609556980762498
20
25.564902779753382
30
0
0
SPLINE
5
476
100
AcDbEntity
8
0
100
AcDbSpline
70
0
71
2
72
6
73
3
74
0
42
0.000000001
43
0.0000000001
44
0.0000000001
40
0
40
0
40
0
40
1
40
1
40
1
10
56.609556980762498
20
25.564902779753382
30
0
10
56.611037624982671
20
26.305692561241528
30
0
10
56.438604474572536
20
26.549557538872325
30
0
0
SPLINE
5
477
100
AcDbEntity
8
0
100
AcDbSpline
70
0
71
2
72
6
73
3
74
0
42
0.000000001
43
0.0000000001
44
0.0000000001
40
0
40
0
40
0
40
1
40
1
40
1
10
56.438604474572536
20
26.549557538872325
30
0
10
56.266171324162393
20
26.793422516503121
30
0
10
56.008326914273027
20
26.793937879761017
30
0
0
SPLINE
5
478
100
AcDbEntity
8
0
100
AcDbSpline
70
0
71
2
72
6
73
3
74
0
42
0.000000001
43
0.0000000001
44
0.0000000001
40
0
40
0
40
0
40
1
40
1
40
1
10
56.008326914273027
20
26.793937879761017
30
0
10
55.754578527390919
20
26.79444505614466
30
0
10
55.602715416188992
20
26.579877589331833
30
0
0
SPLINE
5
479
100
AcDbEntity
8
0
100
AcDbSpline
70
0
71
2
72
6
73
3
74
0
42
0.000000001
43
0.0000000001
44
0.0000000001
40
0
40
0
40
0
40
1
40
1
40
1
10
55.602715416188992
20
26.579877589331833
30
0
10
55.411852466103895
20
26.306043036878751
30
0
10
55.410375912044671
20
25.567299627769785
30
0
0
LINE
5
480
100
AcDbEntity
8
0
100
AcDbLine
10
57.361233061897885
20
24.86967453753379
30
0
11
57.748065119307121
21
24.901643450713763
31
0
0
SPLINE
5
481
100
AcDbEntity
8
0
100
AcDbSpline
70
0
71
2
72
6
73
3
74
0
42
0.000000001
43
0.0000000001
44
0.0000000001
40
0
40
0
40
0
40
1
40
1
40
1
10
57.748065119307121
20
24.901643450713763
30
0
10
57.790473153574382
20
24.619156979597491
30
0
10
57.946738981348844
20
24.476620824191755
30
0
0
SPLINE
5
482
100
AcDbEntity
8
0
100
AcDbSpline
70
0
71
2
72
6
73
3
74
0
42
0.000000001
43
0.0000000001
44
0.0000000001
40
0
40
0
40
0
40
1
40
1
40
1
10
57.946738981348844
20
24.476620824191755
30
0
10
58.103000040165583
20
24.334084380294097
30
0
10
58.324008853161892
20
24.333642641720282
30
0
0
SPLINE
5
483
100
AcDbEntity
8
0
100
AcDbSpline
70
0
71
2
72
6
73
3
74
0
42
0.000000001
43
0.0000000001
44
0.0000000001
40
0
40
0
40
0
40
1
40
1
40
1
10
58.324008853161892
20
24.333642641720282
30
0
10
58.59004054070374
20
24.333110914244575
30
0
10
58.77461459436698
20
24.533288187582023
30
0
0
SPLINE
5
484
100
AcDbEntity
8
0
100
AcDbSpline
70
0
71
2
72
6
73
3
74
0
42
0.000000001
43
0.0000000001
44
0.0000000001
40
0
40
0
40
0
40
1
40
1
40
1
10
58.77461459436698
20
24.533288187582023
30
0
10
58.959188647434544
20
24.733465162896842
30
0
10
58.959851255890939
20
25.064978680413937
30
0
0
SPLINE
5
485
100
AcDbEntity
8
0
100
AcDbSpline
70
0
71
2
72
6
73
3
74
0
42
0.000000001
43
0.0000000001
44
0.0000000001
40
0
40
0
40
0
40
1
40
1
40
1
10
58.959851255890939
20
25.064978680413937
30
0
10
58.960481143655407
20
25.380121516920244
30
0
10
58.783834033175921
20
25.562603202496675
30
0
0
SPLINE
5
486
100
AcDbEntity
8
0
100
AcDbSpline
70
0
71
2
72
6
73
3
74
0
42
0.000000001
43
0.0000000001
44
0.0000000001
40
0
40
0
40
0
40
1
40
1
40
1
10
58.783834033175921
20
25.562603202496675
30
0
10
58.607186922696435
20
25.745084888073105
30
0
10
58.320694193566482
20
25.74565751179728
30
0
0
SPLINE
5
487
100
AcDbEntity
8
0
100
AcDbSpline
70
0
71
2
72
6
73
3
74
0
42
0.000000001
43
0.0000000001
44
0.0000000001
40
0
40
0
40
0
40
1
40
1
40
1
10
58.320694193566482
20
25.74565751179728
30
0
10
58.142657859431054
20
25.746013359671672
30
0
10
57.999249932764016
20
25.665467590028008
30
0
0
SPLINE
5
488
100
AcDbEntity
8
0
100
AcDbSpline
70
0
71
2
72
6
73
3
74
0
42
0.000000001
43
0.0000000001
44
0.0000000001
40
0
40
0
40
0
40
1
40
1
40
1
10
57.999249932764016
20
25.665467590028008
30
0
10
57.855842006394802
20
25.584921969395658
30
0
10
57.773730621987141
20
25.45616351751756
30
0
0
LINE
5
489
100
AcDbEntity
8
0
100
AcDbLine
10
57.773730621987141
20
25.45616351751756
30
0
11
57.427980842530069
21
25.501875101729965
31
0
0
LINE
5
490
100
AcDbEntity
8
0
100
AcDbLine
10
57.427980842530069
20
25.501875101729965
30
0
11
57.721644730008762
21
27.042218960657273
31
0
0
LINE
5
491
100
AcDbEntity
8
0
100
AcDbLine
10
57.721644730008762
20
27.042218960657273
30
0
11
59.21346017818643
21
27.039237213370665
31
0
0
LINE
5
492
100
AcDbEntity
8
0
100
AcDbLine
10
59.21346017818643
20
27.039237213370665
30
0
11
59.212756667524872
21
26.687259674039183
31
0
0
LINE
5
493
100
AcDbEntity
8
0
100
AcDbLine
10
59.212756667524872
20
26.687259674039183
30
0
11
58.015621226129646
21
26.689652433383806
31
0
0
LINE
5
494
100
AcDbEntity
8
0
100
AcDbLine
10
58.015621226129646
20
26.689652433383806
30
0
11
57.852347917332963
21
25.883701557178163
31
0
0
SPLINE
5
495
100
AcDbEntity
8
0
100
AcDbSpline
70
0
71
2
72
6
73
3
74
0
42
0.000000001
43
0.0000000001
44
0.0000000001
40
0
40
0
40
0
40
1
40
1
40
1
10
57.852347917332963
20
25.883701557178163
30
0
10
58.122847156114325
20
26.071428805311019
30
0
10
58.419572790219348
20
26.070835728697261
30
0
0
SPLINE
5
496
100
AcDbEntity
8
0
100
AcDbSpline
70
0
71
2
72
6
73
3
74
0
42
0.000000001
43
0.0000000001
44
0.0000000001
40
0
40
0
40
0
40
1
40
1
40
1
10
58.419572790219348
20
26.070835728697261
30
0
10
58.812476287021227
20
26.070050417795084
30
0
10
59.082055235419418
20
25.797341794454848
30
0
0
SPLINE
5
497
100
AcDbEntity
8
0
100
AcDbSpline
70
0
71
2
72
6
73
3
74
0
42
0.000000001
43
0.0000000001
44
0.0000000001
40
0
40
0
40
0
40
1
40
1
40
1
10
59.082055235419418
20
25.797341794454848
30
0
10
59.35163418411544
20
25.524633320125925
30
0
10
59.350779336903116
20
25.096939704742283
30
0
0
SPLINE
5
498
100
AcDbEntity
8
0
100
AcDbSpline
70
0
71
2
72
6
73
3
74
0
42
0.000000001
43
0.0000000001
44
0.0000000001
40
0
40
0
40
0
40
1
40
1
40
1
10
59.350779336903116
20
25.096939704742283
30
0
10
59.349965391598118
20
24.689709962161722
30
0
10
59.11198894787443
20
24.393459391111371
30
0
0
SPLINE
5
499
100
AcDbEntity
8
0
100
AcDbSpline
70
0
71
2
72
6
73
3
74
0
42
0.000000001
43
0.0000000001
44
0.0000000001
40
0
40
0
40
0
40
1
40
1
40
1
10
59.11198894787443
20
24.393459391111371
30
0
10
58.822722539794626
20
24.029780329900778
30
0
10
58.323403506958783
20
24.030778337511659
30
0
0
SPLINE
5
500
100
AcDbEntity
8
0
100
AcDbSpline
70
0
71
2
72
6
73
3
74
0
42
0.000000001
43
0.0000000001
44
0.0000000001
40
0
40
0
40
0
40
1
40
1
40
1
10
58.323403506958783
20
24.030778337511659
30
0
10
57.914130223214009
20
24.031596367318748
30
0
10
57.655718715295592
20
24.261308380213535
30
0
0
SPLINE
5
501
100
AcDbEntity
8
0
100
AcDbSpline
70
0
71
2
72
6
73
3
74
0
42
0.000000001
43
0.0000000001
44
0.0000000001
40
0
40
0
40
0
40
1
40
1
40
1
10
57.655718715295592
20
24.261308380213535
30
0
10
57.397311975739228
20
24.491020383577609
30
0
10
57.361233061897885
20
24.86967453753379
30
0
0
SPLINE
5
502
100
AcDbEntity
8
0
100
AcDbSpline
70
0
71
2
72
6
73
3
74
0
42
0.000000001
43
0.0000000001
44
0.0000000001
40
0
40
0
40
0
40
1
40
1
40
1
10
63.186620755177884
20
25.551756956597327
30
0
10
63.187684201194266
20
26.083815861341595
30
0
10
63.297814087073107
20
26.40794832508621
30
0
0
SPLINE
5
503
100
AcDbEntity
8
0
100
AcDbSpline
70
0
71
2
72
6
73
3
74
0
42
0.000000001
43
0.0000000001
44
0.0000000001
40
0
40
0
40
0
40
1
40
1
40
1
10
63.297814087073107
20
26.40794832508621
30
0
10
63.407943972951948
20
26.732080788830821
30
0
10
63.62418808908933
20
26.907638195378858
30
0
0
SPLINE
5
504
100
AcDbEntity
8
0
100
AcDbSpline
70
0
71
2
72
6
73
3
74
0
42
0.000000001
43
0.0000000001
44
0.0000000001
40
0
40
0
40
0
40
1
40
1
40
1
10
63.62418808908933
20
26.907638195378858
30
0
10
63.840432204631021
20
27.083195303904269
30
0
10
64.167856553661295
20
27.082540868621756
30
0
0
SPLINE
5
505
100
AcDbEntity
8
0
100
AcDbSpline
70
0
71
2
72
6
73
3
74
0
42
0.000000001
43
0.0000000001
44
0.0000000001
40
0
40
0
40
0
40
1
40
1
40
1
10
64.167856553661295
20
27.082540868621756
30
0
10
64.409326408245718
20
27.082058233799472
30
0
10
64.591259713636717
20
26.984491148042359
30
0
0
SPLINE
5
506
100
AcDbEntity
8
0
100
AcDbSpline
70
0
71
2
72
6
73
3
74
0
42
0.000000001
43
0.0000000001
44
0.0000000001
40
0
40
0
40
0
40
1
40
1
40
1
10
64.591259713636717
20
26.984491148042359
30
0
10
64.773193019027701
20
26.886924062285242
30
0
10
64.891516248252131
20
26.703535835058677
30
0
0
SPLINE
5
507
100
AcDbEntity
8
0
100
AcDbSpline
70
0
71
2
72
6
73
3
74
0
42
0.000000001
43
0.0000000001
44
0.0000000001
40
0
40
0
40
0
40
1
40
1
40
1
10
64.891516248252131
20
26.703535835058677
30
0
10
65.009844245838607
20
26.52014759830141
30
0
10
65.076848201081347
20
26.257052507158928
30
0
0
SPLINE
5
508
100
AcDbEntity
8
0
100
AcDbSpline
70
0
71
2
72
6
73
3
74
0
42
0.000000001
43
0.0000000001
44
0.0000000001
40
0
40
0
40
0
40
1
40
1
40
1
10
65.076848201081347
20
26.257052507158928
30
0
10
65.143852156919735
20
25.993957714039077
30
0
10
65.142960498258873
20
25.547846747242851
30
0
0
SPLINE
5
509
100
AcDbEntity
8
0
100
AcDbSpline
70
0
71
2
72
6
73
3
74
0
42
0.000000001
43
0.0000000001
44
0.0000000001
40
0
40
0
40
0
40
1
40
1
40
1
10
65.142960498258873
20
25.547846747242851
30
0
10
65.141905231968721
20
25.019880289234308
30
0
10
65.032800544230042
20
24.69574592539977
30
0
0
SPLINE
5
510
100
AcDbEntity
8
0
100
AcDbSpline
70
0
71
2
72
6
73
3
74
0
42
0.000000001
43
0.0000000001
44
0.0000000001
40
0
40
0
40
0
40
1
40
1
40
1
10
65.032800544230042
20
24.69574592539977
30
0
10
64.923691087533655
20
24.371611273073302
30
0
10
64.707444926464717
20
24.195030754841333
30
0
0
SPLINE
5
511
100
AcDbEntity
8
0
100
AcDbSpline
70
0
71
2
72
6
73
3
74
0
42
0.000000001
43
0.0000000001
44
0.0000000001
40
0
40
0
40
0
40
1
40
1
40
1
10
64.707444926464717
20
24.195030754841333
30
0
10
64.491198765991456
20
24.018450534631988
30
0
10
64.16173355800062
20
24.019109049055579
30
0
0
SPLINE
5
512
100
AcDbEntity
8
0
100
AcDbSpline
70
0
71
2
72
6
73
3
74
0
42
0.000000001
43
0.0000000001
44
0.0000000001
40
0
40
0
40
0
40
1
40
1
40
1
10
64.16173355800062
20
24.019109049055579
30
0
10
63.727898441298422
20
24.019976171516099
30
0
10
63.480908643231039
20
24.331520875609737
30
0
0
SPLINE
5
513
100
AcDbEntity
8
0
100
AcDbSpline
70
0
71
2
72
6
73
3
74
0
42
0.000000001
43
0.0000000001
44
0.0000000001
40
0
40
0
40
0
40
1
40
1
40
1
10
63.480908643231039
20
24.331520875609737
30
0
10
63.184931511260146
20
24.70660143871461
30
0
10
63.186620755177884
20
25.551756956597327
30
0
0
SPLINE
5
514
100
AcDbEntity
8
0
100
AcDbSpline
70
0
71
2
72
6
73
3
74
0
42
0.000000001
43
0.0000000001
44
0.0000000001
40
0
40
0
40
0
40
1
40
1
40
1
10
63.565200092359461
20
25.551000275928288
30
0
10
63.563723538002399
20
24.812256717808005
30
0
10
63.736154643480987
20
24.567368628493277
30
0
0
SPLINE
5
515
100
AcDbEntity
8
0
100
AcDbSpline
70
0
71
2
72
6
73
3
74
0
42
0.000000001
43
0.0000000001
44
0.0000000001
40
0
40
0
40
0
40
1
40
1
40
1
10
63.736154643480987
20
24.567368628493277
30
0
10
63.908585748959574
20
24.322480539178549
30
0
10
64.162338904203736
20
24.321973353264205
30
0
0
SPLINE
5
516
100
AcDbEntity
8
0
100
AcDbSpline
70
0
71
2
72
6
73
3
74
0
42
0.000000001
43
0.0000000001
44
0.0000000001
40
0
40
0
40
0
40
1
40
1
40
1
10
64.162338904203736
20
24.321973353264205
30
0
10
64.41608729108583
20
24.321466176880563
30
0
10
64.589497993834598
20
24.566686135020014
30
0
0
SPLINE
5
517
100
AcDbEntity
8
0
100
AcDbSpline
70
0
71
2
72
6
73
3
74
0
42
0.000000001
43
0.0000000001
44
0.0000000001
40
0
40
0
40
0
40
1
40
1
40
1
10
64.589497993834598
20
24.566686135020014
30
0
10
64.762908696583352
20
24.811906093159465
30
0
10
64.764381161077296
20
25.548603427911889
30
0
0
SPLINE
5
518
100
AcDbEntity
8
0
100
AcDbSpline
70
0
71
2
72
6
73
3
74
0
42
0.000000001
43
0.0000000001
44
0.0000000001
40
0
40
0
40
0
40
1
40
1
40
1
10
64.764381161077296
20
25.548603427911889
30
0
10
64.765861805297476
20
26.289393209400032
30
0
10
64.593428654887333
20
26.533258187030828
30
0
0
SPLINE
5
519
100
AcDbEntity
8
0
100
AcDbSpline
70
0
71
2
72
6
73
3
74
0
42
0.000000001
43
0.0000000001
44
0.0000000001
40
0
40
0
40
0
40
1
40
1
40
1
10
64.593428654887333
20
26.533258187030828
30
0
10
64.42099550447719
20
26.777123164661628
30
0
10
64.163151094587818
20
26.777638527919521
30
0
0
SPLINE
5
520
100
AcDbEntity
8
0
100
AcDbSpline
70
0
71
2
72
6
73
3
74
0
42
0.000000001
43
0.0000000001
44
0.0000000001
40
0
40
0
40
0
40
1
40
1
40
1
10
64.163151094587818
20
26.777638527919521
30
0
10
63.909402707705716
20
26.778145704303164
30
0
10
63.75753959650379
20
26.563578237490336
30
0
0
SPLINE
5
521
100
AcDbEntity
8
0
100
AcDbSpline
70
0
71
2
72
6
73
3
74
0
42
0.000000001
43
0.0000000001
44
0.0000000001
40
0
40
0
40
0
40
1
40
1
40
1
10
63.75753959650379
20
26.563578237490336
30
0
10
63.566676646418685
20
26.289743685037259
30
0
10
63.565200092359461
20
25.551000275928288
30
0
0
LWPOLYLINE
5
522
100
AcDbEntity
8
0
100
AcDbPolyline
90
4
70
1
43
0.0
10
65.721176035594041
20
24.067151795968261
10
65.722014521864736
20
24.486659772823881
10
66.141520710584572
20
24.485821290127209
10
66.140682224313878
20
24.066313313271586
0
SPLINE
5
523
100
AcDbEntity
8
0
100
AcDbSpline
70
0
71
2
72
6
73
3
74
0
42
0.000000001
43
0.0000000001
44
0.0000000001
40
0
40
0
40
0
40
1
40
1
40
1
10
66.681839679942627
20
25.544770931913273
30
0
10
66.682903125959015
20
26.076829836657538
30
0
10
66.793033011837849
20
26.400962300402156
30
0
0
SPLINE
5
524
100
AcDbEntity
8
0
100
AcDbSpline
70
0
71
2
72
6
73
3
74
0
42
0.000000001
43
0.0000000001
44
0.0000000001
40
0
40
0
40
0
40
1
40
1
40
1
10
66.793033011837849
20
26.400962300402156
30
0
10
66.903162897716683
20
26.725094764146768
30
0
10
67.119407013854058
20
26.900652170694809
30
0
0
SPLINE
5
525
100
AcDbEntity
8
0
100
AcDbSpline
70
0
71
2
72
6
73
3
74
0
42
0.000000001
43
0.0000000001
44
0.0000000001
40
0
40
0
40
0
40
1
40
1
40
1
10
67.119407013854058
20
26.900652170694809
30
0
10
67.335651129395757
20
27.076209279220219
30
0
10
67.663075478426038
20
27.075554843937702
30
0
0
SPLINE
5
526
100
AcDbEntity
8
0
100
AcDbSpline
70
0
71
2
72
6
73
3
74
0
42
0.000000001
43
0.0000000001
44
0.0000000001
40
0
40
0
40
0
40
1
40
1
40
1
10
67.663075478426038
20
27.075554843937702
30
0
10
67.904545333010461
20
27.075072209115419
30
0
10
68.086478638401445
20
26.977505123358306
30
0
0
SPLINE
5
527
100
AcDbEntity
8
0
100
AcDbSpline
70
0
71
2
72
6
73
3
74
0
42
0.000000001
43
0.0000000001
44
0.0000000001
40
0
40
0
40
0
40
1
40
1
40
1
10
68.086478638401445
20
26.977505123358306
30
0
10
68.268411943792429
20
26.879938037601189
30
0
10
68.386735173016859
20
26.696549810374623
30
0
0
SPLINE
5
528
100
AcDbEntity
8
0
100
AcDbSpline
70
0
71
2
72
6
73
3
74
0
42
0.000000001
43
0.0000000001
44
0.0000000001
40
0
40
0
40
0
40
1
40
1
40
1
10
68.386735173016859
20
26.696549810374623
30
0
10
68.50506317060335
20
26.513161573617356
30
0
10
68.572067125846075
20
26.250066482474878
30
0
0
SPLINE
5
529
100
AcDbEntity
8
0
100
AcDbSpline
70
0
71
2
72
6
73
3
74
0
42
0.000000001
43
0.0000000001
44
0.0000000001
40
0
40
0
40
0
40
1
40
1
40
1
10
68.572067125846075
20
26.250066482474878
30
0
10
68.639071081684477
20
25.986971689355023
30
0
10
68.638179423023615
20
25.540860722558797
30
0
0
SPLINE
5
530
100
AcDbEntity
8
0
100
AcDbSpline
70
0
71
2
72
6
73
3
74
0
42
0.000000001
43
0.0000000001
44
0.0000000001
40
0
40
0
40
0
40
1
40
1
40
1
10
68.638179423023615
20
25.540860722558797
30
0
10
68.637124156733464
20
25.012894264550255
30
0
10
68.528019468994785
20
24.688759900715716
30
0
0
SPLINE
5
531
100
AcDbEntity
8
0
100
AcDbSpline
70
0
71
2
72
6
73
3
74
0
42
0.000000001
43
0.0000000001
44
0.0000000001
40
0
40
0
40
0
40
1
40
1
40
1
10
68.528019468994785
20
24.688759900715716
30
0
10
68.418910012298383
20
24.364625248389249
30
0
10
68.20266385122946
20
24.188044730157277
30
0
0
SPLINE
5
532
100
AcDbEntity
8
0
100
AcDbSpline
70
0
71
2
72
6
73
3
74
0
42
0.000000001
43
0.0000000001
44
0.0000000001
40
0
40
0
40
0
40
1
40
1
40
1
10
68.20266385122946
20
24.188044730157277
30
0
10
67.986417690756184
20
24.011464509947938
30
0
10
67.656952482765362
20
24.012123024371526
30
0
0
SPLINE
5
533
100
AcDbEntity
8
0
100
AcDbSpline
70
0
71
2
72
6
73
3
74
0
42
0.000000001
43
0.0000000001
44
0.0000000001
40
0
40
0
40
0
40
1
40
1
40
1
10
67.656952482765362
20
24.012123024371526
30
0
10
67.223117366063164
20
24.012990146832045
30
0
10
66.976127567995775
20
24.324534850925687
30
0
0
SPLINE
5
534
100
AcDbEntity
8
0
100
AcDbSpline
70
0
71
2
72
6
73
3
74
0
42
0.000000001
43
0.0000000001
44
0.0000000001
40
0
40
0
40
0
40
1
40
1
40
1
10
66.976127567995775
20
24.324534850925687
30
0
10
66.680150436024888
20
24.699615414030557
30
0
10
66.681839679942627
20
25.544770931913273
30
0
0
SPLINE
5
535
100
AcDbEntity
8
0
100
AcDbSpline
70
0
71
2
72
6
73
3
74
0
42
0.000000001
43
0.0000000001
44
0.0000000001
40
0
40
0
40
0
40
1
40
1
40
1
10
67.060419017124204
20
25.544014251244235
30
0
10
67.058942462767149
20
24.805270693123951
30
0
10
67.231373568245729
20
24.560382603809224
30
0
0
SPLINE
5
536
100
AcDbEntity
8
0
100
AcDbSpline
70
0
71
2
72
6
73
3
74
0
42
0.000000001
43
0.0000000001
44
0.0000000001
40
0
40
0
40
0
40
1
40
1
40
1
10
67.231373568245729
20
24.560382603809224
30
0
10
67.403804673724309
20
24.315494514494496
30
0
10
67.657557828968478
20
24.314987328580152
30
0
0
SPLINE
5
537
100
AcDbEntity
8
0
100
AcDbSpline
70
0
71
2
72
6
73
3
74
0
42
0.000000001
43
0.0000000001
44
0.0000000001
40
0
40
0
40
0
40
1
40
1
40
1
10
67.657557828968478
20
24.314987328580152
30
0
10
67.911306215850573
20
24.314480152196509
30
0
10
68.084716918599341
20
24.55970011033596
30
0
0
SPLINE
5
538
100
AcDbEntity
8
0
100
AcDbSpline
70
0
71
2
72
6
73
3
74
0
42
0.000000001
43
0.0000000001
44
0.0000000001
40
0
40
0
40
0
40
1
40
1
40
1
10
68.084716918599341
20
24.55970011033596
30
0
10
68.258127621348081
20
24.804920068475411
30
0
10
68.259600085842024
20
25.541617403227832
30
0
0
SPLINE
5
539
100
AcDbEntity
8
0
100
AcDbSpline
70
0
71
2
72
6
73
3
74
0
42
0.000000001
43
0.0000000001
44
0.0000000001
40
0
40
0
40
0
40
1
40
1
40
1
10
68.259600085842024
20
25.541617403227832
30
0
10
68.261080730062204
20
26.282407184715982
30
0
10
68.088647579652076
20
26.526272162346775
30
0
0
SPLINE
5
540
100
AcDbEntity
8
0
100
AcDbSpline
70
0
71
2
72
6
73
3
74
0
42
0.000000001
43
0.0000000001
44
0.0000000001
40
0
40
0
40
0
40
1
40
1
40
1
10
68.088647579652076
20
26.526272162346775
30
0
10
67.916214429241933
20
26.770137139977574
30
0
10
67.65837001935256
20
26.770652503235471
30
0
0
SPLINE
5
541
100
AcDbEntity
8
0
100
AcDbSpline
70
0
71
2
72
6
73
3
74
0
42
0.000000001
43
0.0000000001
44
0.0000000001
40
0
40
0
40
0
40
1
40
1
40
1
10
67.65837001935256
20
26.770652503235471
30
0
10
67.404621632470466
20
26.77115967961911
30
0
10
67.252758521268532
20
26.556592212806287
30
0
0
SPLINE
5
542
100
AcDbEntity
8
0
100
AcDbSpline
70
0
71
2
72
6
73
3
74
0
42
0.000000001
43
0.0000000001
44
0.0000000001
40
0
40
0
40
0
40
1
40
1
40
1
10
67.252758521268532
20
26.556592212806287
30
0
10
67.061895571183427
20
26.282757660353205
30
0
10
67.060419017124204
20
25.544014251244235
30
0
0
SPLINE
5
543
100
AcDbEntity
8
0
100
AcDbSpline
70
0
71
2
72
6
73
3
74
0
42
0.000000001
43
0.0000000001
44
0.0000000001
40
0
40
0
40
0
40
1
40
1
40
1
10
69.012667505559989
20
25.540112219233315
30
0
10
69.013730951576363
20
26.072171123977583
30
0
10
69.123860837455197
20
26.396303587722194
30
0
0
SPLINE
5
544
100
AcDbEntity
8
0
100
AcDbSpline
70
0
71
2
72
6
73
3
74
0
42
0.000000001
43
0.0000000001
44
0.0000000001
40
0
40
0
40
0
40
1
40
1
40
1
10
69.123860837455197
20
26.396303587722194
30
0
10
69.233990723334045
20
26.720436051466805
30
0
10
69.45023483947142
20
26.895993458014846
30
0
0
SPLINE
5
545
100
AcDbEntity
8
0
100
AcDbSpline
70
0
71
2
72
6
73
3
74
0
42
0.000000001
43
0.0000000001
44
0.0000000001
40
0
40
0
40
0
40
1
40
1
40
1
10
69.45023483947142
20
26.895993458014846
30
0
10
69.666478955013119
20
27.071550566540257
30
0
10
69.9939033040434
20
27.07089613125774
30
0
0
SPLINE
5
546
100
AcDbEntity
8
0
100
AcDbSpline
70
0
71
2
72
6
73
3
74
0
42
0.000000001
43
0.0000000001
44
0.0000000001
40
0
40
0
40
0
40
1
40
1
40
1
10
69.9939033040434
20
27.07089613125774
30
0
10
70.235373158627823
20
27.07041349643546
30
0
10
70.417306464018822
20
26.972846410678347
30
0
0
SPLINE
5
547
100
AcDbEntity
8
0
100
AcDbSpline
70
0
71
2
72
6
73
3
74
0
42
0.000000001
43
0.0000000001
44
0.0000000001
40
0
40
0
40
0
40
1
40
1
40
1
10
70.417306464018822
20
26.972846410678347
30
0
10
70.599239769409792
20
26.87527932492123
30
0
10
70.717562998634222
20
26.691891097694665
30
0
0
SPLINE
5
548
100
AcDbEntity
8
0
100
AcDbSpline
70
0
71
2
72
6
73
3
74
0
42
0.000000001
43
0.0000000001
44
0.0000000001
40
0
40
0
40
0
40
1
40
1
40
1
10
70.717562998634222
20
26.691891097694665
30
0
10
70.835890996220712
20
26.508502860937394
30
0
10
70.902894951463438
20
26.245407769794916
30
0
0
SPLINE
5
549
100
AcDbEntity
8
0
100
AcDbSpline
70
0
71
2
72
6
73
3
74
0
42
0.000000001
43
0.0000000001
44
0.0000000001
40
0
40
0
40
0
40
1
40
1
40
1
10
70.902894951463438
20
26.245407769794916
30
0
10
70.96989890730184
20
25.982312976675065
30
0
10
70.969007248640978
20
25.536202009878835
30
0
0
SPLINE
5
550
100
AcDbEntity
8
0
100
AcDbSpline
70
0
71
2
72
6
73
3
74
0
42
0.000000001
43
0.0000000001
44
0.0000000001
40
0
40
0
40
0
40
1
40
1
40
1
10
70.969007248640978
20
25.536202009878835
30
0
10
70.967951982350826
20
25.008235551870293
30
0
10
70.858847294612147
20
24.684101188035754
30
0
0
SPLINE
5
551
100
AcDbEntity
8
0
100
AcDbSpline
70
0
71
2
72
6
73
3
74
0
42
0.000000001
43
0.0000000001
44
0.0000000001
40
0
40
0
40
0
40
1
40
1
40
1
10
70.858847294612147
20
24.684101188035754
30
0
10
70.74973783791576
20
24.359966535709287
30
0
10
70.533491676846822
20
24.183386017477318
30
0
0
SPLINE
5
552
100
AcDbEntity
8
0
100
AcDbSpline
70
0
71
2
72
6
73
3
74
0
42
0.000000001
43
0.0000000001
44
0.0000000001
40
0
40
0
40
0
40
1
40
1
40
1
10
70.533491676846822
20
24.183386017477318
30
0
10
70.317245516373546
20
24.006805797267976
30
0
10
69.987780308382725
20
24.007464311691567
30
0
0
SPLINE
5
553
100
AcDbEntity
8
0
100
AcDbSpline
70
0
71
2
72
6
73
3
74
0
42
0.000000001
43
0.0000000001
44
0.0000000001
40
0
40
0
40
0
40
1
40
1
40
1
10
69.987780308382725
20
24.007464311691567
30
0
10
69.553945191680526
20
24.008331434152087
30
0
10
69.306955393613137
20
24.319876138245725
30
0
0
SPLINE
5
554
100
AcDbEntity
8
0
100
AcDbSpline
70
0
71
2
72
6
73
3
74
0
42
0.000000001
43
0.0000000001
44
0.0000000001
40
0
40
0
40
0
40
1
40
1
40
1
10
69.306955393613137
20
24.319876138245725
30
0
10
69.010978261642251
20
24.694956701350598
30
0
10
69.012667505559989
20
25.540112219233315
30
0
0
SPLINE
5
555
100
AcDbEntity
8
0
100
AcDbSpline
70
0
71
2
72
6
73
3
74
0
42
0.000000001
43
0.0000000001
44
0.0000000001
40
0
40
0
40
0
40
1
40
1
40
1
10
69.391246842741566
20
25.539355538564273
30
0
10
69.389770288384497
20
24.800611980443993
30
0
10
69.562201393863091
20
24.555723891129265
30
0
0
SPLINE
5
556
100
AcDbEntity
8
0
100
AcDbSpline
70
0
71
2
72
6
73
3
74
0
42
0.000000001
43
0.0000000001
44
0.0000000001
40
0
40
0
40
0
40
1
40
1
40
1
10
69.562201393863091
20
24.555723891129265
30
0
10
69.734632499341672
20
24.310835801814537
30
0
10
69.988385654585827
20
24.31032861590019
30
0
0
SPLINE
5
557
100
AcDbEntity
8
0
100
AcDbSpline
70
0
71
2
72
6
73
3
74
0
42
0.000000001
43
0.0000000001
44
0.0000000001
40
0
40
0
40
0
40
1
40
1
40
1
10
69.988385654585827
20
24.31032861590019
30
0
10
70.242134041467935
20
24.309821439516547
30
0
10
70.415544744216703
20
24.555041397655998
30
0
0
SPLINE
5
558
100
AcDbEntity
8
0
100
AcDbSpline
70
0
71
2
72
6
73
3
74
0
42
0.000000001
43
0.0000000001
44
0.0000000001
40
0
40
0
40
0
40
1
40
1
40
1
10
70.415544744216703
20
24.555041397655998
30
0
10
70.588955446965457
20
24.800261355795449
30
0
10
70.5904279114594
20
25.536958690547877
30
0
0
SPLINE
5
559
100
AcDbEntity
8
0
100
AcDbSpline
70
0
71
2
72
6
73
3
74
0
42
0.000000001
43
0.0000000001
44
0.0000000001
40
0
40
0
40
0
40
1
40
1
40
1
10
70.5904279114594
20
25.536958690547877
30
0
10
70.591908555679566
20
26.27774847203602
30
0
10
70.419475405269438
20
26.521613449666816
30
0
0
SPLINE
5
560
100
AcDbEntity
8
0
100
AcDbSpline
70
0
71
2
72
6
73
3
74
0
42
0.000000001
43
0.0000000001
44
0.0000000001
40
0
40
0
40
0
40
1
40
1
40
1
10
70.419475405269438
20
26.521613449666816
30
0
10
70.247042254859295
20
26.765478427297612
30
0
10
69.989197844969922
20
26.765993790555509
30
0
0
SPLINE
5
561
100
AcDbEntity
8
0
100
AcDbSpline
70
0
71
2
72
6
73
3
74
0
42
0.000000001
43
0.0000000001
44
0.0000000001
40
0
40
0
40
0
40
1
40
1
40
1
10
69.989197844969922
20
26.765993790555509
30
0
10
69.735449458087814
20
26.766500966939152
30
0
10
69.583586346885895
20
26.551933500126324
30
0
0
SPLINE
5
562
100
AcDbEntity
8
0
100
AcDbSpline
70
0
71
2
72
6
73
3
74
0
42
0.000000001
43
0.0000000001
44
0.0000000001
40
0
40
0
40
0
40
1
40
1
40
1
10
69.583586346885895
20
26.551933500126324
30
0
10
69.39272339680079
20
26.278098947673243
30
0
10
69.391246842741566
20
25.539355538564273
30
0
0
LWPOLYLINE
5
563
100
AcDbEntity
8
0
100
AcDbPolyline
90
12
70
1
43
0.0
10
75.710533544753787
20
24.532179822336396
10
75.712177796305411
20
25.354824946025545
10
74.895672087776433
20
25.356456926498652
10
74.896359237496341
20
25.700248827302119
10
75.712864946025334
20
25.698616846829012
10
75.714496926796286
20
26.515122704369315
10
76.062382317414688
20
26.514427372838327
10
76.060750336643736
20
25.69792151529802
10
76.877256045172714
20
25.696289534824921
10
76.876568895452792
20
25.352497634021454
10
76.060063186923813
20
25.35412961449456
10
76.058418935372188
20
24.531484490805411
0
SPLINE
5
564
100
AcDbEntity
8
0
100
AcDbSpline
70
0
71
2
72
6
73
3
74
0
42
0.000000001
43
0.0000000001
44
0.0000000001
40
0
40
0
40
0
40
1
40
1
40
1
10
77.28413535852178
20
25.523579727324233
30
0
10
77.285198804538155
20
26.055638632068497
30
0
10
77.395328690417003
20
26.379771095813112
30
0
0
SPLINE
5
565
100
AcDbEntity
8
0
100
AcDbSpline
70
0
71
2
72
6
73
3
74
0
42
0.000000001
43
0.0000000001
44
0.0000000001
40
0
40
0
40
0
40
1
40
1
40
1
10
77.395328690417003
20
26.379771095813112
30
0
10
77.505458576295837
20
26.703903559557727
30
0
10
77.721702692433212
20
26.879460966105768
30
0
0
SPLINE
5
566
100
AcDbEntity
8
0
100
AcDbSpline
70
0
71
2
72
6
73
3
74
0
42
0.000000001
43
0.0000000001
44
0.0000000001
40
0
40
0
40
0
40
1
40
1
40
1
10
77.721702692433212
20
26.879460966105768
30
0
10
77.93794680797491
20
27.055018074631178
30
0
10
78.265371157005205
20
27.054363639348658
30
0
0
SPLINE
5
567
100
AcDbEntity
8
0
100
AcDbSpline
70
0
71
2
72
6
73
3
74
0
42
0.000000001
43
0.0000000001
44
0.0000000001
40
0
40
0
40
0
40
1
40
1
40
1
10
78.265371157005205
20
27.054363639348658
30
0
10
78.506841011589614
20
27.053881004526378
30
0
10
78.688774316980613
20
26.956313918769265
30
0
0
SPLINE
5
568
100
AcDbEntity
8
0
100
AcDbSpline
70
0
71
2
72
6
73
3
74
0
42
0.000000001
43
0.0000000001
44
0.0000000001
40
0
40
0
40
0
40
1
40
1
40
1
10
78.688774316980613
20
26.956313918769265
30
0
10
78.870707622371597
20
26.858746833012148
30
0
10
78.989030851596013
20
26.675358605785583
30
0
0
SPLINE
5
569
100
AcDbEntity
8
0
100
AcDbSpline
70
0
71
2
72
6
73
3
74
0
42
0.000000001
43
0.0000000001
44
0.0000000001
40
0
40
0
40
0
40
1
40
1
40
1
10
78.989030851596013
20
26.675358605785583
30
0
10
79.107358849182503
20
26.491970369028316
30
0
10
79.174362804425243
20
26.228875277885834
30
0
0
SPLINE
5
570
100
AcDbEntity
8
0
100
AcDbSpline
70
0
71
2
72
6
73
3
74
0
42
0.000000001
43
0.0000000001
44
0.0000000001
40
0
40
0
40
0
40
1
40
1
40
1
10
79.174362804425243
20
26.228875277885834
30
0
10
79.241366760263631
20
25.965780484765983
30
0
10
79.240475101602769
20
25.519669517969756
30
0
0
SPLINE
5
571
100
AcDbEntity
8
0
100
AcDbSpline
70
0
71
2
72
6
73
3
74
0
42
0.000000001
43
0.0000000001
44
0.0000000001
40
0
40
0
40
0
40
1
40
1
40
1
10
79.240475101602769
20
25.519669517969756
30
0
10
79.239419835312617
20
24.99170305996121
30
0
10
79.130315147573938
20
24.667568696126672
30
0
0
SPLINE
5
572
100
AcDbEntity
8
0
100
AcDbSpline
70
0
71
2
72
6
73
3
74
0
42
0.000000001
43
0.0000000001
44
0.0000000001
40
0
40
0
40
0
40
1
40
1
40
1
10
79.130315147573938
20
24.667568696126672
30
0
10
79.021205690877551
20
24.343434043800208
30
0
10
78.804959529808613
20
24.166853525568236
30
0
0
SPLINE
5
573
100
AcDbEntity
8
0
100
AcDbSpline
70
0
71
2
72
6
73
3
74
0
42
0.000000001
43
0.0000000001
44
0.0000000001
40
0
40
0
40
0
40
1
40
1
40
1
10
78.804959529808613
20
24.166853525568236
30
0
10
78.588713369335352
20
23.990273305358897
30
0
10
78.259248161344516
20
23.990931819782485
30
0
0
SPLINE
5
574
100
AcDbEntity
8
0
100
AcDbSpline
70
0
71
2
72
6
73
3
74
0
42
0.000000001
43
0.0000000001
44
0.0000000001
40
0
40
0
40
0
40
1
40
1
40
1
10
78.259248161344516
20
23.990931819782485
30
0
10
77.825413044642318
20
23.991798942243001
30
0
10
77.578423246574928
20
24.303343646336643
30
0
0
SPLINE
5
575
100
AcDbEntity
8
0
100
AcDbSpline
70
0
71
2
72
6
73
3
74
0
42
0.000000001
43
0.0000000001
44
0.0000000001
40
0
40
0
40
0
40
1
40
1
40
1
10
77.578423246574928
20
24.303343646336643
30
0
10
77.282446114604042
20
24.678424209441516
30
0
10
77.28413535852178
20
25.523579727324233
30
0
0
SPLINE
5
576
100
AcDbEntity
8
0
100
AcDbSpline
70
0
71
2
72
6
73
3
74
0
42
0.000000001
43
0.0000000001
44
0.0000000001
40
0
40
0
40
0
40
1
40
1
40
1
10
77.662714695703357
20
25.522823046655194
30
0
10
77.661238141346288
20
24.784079488534907
30
0
10
77.833669246824883
20
24.539191399220179
30
0
0
SPLINE
5
577
100
AcDbEntity
8
0
100
AcDbSpline
70
0
71
2
72
6
73
3
74
0
42
0.000000001
43
0.0000000001
44
0.0000000001
40
0
40
0
40
0
40
1
40
1
40
1
10
77.833669246824883
20
24.539191399220179
30
0
10
78.006100352303463
20
24.294303309905452
30
0
10
78.259853507547632
20
24.293796123991108
30
0
0
SPLINE
5
578
100
AcDbEntity
8
0
100
AcDbSpline
70
0
71
2
72
6
73
3
74
0
42
0.000000001
43
0.0000000001
44
0.0000000001
40
0
40
0
40
0
40
1
40
1
40
1
10
78.259853507547632
20
24.293796123991108
30
0
10
78.513601894429726
20
24.293288947607468
30
0
10
78.687012597178494
20
24.538508905746919
30
0
0
SPLINE
5
579
100
AcDbEntity
8
0
100
AcDbSpline
70
0
71
2
72
6
73
3
74
0
42
0.000000001
43
0.0000000001
44
0.0000000001
40
0
40
0
40
0
40
1
40
1
40
1
10
78.687012597178494
20
24.538508905746919
30
0
10
78.860423299927248
20
24.78372886388637
30
0
10
78.861895764421192
20
25.520426198638791
30
0
0
SPLINE
5
580
100
AcDbEntity
8
0
100
AcDbSpline
70
0
71
2
72
6
73
3
74
0
42
0.000000001
43
0.0000000001
44
0.0000000001
40
0
40
0
40
0
40
1
40
1
40
1
10
78.861895764421192
20
25.520426198638791
30
0
10
78.863376408641358
20
26.261215980126941
30
0
10
78.690943258231229
20
26.505080957757734
30
0
0
SPLINE
5
581
100
AcDbEntity
8
0
100
AcDbSpline
70
0
71
2
72
6
73
3
74
0
42
0.000000001
43
0.0000000001
44
0.0000000001
40
0
40
0
40
0
40
1
40
1
40
1
10
78.690943258231229
20
26.505080957757734
30
0
10
78.518510107821086
20
26.748945935388534
30
0
10
78.260665697931714
20
26.74946129864643
30
0
0
SPLINE
5
582
100
AcDbEntity
8
0
100
AcDbSpline
70
0
71
2
72
6
73
3
74
0
42
0.000000001
43
0.0000000001
44
0.0000000001
40
0
40
0
40
0
40
1
40
1
40
1
10
78.260665697931714
20
26.74946129864643
30
0
10
78.006917311049605
20
26.749968475030069
30
0
10
77.855054199847686
20
26.535401008217242
30
0
0
SPLINE
5
583
100
AcDbEntity
8
0
100
AcDbSpline
70
0
71
2
72
6
73
3
74
0
42
0.000000001
43
0.0000000001
44
0.0000000001
40
0
40
0
40
0
40
1
40
1
40
1
10
77.855054199847686
20
26.535401008217242
30
0
10
77.664191249762581
20
26.261566455764161
30
0
10
77.662714695703357
20
25.522823046655194
30
0
0
LWPOLYLINE
5
584
100
AcDbEntity
8
0
100
AcDbPolyline
90
4
70
1
43
0.0
10
79.818690638937937
20
24.038974566695167
10
79.819529125208618
20
24.458482543550787
10
80.239035313928468
20
24.457644060854111
10
80.238196827657774
20
24.038136083998491
0
SPLINE
5
585
100
AcDbEntity
8
0
100
AcDbSpline
70
0
71
2
72
6
73
3
74
0
42
0.000000001
43
0.0000000001
44
0.0000000001
40
0
40
0
40
0
40
1
40
1
40
1
10
80.779354283286509
20
25.516593702640176
30
0
10
80.780417729302897
20
26.048652607384444
30
0
10
80.890547615181731
20
26.372785071129059
30
0
0
SPLINE
5
586
100
AcDbEntity
8
0
100
AcDbSpline
70
0
71
2
72
6
73
3
74
0
42
0.000000001
43
0.0000000001
44
0.0000000001
40
0
40
0
40
0
40
1
40
1
40
1
10
80.890547615181731
20
26.372785071129059
30
0
10
81.000677501060565
20
26.696917534873673
30
0
10
81.21692161719794
20
26.872474941421714
30
0
0
SPLINE
5
587
100
AcDbEntity
8
0
100
AcDbSpline
70
0
71
2
72
6
73
3
74
0
42
0.000000001
43
0.0000000001
44
0.0000000001
40
0
40
0
40
0
40
1
40
1
40
1
10
81.21692161719794
20
26.872474941421714
30
0
10
81.433165732739653
20
27.048032049947118
30
0
10
81.760590081769934
20
27.047377614664605
30
0
0
SPLINE
5
588
100
AcDbEntity
8
0
100
AcDbSpline
70
0
71
2
72
6
73
3
74
0
42
0.000000001
43
0.0000000001
44
0.0000000001
40
0
40
0
40
0
40
1
40
1
40
1
10
81.760590081769934
20
27.047377614664605
30
0
10
82.002059936354357
20
27.046894979842328
30
0
10
82.183993241745341
20
26.949327894085208
30
0
0
SPLINE
5
589
100
AcDbEntity
8
0
100
AcDbSpline
70
0
71
2
72
6
73
3
74
0
42
0.000000001
43
0.0000000001
44
0.0000000001
40
0
40
0
40
0
40
1
40
1
40
1
10
82.183993241745341
20
26.949327894085208
30
0
10
82.365926547136326
20
26.851760808328095
30
0
10
82.484249776360755
20
26.668372581101529
30
0
0
SPLINE
5
590
100
AcDbEntity
8
0
100
AcDbSpline
70
0
71
2
72
6
73
3
74
0
42
0.000000001
43
0.0000000001
44
0.0000000001
40
0
40
0
40
0
40
1
40
1
40
1
10
82.484249776360755
20
26.668372581101529
30
0
10
82.602577773947246
20
26.484984344344262
30
0
10
82.669581729189971
20
26.22188925320178
30
0
0
SPLINE
5
591
100
AcDbEntity
8
0
100
AcDbSpline
70
0
71
2
72
6
73
3
74
0
42
0.000000001
43
0.0000000001
44
0.0000000001
40
0
40
0
40
0
40
1
40
1
40
1
10
82.669581729189971
20
26.22188925320178
30
0
10
82.736585685028373
20
25.958794460081933
30
0
10
82.735694026367511
20
25.512683493285699
30
0
0
SPLINE
5
592
100
AcDbEntity
8
0
100
AcDbSpline
70
0
71
2
72
6
73
3
74
0
42
0.000000001
43
0.0000000001
44
0.0000000001
40
0
40
0
40
0
40
1
40
1
40
1
10
82.735694026367511
20
25.512683493285699
30
0
10
82.73463876007736
20
24.984717035277161
30
0
10
82.625534072338681
20
24.660582671442619
30
0
0
SPLINE
5
593
100
AcDbEntity
8
0
100
AcDbSpline
70
0
71
2
72
6
73
3
74
0
42
0.000000001
43
0.0000000001
44
0.0000000001
40
0
40
0
40
0
40
1
40
1
40
1
10
82.625534072338681
20
24.660582671442619
30
0
10
82.516424615642293
20
24.336448019116155
30
0
10
82.300178454573341
20
24.159867500884182
30
0
0
SPLINE
5
594
100
AcDbEntity
8
0
100
AcDbSpline
70
0
71
2
72
6
73
3
74
0
42
0.000000001
43
0.0000000001
44
0.0000000001
40
0
40
0
40
0
40
1
40
1
40
1
10
82.300178454573341
20
24.159867500884182
30
0
10
82.08393229410008
20
23.983287280674844
30
0
10
81.754467086109258
20
23.983945795098435
30
0
0
SPLINE
5
595
100
AcDbEntity
8
0
100
AcDbSpline
70
0
71
2
72
6
73
3
74
0
42
0.000000001
43
0.0000000001
44
0.0000000001
40
0
40
0
40
0
40
1
40
1
40
1
10
81.754467086109258
20
23.983945795098435
30
0
10
81.32063196940706
20
23.984812917558948
30
0
10
81.073642171339657
20
24.296357621652589
30
0
0
SPLINE
5
596
100
AcDbEntity
8
0
100
AcDbSpline
70
0
71
2
72
6
73
3
74
0
42
0.000000001
43
0.0000000001
44
0.0000000001
40
0
40
0
40
0
40
1
40
1
40
1
10
81.073642171339657
20
24.296357621652589
30
0
10
80.777665039368785
20
24.671438184757463
30
0
10
80.779354283286509
20
25.516593702640176
30
0
0
SPLINE
5
597
100
AcDbEntity
8
0
100
AcDbSpline
70
0
71
2
72
6
73
3
74
0
42
0.000000001
43
0.0000000001
44
0.0000000001
40
0
40
0
40
0
40
1
40
1
40
1
10
81.157933620468086
20
25.515837021971141
30
0
10
81.156457066111031
20
24.777093463850854
30
0
10
81.328888171589625
20
24.532205374536126
30
0
0
SPLINE
5
598
100
AcDbEntity
8
0
100
AcDbSpline
70
0
71
2
72
6
73
3
74
0
42
0.000000001
43
0.0000000001
44
0.0000000001
40
0
40
0
40
0
40
1
40
1
40
1
10
81.328888171589625
20
24.532205374536126
30
0
10
81.501319277068205
20
24.287317285221398
30
0
10
81.75507243231236
20
24.286810099307058
30
0
0
SPLINE
5
599
100
AcDbEntity
8
0
100
AcDbSpline
70
0
71
2
72
6
73
3
74
0
42
0.000000001
43
0.0000000001
44
0.0000000001
40
0
40
0
40
0
40
1
40
1
40
1
10
81.75507243231236
20
24.286810099307058
30
0
10
82.008820819194469
20
24.286302922923415
30
0
10
82.182231521943237
20
24.531522881062866
30
0
0
SPLINE
5
600
100
AcDbEntity
8
0
100
AcDbSpline
70
0
71
2
72
6
73
3
74
0
42
0.000000001
43
0.0000000001
44
0.0000000001
40
0
40
0
40
0
40
1
40
1
40
1
10
82.182231521943237
20
24.531522881062866
30
0
10
82.355642224691991
20
24.776742839202317
30
0
10
82.357114689185934
20
25.513440173954738
30
0
0
SPLINE
5
601
100
AcDbEntity
8
0
100
AcDbSpline
70
0
71
2
72
6
73
3
74
0
42
0.000000001
43
0.0000000001
44
0.0000000001
40
0
40
0
40
0
40
1
40
1
40
1
10
82.357114689185934
20
25.513440173954738
30
0
10
82.3585953334061
20
26.254229955442881
30
0
10
82.186162182995957
20
26.498094933073681
30
0
0
SPLINE
5
602
100
AcDbEntity
8
0
100
AcDbSpline
70
0
71
2
72
6
73
3
74
0
42
0.000000001
43
0.0000000001
44
0.0000000001
40
0
40
0
40
0
40
1
40
1
40
1
10
82.186162182995957
20
26.498094933073681
30
0
10
82.013729032585815
20
26.74195991070448
30
0
10
81.755884622696442
20
26.742475273962377
30
0
0
SPLINE
5
603
100
AcDbEntity
8
0
100
AcDbSpline
70
0
71
2
72
6
73
3
74
0
42
0.000000001
43
0.0000000001
44
0.0000000001
40
0
40
0
40
0
40
1
40
1
40
1
10
81.755884622696442
20
26.742475273962377
30
0
10
81.502136235814348
20
26.74298245034602
30
0
10
81.350273124612414
20
26.528414983533189
30
0
0
SPLINE
5
604
100
AcDbEntity
8
0
100
AcDbSpline
70
0
71
2
72
6
73
3
74
0
42
0.000000001
43
0.0000000001
44
0.0000000001
40
0
40
0
40
0
40
1
40
1
40
1
10
81.350273124612414
20
26.528414983533189
30
0
10
81.159410174527324
20
26.254580431080111
30
0
10
81.157933620468086
20
25.515837021971141
30
0
0
LINE
5
605
100
AcDbEntity
8
0
100
AcDbLine
10
83.108795538683353
20
24.818211922204441
30
0
11
83.495627596092589
21
24.850180835384418
31
0
0
SPLINE
5
606
100
AcDbEntity
8
0
100
AcDbSpline
70
0
71
2
72
6
73
3
74
0
42
0.000000001
43
0.0000000001
44
0.0000000001
40
0
40
0
40
0
40
1
40
1
40
1
10
83.495627596092589
20
24.850180835384418
30
0
10
83.538035630359872
20
24.567694364268142
30
0
10
83.694301458134319
20
24.42515820886241
30
0
0
SPLINE
5
607
100
AcDbEntity
8
0
100
AcDbSpline
70
0
71
2
72
6
73
3
74
0
42
0.000000001
43
0.0000000001
44
0.0000000001
40
0
40
0
40
0
40
1
40
1
40
1
10
83.694301458134319
20
24.42515820886241
30
0
10
83.850562516951058
20
24.282621764964748
30
0
10
84.071576098309436
20
24.282180016860231
30
0
0
SPLINE
5
608
100
AcDbEntity
8
0
100
AcDbSpline
70
0
71
2
72
6
73
3
74
0
42
0.000000001
43
0.0000000001
44
0.0000000001
40
0
40
0
40
0
40
1
40
1
40
1
10
84.071576098309436
20
24.282180016860231
30
0
10
84.337603017489215
20
24.281648298915229
30
0
10
84.52217707115247
20
24.481825572252678
30
0
0
SPLINE
5
609
100
AcDbEntity
8
0
100
AcDbSpline
70
0
71
2
72
6
73
3
74
0
42
0.000000001
43
0.0000000001
44
0.0000000001
40
0
40
0
40
0
40
1
40
1
40
1
10
84.52217707115247
20
24.481825572252678
30
0
10
84.706751124220034
20
24.6820025475675
30
0
10
84.707413732676429
20
25.013516065084591
30
0
0
SPLINE
5
610
100
AcDbEntity
8
0
100
AcDbSpline
70
0
71
2
72
6
73
3
74
0
42
0.000000001
43
0.0000000001
44
0.0000000001
40
0
40
0
40
0
40
1
40
1
40
1
10
84.707413732676429
20
25.013516065084591
30
0
10
84.708043620440904
20
25.328658901590902
30
0
10
84.531396509961411
20
25.511140587167329
30
0
0
SPLINE
5
611
100
AcDbEntity
8
0
100
AcDbSpline
70
0
71
2
72
6
73
3
74
0
42
0.000000001
43
0.0000000001
44
0.0000000001
40
0
40
0
40
0
40
1
40
1
40
1
10
84.531396509961411
20
25.511140587167329
30
0
10
84.354749399481918
20
25.693622272743756
30
0
10
84.068256670351957
20
25.694194896467934
30
0
0
SPLINE
5
612
100
AcDbEntity
8
0
100
AcDbSpline
70
0
71
2
72
6
73
3
74
0
42
0.000000001
43
0.0000000001
44
0.0000000001
40
0
40
0
40
0
40
1
40
1
40
1
10
84.068256670351957
20
25.694194896467934
30
0
10
83.890225104578604
20
25.694550734811624
30
0
10
83.746812409549491
20
25.614004974698659
30
0
0
SPLINE
5
613
100
AcDbEntity
8
0
100
AcDbSpline
70
0
71
2
72
6
73
3
74
0
42
0.000000001
43
0.0000000001
44
0.0000000001
40
0
40
0
40
0
40
1
40
1
40
1
10
83.746812409549491
20
25.614004974698659
30
0
10
83.603404483180285
20
25.533459354066309
30
0
10
83.521293098772631
20
25.404700902188218
30
0
0
LINE
5
614
100
AcDbEntity
8
0
100
AcDbLine
10
83.521293098772631
20
25.404700902188218
30
0
11
83.175543319315551
21
25.450412486400623
31
0
0
LINE
5
615
100
AcDbEntity
8
0
100
AcDbLine
10
83.175543319315551
20
25.450412486400623
30
0
11
83.469207206794238
21
26.990756345327927
31
0
0
LINE
5
616
100
AcDbEntity
8
0
100
AcDbLine
10
83.469207206794238
20
26.990756345327927
30
0
11
84.961022654971913
21
26.987774598041323
31
0
0
LINE
5
617
100
AcDbEntity
8
0
100
AcDbLine
10
84.961022654971913
20
26.987774598041323
30
0
11
84.960319144310361
21
26.635797058709834
31
0
0
LINE
5
618
100
AcDbEntity
8
0
100
AcDbLine
10
84.960319144310361
20
26.635797058709834
30
0
11
83.763183702915128
21
26.638189818054457
31
0
0
LINE
5
619
100
AcDbEntity
8
0
100
AcDbLine
10
83.763183702915128
20
26.638189818054457
30
0
11
83.599910394118439
21
25.832238941848814
31
0
0
SPLINE
5
620
100
AcDbEntity
8
0
100
AcDbSpline
70
0
71
2
72
6
73
3
74
0
42
0.000000001
43
0.0000000001
44
0.0000000001
40
0
40
0
40
0
40
1
40
1
40
1
10
83.599910394118453
20
25.832238941848821
30
0
10
83.870409632899793
20
26.019966189981677
30
0
10
84.167135267004838
20
26.019373113367912
30
0
0
SPLINE
5
621
100
AcDbEntity
8
0
100
AcDbSpline
70
0
71
2
72
6
73
3
74
0
42
0.000000001
43
0.0000000001
44
0.0000000001
40
0
40
0
40
0
40
1
40
1
40
1
10
84.167135267004838
20
26.019373113367912
30
0
10
84.560038763806716
20
26.018587802465738
30
0
10
84.829612943842832
20
25.745879188656208
30
0
0
SPLINE
5
622
100
AcDbEntity
8
0
100
AcDbSpline
70
0
71
2
72
6
73
3
74
0
42
0.000000001
43
0.0000000001
44
0.0000000001
40
0
40
0
40
0
40
1
40
1
40
1
10
84.829612943842832
20
25.745879188656208
30
0
10
85.099196660900915
20
25.47317070479658
30
0
10
85.098341813688592
20
25.045477089412937
30
0
0
SPLINE
5
623
100
AcDbEntity
8
0
100
AcDbSpline
70
0
71
2
72
6
73
3
74
0
42
0.000000001
43
0.0000000001
44
0.0000000001
40
0
40
0
40
0
40
1
40
1
40
1
10
85.098341813688592
20
25.045477089412937
30
0
10
85.097527868383608
20
24.638247346832376
30
0
10
84.859556193021973
20
24.341996766251324
30
0
0
SPLINE
5
624
100
AcDbEntity
8
0
100
AcDbSpline
70
0
71
2
72
6
73
3
74
0
42
0.000000001
43
0.0000000001
44
0.0000000001
40
0
40
0
40
0
40
1
40
1
40
1
10
84.859556193021973
20
24.341996766251324
30
0
10
84.570285016580129
20
23.978317714571432
30
0
10
84.070970752106319
20
23.979315712651612
30
0
0
SPLINE
5
625
100
AcDbEntity
8
0
100
AcDbSpline
70
0
71
2
72
6
73
3
74
0
42
0.000000001
43
0.0000000001
44
0.0000000001
40
0
40
0
40
0
40
1
40
1
40
1
10
84.070970752106319
20
23.979315712651612
30
0
10
83.661692699999492
20
23.980133751989406
30
0
10
83.403281192081081
20
24.209845764884186
30
0
0
SPLINE
5
626
100
AcDbEntity
8
0
100
AcDbSpline
70
0
71
2
72
6
73
3
74
0
42
0.000000001
43
0.0000000001
44
0.0000000001
40
0
40
0
40
0
40
1
40
1
40
1
10
83.403281192081081
20
24.209845764884186
30
0
10
83.144874452524704
20
24.439557768248264
30
0
10
83.108795538683353
20
24.818211922204441
30
0
0
LWPOLYLINE
5
627
100
AcDbEntity
8
0
100
AcDbPolyline
90
12
70
1
43
0.0
10
88.643661817312363
20
24.506329895536688
10
88.645306068863988
20
25.328975019225837
10
87.828800360335009
20
25.330606999698944
10
87.829487510054918
20
25.67439890050241
10
88.645993218583911
20
25.672766920029304
10
88.647625199354849
20
26.489272777569607
10
88.995505821611189
20
26.488577455569327
10
88.993873840840237
20
25.672071598029017
10
89.81037954936923
20
25.670439617555914
10
89.809692399649322
20
25.326647716752451
10
88.993186691120329
20
25.328279697225557
10
88.991542439568704
20
24.505634573536412
0
SPLINE
5
628
100
AcDbEntity
8
0
100
AcDbSpline
70
0
71
2
72
6
73
3
74
0
42
0.000000001
43
0.0000000001
44
0.0000000001
40
0
40
0
40
0
40
1
40
1
40
1
10
90.217263631080357
20
25.497729800524525
30
0
10
90.218327077096745
20
26.029788705268793
30
0
10
90.328456962975565
20
26.353921169013404
30
0
0
SPLINE
5
629
100
AcDbEntity
8
0
100
AcDbSpline
70
0
71
2
72
6
73
3
74
0
42
0.000000001
43
0.0000000001
44
0.0000000001
40
0
40
0
40
0
40
1
40
1
40
1
10
90.328456962975565
20
26.353921169013404
30
0
10
90.438586848854413
20
26.678053632758019
30
0
10
90.654830964991788
20
26.85361103930606
30
0
0
SPLINE
5
630
100
AcDbEntity
8
0
100
AcDbSpline
70
0
71
2
72
6
73
3
74
0
42
0.000000001
43
0.0000000001
44
0.0000000001
40
0
40
0
40
0
40
1
40
1
40
1
10
90.654830964991788
20
26.85361103930606
30
0
10
90.871075080533501
20
27.02916814783147
30
0
10
91.198499429563782
20
27.02851371254895
30
0
0
SPLINE
5
631
100
AcDbEntity
8
0
100
AcDbSpline
70
0
71
2
72
6
73
3
74
0
42
0.000000001
43
0.0000000001
44
0.0000000001
40
0
40
0
40
0
40
1
40
1
40
1
10
91.198499429563782
20
27.02851371254895
30
0
10
91.439969284148205
20
27.02803107772667
30
0
10
91.621907357901222
20
26.930463982438852
30
0
0
SPLINE
5
632
100
AcDbEntity
8
0
100
AcDbSpline
70
0
71
2
72
6
73
3
74
0
42
0.000000001
43
0.0000000001
44
0.0000000001
40
0
40
0
40
0
40
1
40
1
40
1
10
91.621907357901222
20
26.930463982438852
30
0
10
91.803835894930174
20
26.832896906212444
30
0
10
91.922163892516664
20
26.649508669455173
30
0
0
SPLINE
5
633
100
AcDbEntity
8
0
100
AcDbSpline
70
0
71
2
72
6
73
3
74
0
42
0.000000001
43
0.0000000001
44
0.0000000001
40
0
40
0
40
0
40
1
40
1
40
1
10
91.922163892516664
20
26.649508669455173
30
0
10
92.040482353379019
20
26.466120451759313
30
0
10
92.107486308621759
20
26.203025360616831
30
0
0
SPLINE
5
634
100
AcDbEntity
8
0
100
AcDbSpline
70
0
71
2
72
6
73
3
74
0
42
0.000000001
43
0.0000000001
44
0.0000000001
40
0
40
0
40
0
40
1
40
1
40
1
10
92.107486308621759
20
26.203025360616831
30
0
10
92.174499801184254
20
25.939930548435576
30
0
10
92.173608142523392
20
25.493819581639343
30
0
0
SPLINE
5
635
100
AcDbEntity
8
0
100
AcDbSpline
70
0
71
2
72
6
73
3
74
0
42
0.000000001
43
0.0000000001
44
0.0000000001
40
0
40
0
40
0
40
1
40
1
40
1
10
92.173608142523392
20
25.493819581639343
30
0
10
92.17255287623324
20
24.965853123630804
30
0
10
92.063443420132515
20
24.641718769326964
30
0
0
SPLINE
5
636
100
AcDbEntity
8
0
100
AcDbSpline
70
0
71
2
72
6
73
3
74
0
42
0.000000001
43
0.0000000001
44
0.0000000001
40
0
40
0
40
0
40
1
40
1
40
1
10
92.063443420132515
20
24.641718769326964
30
0
10
91.954333963436113
20
24.3175841170005
30
0
10
91.73808780236719
20
24.141003598768531
30
0
0
SPLINE
5
637
100
AcDbEntity
8
0
100
AcDbSpline
70
0
71
2
72
6
73
3
74
0
42
0.000000001
43
0.0000000001
44
0.0000000001
40
0
40
0
40
0
40
1
40
1
40
1
10
91.73808780236719
20
24.141003598768531
30
0
10
91.521841641893928
20
23.964423378559189
30
0
10
91.192376433903092
20
23.965081892982777
30
0
0
SPLINE
5
638
100
AcDbEntity
8
0
100
AcDbSpline
70
0
71
2
72
6
73
3
74
0
42
0.000000001
43
0.0000000001
44
0.0000000001
40
0
40
0
40
0
40
1
40
1
40
1
10
91.192376433903092
20
23.965081892982777
30
0
10
90.758541317200908
20
23.965949015443297
30
0
10
90.511551519133505
20
24.277493719536935
30
0
0
SPLINE
5
639
100
AcDbEntity
8
0
100
AcDbSpline
70
0
71
2
72
6
73
3
74
0
42
0.000000001
43
0.0000000001
44
0.0000000001
40
0
40
0
40
0
40
1
40
1
40
1
10
90.511551519133505
20
24.277493719536935
30
0
10
90.215574387162633
20
24.652574282641808
30
0
10
90.217263631080357
20
25.497729800524525
30
0
0
SPLINE
5
640
100
AcDbEntity
8
0
100
AcDbSpline
70
0
71
2
72
6
73
3
74
0
42
0.000000001
43
0.0000000001
44
0.0000000001
40
0
40
0
40
0
40
1
40
1
40
1
10
90.595842968261934
20
25.496973119855486
30
0
10
90.594366413904879
20
24.758229561735202
30
0
10
90.766797519383445
20
24.513341472420475
30
0
0
SPLINE
5
641
100
AcDbEntity
8
0
100
AcDbSpline
70
0
71
2
72
6
73
3
74
0
42
0.000000001
43
0.0000000001
44
0.0000000001
40
0
40
0
40
0
40
1
40
1
40
1
10
90.766797519383445
20
24.513341472420475
30
0
10
90.939228624862039
20
24.268453383105747
30
0
10
91.192981780106209
20
24.267946197191399
30
0
0
SPLINE
5
642
100
AcDbEntity
8
0
100
AcDbSpline
70
0
71
2
72
6
73
3
74
0
42
0.000000001
43
0.0000000001
44
0.0000000001
40
0
40
0
40
0
40
1
40
1
40
1
10
91.192981780106209
20
24.267946197191399
30
0
10
91.446734935350364
20
24.267439011277059
30
0
10
91.620136101374996
20
24.512658988477916
30
0
0
SPLINE
5
643
100
AcDbEntity
8
0
100
AcDbSpline
70
0
71
2
72
6
73
3
74
0
42
0.000000001
43
0.0000000001
44
0.0000000001
40
0
40
0
40
0
40
1
40
1
40
1
10
91.620136101374996
20
24.512658988477916
30
0
10
91.79354680412375
20
24.757878946617367
30
0
10
91.795019268617693
20
25.494576281369788
30
0
0
SPLINE
5
644
100
AcDbEntity
8
0
100
AcDbSpline
70
0
71
2
72
6
73
3
74
0
42
0.000000001
43
0.0000000001
44
0.0000000001
40
0
40
0
40
0
40
1
40
1
40
1
10
91.795019268617693
20
25.494576281369788
30
0
10
91.796499912837874
20
26.235366062857935
30
0
10
91.624066762427731
20
26.479231040488731
30
0
0
SPLINE
5
645
100
AcDbEntity
8
0
100
AcDbSpline
70
0
71
2
72
6
73
3
74
0
42
0.000000001
43
0.0000000001
44
0.0000000001
40
0
40
0
40
0
40
1
40
1
40
1
10
91.624066762427731
20
26.479231040488731
30
0
10
91.451643148741709
20
26.72309599905812
30
0
10
91.193798738852337
20
26.723611362316021
30
0
0
SPLINE
5
646
100
AcDbEntity
8
0
100
AcDbSpline
70
0
71
2
72
6
73
3
74
0
42
0.000000001
43
0.0000000001
44
0.0000000001
40
0
40
0
40
0
40
1
40
1
40
1
10
91.193798738852337
20
26.723611362316021
30
0
10
90.940045583608168
20
26.724118548230361
30
0
10
90.788182472406262
20
26.509551081417541
30
0
0
SPLINE
5
647
100
AcDbEntity
8
0
100
AcDbSpline
70
0
71
2
72
6
73
3
74
0
42
0.000000001
43
0.0000000001
44
0.0000000001
40
0
40
0
40
0
40
1
40
1
40
1
10
90.788182472406262
20
26.509551081417541
30
0
10
90.597319522321143
20
26.235716528964453
30
0
10
90.595842968261934
20
25.496973119855486
30
0
0
LWPOLYLINE
5
648
100
AcDbEntity
8
0
100
AcDbPolyline
90
4
70
1
43
0.0
10
92.7518189114965
20
24.013124639895459
10
92.752657397767194
20
24.432632616751079
10
93.172168354849106
20
24.431794124523702
10
93.171329868578411
20
24.012286147668082
0
LINE
5
649
100
AcDbEntity
8
0
100
AcDbLine
10
95.09697566509621
20
24.008437287451656
30
0
11
94.728619696165595
21
24.009173534292515
31
0
0
LINE
5
650
100
AcDbEntity
8
0
100
AcDbLine
10
94.728619696165595
20
24.009173534292515
30
0
11
94.733311129835315
21
26.356372189931967
31
0
0
SPLINE
5
651
100
AcDbEntity
8
0
100
AcDbSpline
70
0
71
2
72
6
73
3
74
0
42
0.000000001
43
0.0000000001
44
0.0000000001
40
0
40
0
40
0
40
1
40
1
40
1
10
94.733311129835329
20
26.356372189931975
30
0
10
94.600048847437321
20
26.229762355819574
30
0
10
94.383902896056227
20
26.103318333405717
30
0
0
SPLINE
5
652
100
AcDbEntity
8
0
100
AcDbSpline
70
0
71
2
72
6
73
3
74
0
42
0.000000001
43
0.0000000001
44
0.0000000001
40
0
40
0
40
0
40
1
40
1
40
1
10
94.383902896056227
20
26.103318333405717
30
0
10
94.167756944377288
20
25.97687416198054
30
0
10
93.995730696922408
20
25.913780051073822
30
0
0
LINE
5
653
100
AcDbEntity
8
0
100
AcDbLine
10
93.995730696922408
20
25.913780051073822
30
0
11
93.996442387608013
21
26.269850186152347
31
0
0
SPLINE
5
654
100
AcDbEntity
8
0
100
AcDbSpline
70
0
71
2
72
6
73
3
74
0
42
0.000000001
43
0.0000000001
44
0.0000000001
40
0
40
0
40
0
40
1
40
1
40
1
10
93.996442387608028
20
26.269850186152347
30
0
10
94.305732188267399
20
26.414525612474712
30
0
10
94.53739178294154
20
26.620748064856627
30
0
0
SPLINE
5
655
100
AcDbEntity
8
0
100
AcDbSpline
70
0
71
2
72
6
73
3
74
0
42
0.000000001
43
0.0000000001
44
0.0000000001
40
0
40
0
40
0
40
1
40
1
40
1
10
94.53739178294154
20
26.620748064856627
30
0
10
94.76904184029587
20
26.826970238277323
30
0
10
94.865608269772025
20
27.02118412506724
30
0
0
LINE
5
656
100
AcDbEntity
8
0
100
AcDbLine
10
94.865608269772025
20
27.02118412506724
30
0
11
95.102996406435352
21
27.020709648527106
31
0
0
LINE
5
657
100
AcDbEntity
8
0
100
AcDbLine
10
95.102996406435352
20
27.020709648527106
30
0
11
95.09697566509621
21
24.008437287451656
31
0
0
SPLINE
5
658
100
AcDbEntity
8
0
100
AcDbSpline
70
0
71
2
72
6
73
3
74
0
42
0.000000001
43
0.0000000001
44
0.0000000001
40
0
40
0
40
0
40
1
40
1
40
1
10
96.043305613100387
20
25.486085072691218
30
0
10
96.044369059116775
20
26.018143977435479
30
0
10
96.154498944995609
20
26.342276441180097
30
0
0
SPLINE
5
659
100
AcDbEntity
8
0
100
AcDbSpline
70
0
71
2
72
6
73
3
74
0
42
0.000000001
43
0.0000000001
44
0.0000000001
40
0
40
0
40
0
40
1
40
1
40
1
10
96.154498944995609
20
26.342276441180097
30
0
10
96.264628830874443
20
26.666408904924708
30
0
10
96.480872947011832
20
26.841966311472749
30
0
0
SPLINE
5
660
100
AcDbEntity
8
0
100
AcDbSpline
70
0
71
2
72
6
73
3
74
0
42
0.000000001
43
0.0000000001
44
0.0000000001
40
0
40
0
40
0
40
1
40
1
40
1
10
96.480872947011832
20
26.841966311472749
30
0
10
96.697117062553545
20
27.01752341999816
30
0
10
97.024541411583826
20
27.016868984715643
30
0
0
SPLINE
5
661
100
AcDbEntity
8
0
100
AcDbSpline
70
0
71
2
72
6
73
3
74
0
42
0.000000001
43
0.0000000001
44
0.0000000001
40
0
40
0
40
0
40
1
40
1
40
1
10
97.024541411583826
20
27.016868984715643
30
0
10
97.266011266168249
20
27.016386349893363
30
0
10
97.44794933992128
20
26.918819254605545
30
0
0
SPLINE
5
662
100
AcDbEntity
8
0
100
AcDbSpline
70
0
71
2
72
6
73
3
74
0
42
0.000000001
43
0.0000000001
44
0.0000000001
40
0
40
0
40
0
40
1
40
1
40
1
10
97.44794933992128
20
26.918819254605545
30
0
10
97.629877876950218
20
26.821252178379133
30
0
10
97.748205874536694
20
26.637863941621866
30
0
0
SPLINE
5
663
100
AcDbEntity
8
0
100
AcDbSpline
70
0
71
2
72
6
73
3
74
0
42
0.000000001
43
0.0000000001
44
0.0000000001
40
0
40
0
40
0
40
1
40
1
40
1
10
97.748205874536694
20
26.637863941621866
30
0
10
97.866524335399063
20
26.454475723925999
30
0
10
97.933528290641789
20
26.19138063278352
30
0
0
SPLINE
5
664
100
AcDbEntity
8
0
100
AcDbSpline
70
0
71
2
72
6
73
3
74
0
42
0.000000001
43
0.0000000001
44
0.0000000001
40
0
40
0
40
0
40
1
40
1
40
1
10
97.933528290641789
20
26.19138063278352
30
0
10
98.000541783204298
20
25.928285820602262
30
0
10
97.999650124543436
20
25.482174853806036
30
0
0
SPLINE
5
665
100
AcDbEntity
8
0
100
AcDbSpline
70
0
71
2
72
6
73
3
74
0
42
0.000000001
43
0.0000000001
44
0.0000000001
40
0
40
0
40
0
40
1
40
1
40
1
10
97.999650124543436
20
25.482174853806036
30
0
10
97.998594858253284
20
24.95420839579749
30
0
10
97.889485402152559
20
24.630074041493657
30
0
0
SPLINE
5
666
100
AcDbEntity
8
0
100
AcDbSpline
70
0
71
2
72
6
73
3
74
0
42
0.000000001
43
0.0000000001
44
0.0000000001
40
0
40
0
40
0
40
1
40
1
40
1
10
97.889485402152559
20
24.630074041493657
30
0
10
97.780375945456157
20
24.30593938916719
30
0
10
97.564129784387234
20
24.129358870935217
30
0
0
SPLINE
5
667
100
AcDbEntity
8
0
100
AcDbSpline
70
0
71
2
72
6
73
3
74
0
42
0.000000001
43
0.0000000001
44
0.0000000001
40
0
40
0
40
0
40
1
40
1
40
1
10
97.564129784387234
20
24.129358870935217
30
0
10
97.347883623913972
20
23.952778650725879
30
0
10
97.018418415923136
20
23.95343716514947
30
0
0
SPLINE
5
668
100
AcDbEntity
8
0
100
AcDbSpline
70
0
71
2
72
6
73
3
74
0
42
0.000000001
43
0.0000000001
44
0.0000000001
40
0
40
0
40
0
40
1
40
1
40
1
10
97.018418415923136
20
23.95343716514947
30
0
10
96.584583299220952
20
23.954304287609986
30
0
10
96.337593501153549
20
24.265848991703628
30
0
0
SPLINE
5
669
100
AcDbEntity
8
0
100
AcDbSpline
70
0
71
2
72
6
73
3
74
0
42
0.000000001
43
0.0000000001
44
0.0000000001
40
0
40
0
40
0
40
1
40
1
40
1
10
96.337593501153549
20
24.265848991703628
30
0
10
96.041616369182663
20
24.640929554808501
30
0
10
96.043305613100387
20
25.486085072691218
30
0
0
SPLINE
5
670
100
AcDbEntity
8
0
100
AcDbSpline
70
0
71
2
72
6
73
3
74
0
42
0.000000001
43
0.0000000001
44
0.0000000001
40
0
40
0
40
0
40
1
40
1
40
1
10
96.421884950281964
20
25.485328392022176
30
0
10
96.420408395924909
20
24.746584833901892
30
0
10
96.592839501403489
20
24.501696744587164
30
0
0
SPLINE
5
671
100
AcDbEntity
8
0
100
AcDbSpline
70
0
71
2
72
6
73
3
74
0
42
0.000000001
43
0.0000000001
44
0.0000000001
40
0
40
0
40
0
40
1
40
1
40
1
10
96.592839501403489
20
24.501696744587164
30
0
10
96.765270606882083
20
24.256808655272437
30
0
10
97.019023762126238
20
24.256301469358093
30
0
0
SPLINE
5
672
100
AcDbEntity
8
0
100
AcDbSpline
70
0
71
2
72
6
73
3
74
0
42
0.000000001
43
0.0000000001
44
0.0000000001
40
0
40
0
40
0
40
1
40
1
40
1
10
97.019023762126238
20
24.256301469358093
30
0
10
97.272776917370408
20
24.255794283443745
30
0
10
97.44617808339504
20
24.501014260644602
30
0
0
SPLINE
5
673
100
AcDbEntity
8
0
100
AcDbSpline
70
0
71
2
72
6
73
3
74
0
42
0.000000001
43
0.0000000001
44
0.0000000001
40
0
40
0
40
0
40
1
40
1
40
1
10
97.44617808339504
20
24.501014260644602
30
0
10
97.619588786143794
20
24.746234218784057
30
0
10
97.621061250637737
20
25.482931553536478
30
0
0
SPLINE
5
674
100
AcDbEntity
8
0
100
AcDbSpline
70
0
71
2
72
6
73
3
74
0
42
0.000000001
43
0.0000000001
44
0.0000000001
40
0
40
0
40
0
40
1
40
1
40
1
10
97.621061250637737
20
25.482931553536478
30
0
10
97.622541894857903
20
26.223721335024624
30
0
10
97.450108744447761
20
26.46758631265542
30
0
0
SPLINE
5
675
100
AcDbEntity
8
0
100
AcDbSpline
70
0
71
2
72
6
73
3
74
0
42
0.000000001
43
0.0000000001
44
0.0000000001
40
0
40
0
40
0
40
1
40
1
40
1
10
97.450108744447761
20
26.46758631265542
30
0
10
97.277685130761739
20
26.71145127122481
30
0
10
97.019840720872367
20
26.711966634482707
30
0
0
SPLINE
5
676
100
AcDbEntity
8
0
100
AcDbSpline
70
0
71
2
72
6
73
3
74
0
42
0.000000001
43
0.0000000001
44
0.0000000001
40
0
40
0
40
0
40
1
40
1
40
1
10
97.019840720872367
20
26.711966634482707
30
0
10
96.766087565628212
20
26.712473820397054
30
0
10
96.614224454426306
20
26.497906353584227
30
0
0
SPLINE
5
677
100
AcDbEntity
8
0
100
AcDbSpline
70
0
71
2
72
6
73
3
74
0
42
0.000000001
43
0.0000000001
44
0.0000000001
40
0
40
0
40
0
40
1
40
1
40
1
10
96.614224454426306
20
26.497906353584227
30
0
10
96.423361504341187
20
26.224071801131146
30
0
10
96.421884950281964
20
25.485328392022176
30
0
0
LWPOLYLINE
5
678
100
AcDbEntity
8
0
100
AcDbPolyline
90
12
70
1
43
0.0
10
100.41238945399945
20
24.482807299802481
10
100.41403370555108
20
25.30545242349163
10
99.597527997022084
20
25.307084403964737
10
99.598215146742007
20
25.650876304768204
10
100.41472085527099
20
25.649244324295097
10
100.41635283604194
20
26.4657501818354
10
100.76423345829826
20
26.465054859835121
10
100.76260147752733
20
25.648549002294811
10
101.57910718605632
20
25.646917021821707
10
101.5784200363364
20
25.30312512101824
10
100.7619143278074
20
25.304757101491347
10
100.76027007625578
20
24.482111977802205
0
SPLINE
5
679
100
AcDbEntity
8
0
100
AcDbSpline
70
0
71
2
72
6
73
3
74
0
42
0.000000001
43
0.0000000001
44
0.0000000001
40
0
40
0
40
0
40
1
40
1
40
1
10
101.98600080449154
20
25.474207185728908
30
0
10
101.98706425050793
20
26.006266090473176
30
0
10
102.09719413638678
20
26.330398554217794
30
0
0
SPLINE
5
680
100
AcDbEntity
8
0
100
AcDbSpline
70
0
71
2
72
6
73
3
74
0
42
0.000000001
43
0.0000000001
44
0.0000000001
40
0
40
0
40
0
40
1
40
1
40
1
10
102.09719413638678
20
26.330398554217794
30
0
10
102.20732402226561
20
26.654531017962405
30
0
10
102.423568138403
20
26.830088424510446
30
0
0
SPLINE
5
681
100
AcDbEntity
8
0
100
AcDbSpline
70
0
71
2
72
6
73
3
74
0
42
0.000000001
43
0.0000000001
44
0.0000000001
40
0
40
0
40
0
40
1
40
1
40
1
10
102.423568138403
20
26.830088424510446
30
0
10
102.63981225394468
20
27.005645533035857
30
0
10
102.96723660297496
20
27.00499109775334
30
0
0
SPLINE
5
682
100
AcDbEntity
8
0
100
AcDbSpline
70
0
71
2
72
6
73
3
74
0
42
0.000000001
43
0.0000000001
44
0.0000000001
40
0
40
0
40
0
40
1
40
1
40
1
10
102.96723660297496
20
27.00499109775334
30
0
10
103.20870645755939
20
27.004508462931057
30
0
10
103.39064453131243
20
26.906941367643242
30
0
0
SPLINE
5
683
100
AcDbEntity
8
0
100
AcDbSpline
70
0
71
2
72
6
73
3
74
0
42
0.000000001
43
0.0000000001
44
0.0000000001
40
0
40
0
40
0
40
1
40
1
40
1
10
103.39064453131243
20
26.906941367643242
30
0
10
103.57257306834136
20
26.809374291416827
30
0
10
103.69090106592786
20
26.62598605465956
30
0
0
SPLINE
5
684
100
AcDbEntity
8
0
100
AcDbSpline
70
0
71
2
72
6
73
3
74
0
42
0.000000001
43
0.0000000001
44
0.0000000001
40
0
40
0
40
0
40
1
40
1
40
1
10
103.69090106592786
20
26.62598605465956
30
0
10
103.8092195267902
20
26.442597836963696
30
0
10
103.87622348203294
20
26.179502745821214
30
0
0
SPLINE
5
685
100
AcDbEntity
8
0
100
AcDbSpline
70
0
71
2
72
6
73
3
74
0
42
0.000000001
43
0.0000000001
44
0.0000000001
40
0
40
0
40
0
40
1
40
1
40
1
10
103.87622348203294
20
26.179502745821214
30
0
10
103.94323697459546
20
25.91640793363996
30
0
10
103.9423453159346
20
25.47029696684373
30
0
0
SPLINE
5
686
100
AcDbEntity
8
0
100
AcDbSpline
70
0
71
2
72
6
73
3
74
0
42
0.000000001
43
0.0000000001
44
0.0000000001
40
0
40
0
40
0
40
1
40
1
40
1
10
103.9423453159346
20
25.47029696684373
30
0
10
103.94129004964444
20
24.942330508835187
30
0
10
103.83218059354371
20
24.618196154531347
30
0
0
SPLINE
5
687
100
AcDbEntity
8
0
100
AcDbSpline
70
0
71
2
72
6
73
3
74
0
42
0.000000001
43
0.0000000001
44
0.0000000001
40
0
40
0
40
0
40
1
40
1
40
1
10
103.83218059354371
20
24.618196154531347
30
0
10
103.7230711368473
20
24.294061502204887
30
0
10
103.50682497577837
20
24.117480983972914
30
0
0
SPLINE
5
688
100
AcDbEntity
8
0
100
AcDbSpline
70
0
71
2
72
6
73
3
74
0
42
0.000000001
43
0.0000000001
44
0.0000000001
40
0
40
0
40
0
40
1
40
1
40
1
10
103.50682497577837
20
24.117480983972914
30
0
10
103.29057881530514
20
23.940900763763576
30
0
10
102.96111360731429
20
23.941559278187164
30
0
0
SPLINE
5
689
100
AcDbEntity
8
0
100
AcDbSpline
70
0
71
2
72
6
73
3
74
0
42
0.000000001
43
0.0000000001
44
0.0000000001
40
0
40
0
40
0
40
1
40
1
40
1
10
102.96111360731429
20
23.941559278187164
30
0
10
102.52727849061209
20
23.94242640064768
30
0
10
102.2802886925447
20
24.253971104741325
30
0
0
SPLINE
5
690
100
AcDbEntity
8
0
100
AcDbSpline
70
0
71
2
72
6
73
3
74
0
42
0.000000001
43
0.0000000001
44
0.0000000001
40
0
40
0
40
0
40
1
40
1
40
1
10
102.2802886925447
20
24.253971104741325
30
0
10
101.98431156057381
20
24.629051667846195
30
0
10
101.98600080449154
20
25.474207185728908
30
0
0
SPLINE
5
691
100
AcDbEntity
8
0
100
AcDbSpline
70
0
71
2
72
6
73
3
74
0
42
0.000000001
43
0.0000000001
44
0.0000000001
40
0
40
0
40
0
40
1
40
1
40
1
10
102.36458014167312
20
25.473450505059873
30
0
10
102.36310358731606
20
24.734706946939589
30
0
10
102.53553469279464
20
24.489818857624858
30
0
0
SPLINE
5
692
100
AcDbEntity
8
0
100
AcDbSpline
70
0
71
2
72
6
73
3
74
0
42
0.000000001
43
0.0000000001
44
0.0000000001
40
0
40
0
40
0
40
1
40
1
40
1
10
102.53553469279464
20
24.489818857624858
30
0
10
102.70796579827322
20
24.24493076831013
30
0
10
102.96171895351739
20
24.24442358239579
30
0
0
SPLINE
5
693
100
AcDbEntity
8
0
100
AcDbSpline
70
0
71
2
72
6
73
3
74
0
42
0.000000001
43
0.0000000001
44
0.0000000001
40
0
40
0
40
0
40
1
40
1
40
1
10
102.96171895351739
20
24.24442358239579
30
0
10
103.21547210876156
20
24.243916396481442
30
0
10
103.38887327478619
20
24.489136373682303
30
0
0
SPLINE
5
694
100
AcDbEntity
8
0
100
AcDbSpline
70
0
71
2
72
6
73
3
74
0
42
0.000000001
43
0.0000000001
44
0.0000000001
40
0
40
0
40
0
40
1
40
1
40
1
10
103.38887327478619
20
24.489136373682303
30
0
10
103.56228397753496
20
24.734356331821754
30
0
10
103.5637564420289
20
25.471053666574175
30
0
0
SPLINE
5
695
100
AcDbEntity
8
0
100
AcDbSpline
70
0
71
2
72
6
73
3
74
0
42
0.000000001
43
0.0000000001
44
0.0000000001
40
0
40
0
40
0
40
1
40
1
40
1
10
103.5637564420289
20
25.471053666574175
30
0
10
103.56523708624907
20
26.211843448062318
30
0
10
103.39280393583893
20
26.455708425693118
30
0
0
SPLINE
5
696
100
AcDbEntity
8
0
100
AcDbSpline
70
0
71
2
72
6
73
3
74
0
42
0.000000001
43
0.0000000001
44
0.0000000001
40
0
40
0
40
0
40
1
40
1
40
1
10
103.39280393583893
20
26.455708425693118
30
0
10
103.22038032215291
20
26.699573384262507
30
0
10
102.96253591226353
20
26.700088747520404
30
0
0
SPLINE
5
697
100
AcDbEntity
8
0
100
AcDbSpline
70
0
71
2
72
6
73
3
74
0
42
0.000000001
43
0.0000000001
44
0.0000000001
40
0
40
0
40
0
40
1
40
1
40
1
10
102.96253591226353
20
26.700088747520404
30
0
10
102.70878275701938
20
26.700595933434748
30
0
10
102.55691964581744
20
26.486028466621924
30
0
0
SPLINE
5
698
100
AcDbEntity
8
0
100
AcDbSpline
70
0
71
2
72
6
73
3
74
0
42
0.000000001
43
0.0000000001
44
0.0000000001
40
0
40
0
40
0
40
1
40
1
40
1
10
102.55691964581744
20
26.486028466621924
30
0
10
102.36605669573234
20
26.212193914168843
30
0
10
102.36458014167312
20
25.473450505059873
30
0
0
LWPOLYLINE
5
699
100
AcDbEntity
8
0
100
AcDbPolyline
90
4
70
1
43
0.0
10
104.52055608490768
20
23.989602025099845
10
104.52139457117838
20
24.409110001955465
10
104.94090552826029
20
24.408271509728085
10
104.94006704198959
20
23.988763532872465
0
LINE
5
700
100
AcDbEntity
8
0
100
AcDbLine
10
106.86571283850739
20
23.984914672656043
30
0
11
106.49735686957678
21
23.985650919496901
31
0
0
LINE
5
701
100
AcDbEntity
8
0
100
AcDbLine
10
106.49735686957678
20
23.985650919496901
30
0
11
106.50204830324651
21
26.332849575136358
31
0
0
SPLINE
5
702
100
AcDbEntity
8
0
100
AcDbSpline
70
0
71
2
72
6
73
3
74
0
42
0.000000001
43
0.0000000001
44
0.0000000001
40
0
40
0
40
0
40
1
40
1
40
1
10
106.50204830324653
20
26.332849575136358
30
0
10
106.3687860208485
20
26.206239741023964
30
0
10
106.15264006946744
20
26.0797957186101
30
0
0
SPLINE
5
703
100
AcDbEntity
8
0
100
AcDbSpline
70
0
71
2
72
6
73
3
74
0
42
0.000000001
43
0.0000000001
44
0.0000000001
40
0
40
0
40
0
40
1
40
1
40
1
10
106.15264006946744
20
26.0797957186101
30
0
10
105.93649411778848
20
25.953351547184926
30
0
10
105.76446787033362
20
25.890257436278212
30
0
0
LINE
5
704
100
AcDbEntity
8
0
100
AcDbLine
10
105.76446787033362
20
25.890257436278212
30
0
11
105.76517956101922
21
26.246327571356733
31
0
0
SPLINE
5
705
100
AcDbEntity
8
0
100
AcDbSpline
70
0
71
2
72
6
73
3
74
0
42
0.000000001
43
0.0000000001
44
0.0000000001
40
0
40
0
40
0
40
1
40
1
40
1
10
105.76517956101924
20
26.246327571356733
30
0
10
106.0744693616786
20
26.391002997679095
30
0
10
106.30612895635272
20
26.597225450061014
30
0
0
SPLINE
5
706
100
AcDbEntity
8
0
100
AcDbSpline
70
0
71
2
72
6
73
3
74
0
42
0.000000001
43
0.0000000001
44
0.0000000001
40
0
40
0
40
0
40
1
40
1
40
1
10
106.30612895635272
20
26.597225450061014
30
0
10
106.53777901370705
20
26.803447623481709
30
0
10
106.63434544318322
20
26.997661510271623
30
0
0
LINE
5
707
100
AcDbEntity
8
0
100
AcDbLine
10
106.63434544318322
20
26.997661510271623
30
0
11
106.87173357984655
21
26.997187033731489
31
0
0
LINE
5
708
100
AcDbEntity
8
0
100
AcDbLine
10
106.87173357984655
20
26.997187033731489
30
0
11
106.86571283850739
21
23.984914672656043
31
0
0
LINE
5
709
100
AcDbEntity
8
0
100
AcDbLine
10
107.81065621629108
20
24.768839390139824
30
0
11
108.19748350533825
21
24.800808312850506
31
0
0
SPLINE
5
710
100
AcDbEntity
8
0
100
AcDbSpline
70
0
71
2
72
6
73
3
74
0
42
0.000000001
43
0.0000000001
44
0.0000000001
40
0
40
0
40
0
40
1
40
1
40
1
10
108.19748350533827
20
24.800808312850506
30
0
10
108.23990107632963
20
24.518321822672821
30
0
10
108.39616213574203
20
24.37578567679779
30
0
0
SPLINE
5
711
100
AcDbEntity
8
0
100
AcDbSpline
70
0
71
2
72
6
73
3
74
0
42
0.000000001
43
0.0000000001
44
0.0000000001
40
0
40
0
40
0
40
1
40
1
40
1
10
108.39616213574203
20
24.37578567679779
30
0
10
108.55242319455877
20
24.233249232900128
30
0
10
108.77343677591713
20
24.232807484795615
30
0
0
SPLINE
5
712
100
AcDbEntity
8
0
100
AcDbSpline
70
0
71
2
72
6
73
3
74
0
42
0.000000001
43
0.0000000001
44
0.0000000001
40
0
40
0
40
0
40
1
40
1
40
1
10
108.77343677591713
20
24.232807484795615
30
0
10
109.03946369509694
20
24.232275766850613
30
0
10
109.22403774876018
20
24.432453040188062
30
0
0
SPLINE
5
713
100
AcDbEntity
8
0
100
AcDbSpline
70
0
71
2
72
6
73
3
74
0
42
0.000000001
43
0.0000000001
44
0.0000000001
40
0
40
0
40
0
40
1
40
1
40
1
10
109.22403774876018
20
24.432453040188062
30
0
10
109.40861180182773
20
24.63263001550288
30
0
10
109.40927441028413
20
24.964143533019971
30
0
0
SPLINE
5
714
100
AcDbEntity
8
0
100
AcDbSpline
70
0
71
2
72
6
73
3
74
0
42
0.000000001
43
0.0000000001
44
0.0000000001
40
0
40
0
40
0
40
1
40
1
40
1
10
109.40927441028413
20
24.964143533019971
30
0
10
109.40990429804859
20
25.279286369526282
30
0
10
109.23325718756912
20
25.461768055102713
30
0
0
SPLINE
5
715
100
AcDbEntity
8
0
100
AcDbSpline
70
0
71
2
72
6
73
3
74
0
42
0.000000001
43
0.0000000001
44
0.0000000001
40
0
40
0
40
0
40
1
40
1
40
1
10
109.23325718756912
20
25.461768055102713
30
0
10
109.05661007708963
20
25.644249740679143
30
0
10
108.77011734795968
20
25.644822364403311
30
0
0
SPLINE
5
716
100
AcDbEntity
8
0
100
AcDbSpline
70
0
71
2
72
6
73
3
74
0
42
0.000000001
43
0.0000000001
44
0.0000000001
40
0
40
0
40
0
40
1
40
1
40
1
10
108.77011734795968
20
25.644822364403311
30
0
10
108.5920857821863
20
25.645178202747012
30
0
10
108.4486730871572
20
25.564632442634046
30
0
0
SPLINE
5
717
100
AcDbEntity
8
0
100
AcDbSpline
70
0
71
2
72
6
73
3
74
0
42
0.000000001
43
0.0000000001
44
0.0000000001
40
0
40
0
40
0
40
1
40
1
40
1
10
108.4486730871572
20
25.564632442634046
30
0
10
108.30526992915004
20
25.484086812470991
30
0
10
108.22314900801828
20
25.355328379654303
30
0
0
LINE
5
718
100
AcDbEntity
8
0
100
AcDbLine
10
108.22314900801828
20
25.355328379654306
30
0
11
107.87740876528532
21
25.401039944805298
31
0
0
LINE
5
719
100
AcDbEntity
8
0
100
AcDbLine
10
107.87740876528532
20
25.401039944805298
30
0
11
108.171072652764
21
26.941383803732606
31
0
0
LINE
5
720
100
AcDbEntity
8
0
100
AcDbLine
10
108.171072652764
20
26.941383803732606
30
0
11
109.66288333257963
21
26.938402065976703
31
0
0
LINE
5
721
100
AcDbEntity
8
0
100
AcDbLine
10
109.66288333257963
20
26.938402065976703
30
0
11
109.66217982191807
21
26.586424526645217
31
0
0
LINE
5
722
100
AcDbEntity
8
0
100
AcDbLine
10
109.66217982191807
20
26.586424526645217
30
0
11
108.46504438052284
21
26.588817285989844
31
0
0
LINE
5
723
100
AcDbEntity
8
0
100
AcDbLine
10
108.46504438052284
20
26.588817285989844
30
0
11
108.3017663033641
21
25.782866419314907
31
0
0
SPLINE
5
724
100
AcDbEntity
8
0
100
AcDbSpline
70
0
71
2
72
6
73
3
74
0
42
0.000000001
43
0.0000000001
44
0.0000000001
40
0
40
0
40
0
40
1
40
1
40
1
10
108.3017663033641
20
25.782866419314907
30
0
10
108.57227031050752
20
25.970593657917057
30
0
10
108.86899594461255
20
25.970000581303299
30
0
0
SPLINE
5
725
100
AcDbEntity
8
0
100
AcDbSpline
70
0
71
2
72
6
73
3
74
0
42
0.000000001
43
0.0000000001
44
0.0000000001
40
0
40
0
40
0
40
1
40
1
40
1
10
108.86899594461255
20
25.970000581303299
30
0
10
109.26189944141441
20
25.969215270401122
30
0
10
109.53147362145054
20
25.696506656591588
30
0
0
SPLINE
5
726
100
AcDbEntity
8
0
100
AcDbSpline
70
0
71
2
72
6
73
3
74
0
42
0.000000001
43
0.0000000001
44
0.0000000001
40
0
40
0
40
0
40
1
40
1
40
1
10
109.53147362145054
20
25.696506656591588
30
0
10
109.80105733850863
20
25.423798172731964
30
0
10
109.8002024912963
20
24.996104557348321
30
0
0
SPLINE
5
727
100
AcDbEntity
8
0
100
AcDbSpline
70
0
71
2
72
6
73
3
74
0
42
0.000000001
43
0.0000000001
44
0.0000000001
40
0
40
0
40
0
40
1
40
1
40
1
10
109.8002024912963
20
24.996104557348321
30
0
10
109.79938854599132
20
24.588874814767756
30
0
10
109.56141687062969
20
24.292624234186704
30
0
0
SPLINE
5
728
100
AcDbEntity
8
0
100
AcDbSpline
70
0
71
2
72
6
73
3
74
0
42
0.000000001
43
0.0000000001
44
0.0000000001
40
0
40
0
40
0
40
1
40
1
40
1
10
109.56141687062969
20
24.292624234186704
30
0
10
109.27214569418783
20
23.928945182506816
30
0
10
108.77283142971405
20
23.929943180586992
30
0
0
SPLINE
5
729
100
AcDbEntity
8
0
100
AcDbSpline
70
0
71
2
72
6
73
3
74
0
42
0.000000001
43
0.0000000001
44
0.0000000001
40
0
40
0
40
0
40
1
40
1
40
1
10
108.77283142971405
20
23.929943180586992
30
0
10
108.36355337760722
20
23.930761219924786
30
0
10
108.10514663805083
20
24.160473223288864
30
0
0
SPLINE
5
730
100
AcDbEntity
8
0
100
AcDbSpline
70
0
71
2
72
6
73
3
74
0
42
0.000000001
43
0.0000000001
44
0.0000000001
40
0
40
0
40
0
40
1
40
1
40
1
10
108.10514663805083
20
24.160473223288864
30
0
10
107.84673036177037
20
24.390185245714349
30
0
10
107.81065621629108
20
24.768839390139824
30
0
0
LWPOLYLINE
5
731
100
AcDbEntity
8
0
100
AcDbPolyline
90
12
70
1
43
0.0
10
113.34552249492008
20
24.456957363472075
10
113.3471667464717
20
25.27960248716122
10
112.53066103794271
20
25.281234467634327
10
112.53134818766263
20
25.625026368437794
10
113.34785389619162
20
25.623394387964687
10
113.34948587696258
20
26.43990024550499
10
113.6973664992189
20
26.439204923504708
10
113.69573451844795
20
25.622699065964404
10
114.51224022697694
20
25.621067085491298
10
114.51155307725702
20
25.277275184687831
10
113.69504736872804
20
25.278907165160938
10
113.69340311717642
20
24.456262041471788
0
SPLINE
5
732
100
AcDbEntity
8
0
100
AcDbSpline
70
0
71
2
72
6
73
3
74
0
42
0.000000001
43
0.0000000001
44
0.0000000001
40
0
40
0
40
0
40
1
40
1
40
1
10
114.91912430868807
20
25.448357268459905
30
0
10
114.92018775470444
20
25.980416173204173
30
0
10
115.03031764058328
20
26.304548636948791
30
0
0
SPLINE
5
733
100
AcDbEntity
8
0
100
AcDbSpline
70
0
71
2
72
6
73
3
74
0
42
0.000000001
43
0.0000000001
44
0.0000000001
40
0
40
0
40
0
40
1
40
1
40
1
10
115.03031764058328
20
26.304548636948791
30
0
10
115.14044752646213
20
26.628681100693402
30
0
10
115.3566916425995
20
26.804238507241443
30
0
0
SPLINE
5
734
100
AcDbEntity
8
0
100
AcDbSpline
70
0
71
2
72
6
73
3
74
0
42
0.000000001
43
0.0000000001
44
0.0000000001
40
0
40
0
40
0
40
1
40
1
40
1
10
115.3566916425995
20
26.804238507241443
30
0
10
115.57293575814121
20
26.979795615766854
30
0
10
115.90036010717149
20
26.979141180484337
30
0
0
SPLINE
5
735
100
AcDbEntity
8
0
100
AcDbSpline
70
0
71
2
72
6
73
3
74
0
42
0.000000001
43
0.0000000001
44
0.0000000001
40
0
40
0
40
0
40
1
40
1
40
1
10
115.90036010717149
20
26.979141180484337
30
0
10
116.14182996175592
20
26.978658545662057
30
0
10
116.32376803550895
20
26.881091450374235
30
0
0
SPLINE
5
736
100
AcDbEntity
8
0
100
AcDbSpline
70
0
71
2
72
6
73
3
74
0
42
0.000000001
43
0.0000000001
44
0.0000000001
40
0
40
0
40
0
40
1
40
1
40
1
10
116.32376803550895
20
26.881091450374235
30
0
10
116.50569657253786
20
26.783524374147824
30
0
10
116.62402457012436
20
26.600136137390557
30
0
0
SPLINE
5
737
100
AcDbEntity
8
0
100
AcDbSpline
70
0
71
2
72
6
73
3
74
0
42
0.000000001
43
0.0000000001
44
0.0000000001
40
0
40
0
40
0
40
1
40
1
40
1
10
116.62402457012436
20
26.600136137390557
30
0
10
116.74234303098673
20
26.416747919694693
30
0
10
116.80934698622947
20
26.153652828552211
30
0
0
SPLINE
5
738
100
AcDbEntity
8
0
100
AcDbSpline
70
0
71
2
72
6
73
3
74
0
42
0.000000001
43
0.0000000001
44
0.0000000001
40
0
40
0
40
0
40
1
40
1
40
1
10
116.80934698622947
20
26.153652828552211
30
0
10
116.87636047879197
20
25.890558016370953
30
0
10
116.8754688201311
20
25.444447049574727
30
0
0
SPLINE
5
739
100
AcDbEntity
8
0
100
AcDbSpline
70
0
71
2
72
6
73
3
74
0
42
0.000000001
43
0.0000000001
44
0.0000000001
40
0
40
0
40
0
40
1
40
1
40
1
10
116.8754688201311
20
25.444447049574727
30
0
10
116.87441355384095
20
24.916480591566184
30
0
10
116.76530409774023
20
24.592346237262348
30
0
0
SPLINE
5
740
100
AcDbEntity
8
0
100
AcDbSpline
70
0
71
2
72
6
73
3
74
0
42
0.000000001
43
0.0000000001
44
0.0000000001
40
0
40
0
40
0
40
1
40
1
40
1
10
116.76530409774023
20
24.592346237262348
30
0
10
116.65619464104383
20
24.268211584935884
30
0
10
116.4399484799749
20
24.091631066703911
30
0
0
SPLINE
5
741
100
AcDbEntity
8
0
100
AcDbSpline
70
0
71
2
72
6
73
3
74
0
42
0.000000001
43
0.0000000001
44
0.0000000001
40
0
40
0
40
0
40
1
40
1
40
1
10
116.4399484799749
20
24.091631066703911
30
0
10
116.22370231950164
20
23.915050846494573
30
0
10
115.89423711151082
20
23.915709360918164
30
0
0
SPLINE
5
742
100
AcDbEntity
8
0
100
AcDbSpline
70
0
71
2
72
6
73
3
74
0
42
0.000000001
43
0.0000000001
44
0.0000000001
40
0
40
0
40
0
40
1
40
1
40
1
10
115.89423711151082
20
23.915709360918164
30
0
10
115.46040199480862
20
23.916576483378677
30
0
10
115.21341219674122
20
24.228121187472318
30
0
0
SPLINE
5
743
100
AcDbEntity
8
0
100
AcDbSpline
70
0
71
2
72
6
73
3
74
0
42
0.000000001
43
0.0000000001
44
0.0000000001
40
0
40
0
40
0
40
1
40
1
40
1
10
115.21341219674122
20
24.228121187472318
30
0
10
114.91743506477034
20
24.603201750577192
30
0
10
114.91912430868807
20
25.448357268459905
30
0
0
SPLINE
5
744
100
AcDbEntity
8
0
100
AcDbSpline
70
0
71
2
72
6
73
3
74
0
42
0.000000001
43
0.0000000001
44
0.0000000001
40
0
40
0
40
0
40
1
40
1
40
1
10
115.29770364586965
20
25.44760058779087
30
0
10
115.29622709151258
20
24.70885702967059
30
0
10
115.46865819699116
20
24.463968940355855
30
0
0
SPLINE
5
745
100
AcDbEntity
8
0
100
AcDbSpline
70
0
71
2
72
6
73
3
74
0
42
0.000000001
43
0.0000000001
44
0.0000000001
40
0
40
0
40
0
40
1
40
1
40
1
10
115.46865819699116
20
24.463968940355855
30
0
10
115.64108930246975
20
24.219080851041127
30
0
10
115.89484245771391
20
24.218573665126787
30
0
0
SPLINE
5
746
100
AcDbEntity
8
0
100
AcDbSpline
70
0
71
2
72
6
73
3
74
0
42
0.000000001
43
0.0000000001
44
0.0000000001
40
0
40
0
40
0
40
1
40
1
40
1
10
115.89484245771391
20
24.218573665126787
30
0
10
116.14859561295808
20
24.218066479212439
30
0
10
116.32199677898271
20
24.4632864564133
30
0
0
SPLINE
5
747
100
AcDbEntity
8
0
100
AcDbSpline
70
0
71
2
72
6
73
3
74
0
42
0.000000001
43
0.0000000001
44
0.0000000001
40
0
40
0
40
0
40
1
40
1
40
1
10
116.32199677898271
20
24.4632864564133
30
0
10
116.49540748173146
20
24.708506414552751
30
0
10
116.49687994622541
20
25.445203749305172
30
0
0
SPLINE
5
748
100
AcDbEntity
8
0
100
AcDbSpline
70
0
71
2
72
6
73
3
74
0
42
0.000000001
43
0.0000000001
44
0.0000000001
40
0
40
0
40
0
40
1
40
1
40
1
10
116.49687994622541
20
25.445203749305172
30
0
10
116.49836059044559
20
26.185993530793318
30
0
10
116.32592744003544
20
26.429858508424115
30
0
0
SPLINE
5
749
100
AcDbEntity
8
0
100
AcDbSpline
70
0
71
2
72
6
73
3
74
0
42
0.000000001
43
0.0000000001
44
0.0000000001
40
0
40
0
40
0
40
1
40
1
40
1
10
116.32592744003544
20
26.429858508424115
30
0
10
116.15350382634942
20
26.673723466993504
30
0
10
115.89565941646003
20
26.674238830251401
30
0
0
SPLINE
5
750
100
AcDbEntity
8
0
100
AcDbSpline
70
0
71
2
72
6
73
3
74
0
42
0.000000001
43
0.0000000001
44
0.0000000001
40
0
40
0
40
0
40
1
40
1
40
1
10
115.89565941646003
20
26.674238830251401
30
0
10
115.64190626121588
20
26.674746016165749
30
0
10
115.49004315001397
20
26.460178549352918
30
0
0
SPLINE
5
751
100
AcDbEntity
8
0
100
AcDbSpline
70
0
71
2
72
6
73
3
74
0
42
0.000000001
43
0.0000000001
44
0.0000000001
40
0
40
0
40
0
40
1
40
1
40
1
10
115.49004315001397
20
26.460178549352918
30
0
10
115.29918019992886
20
26.18634399689984
30
0
10
115.29770364586965
20
25.44760058779087
30
0
0
LWPOLYLINE
5
752
100
AcDbEntity
8
0
100
AcDbPolyline
90
4
70
1
43
0.0
10
117.45368912582832
20
23.963752088769436
10
117.45452761209901
20
24.383260065625056
10
117.87403856918091
20
24.382421573397679
10
117.87320008291022
20
23.962913596542059
0
LINE
5
753
100
AcDbEntity
8
0
100
AcDbLine
10
120.34797233689311
20
24.311992353760765
30
0
11
120.34726473636844
21
23.957968591061416
31
0
0
LINE
5
754
100
AcDbEntity
8
0
100
AcDbLine
10
120.34726473636844
20
23.957968591061416
30
0
11
118.36432230136948
21
23.961931972210394
31
0
0
SPLINE
5
755
100
AcDbEntity
8
0
100
AcDbSpline
70
0
71
2
72
6
73
3
74
0
42
0.000000001
43
0.0000000001
44
0.0000000001
40
0
40
0
40
0
40
1
40
1
40
1
10
118.36432230136948
20
23.961931972210394
30
0
10
118.36049690807945
20
24.094954801234355
30
0
10
118.40780605243381
20
24.217643671987226
30
0
0
SPLINE
5
756
100
AcDbEntity
8
0
100
AcDbSpline
70
0
71
2
72
6
73
3
74
0
42
0.000000001
43
0.0000000001
44
0.0000000001
40
0
40
0
40
0
40
1
40
1
40
1
10
118.40780605243381
20
24.217643671987226
30
0
10
118.48393256932769
20
24.420083935011611
30
0
10
118.65110345788381
20
24.61620323159686
30
0
0
SPLINE
5
757
100
AcDbEntity
8
0
100
AcDbSpline
70
0
71
2
72
6
73
3
74
0
42
0.000000001
43
0.0000000001
44
0.0000000001
40
0
40
0
40
0
40
1
40
1
40
1
10
118.65110345788381
20
24.61620323159686
30
0
10
118.81827434584426
20
24.812322230159481
30
0
10
119.13393075687705
20
25.069536457835774
30
0
0
SPLINE
5
758
100
AcDbEntity
8
0
100
AcDbSpline
70
0
71
2
72
6
73
3
74
0
42
0.000000001
43
0.0000000001
44
0.0000000001
40
0
40
0
40
0
40
1
40
1
40
1
10
119.13393075687705
20
25.069536457835774
30
0
10
119.62382332792201
20
25.46964951902681
30
0
10
119.79618156873008
20
25.703616562218393
30
0
0
SPLINE
5
759
100
AcDbEntity
8
0
100
AcDbSpline
70
0
71
2
72
6
73
3
74
0
42
0.000000001
43
0.0000000001
44
0.0000000001
40
0
40
0
40
0
40
1
40
1
40
1
10
119.79618156873008
20
25.703616562218393
30
0
10
119.96854934626226
20
25.937583586348566
30
0
10
119.96896654446604
20
26.146314463092445
30
0
0
SPLINE
5
760
100
AcDbEntity
8
0
100
AcDbSpline
70
0
71
2
72
6
73
3
74
0
42
0.000000001
43
0.0000000001
44
0.0000000001
40
0
40
0
40
0
40
1
40
1
40
1
10
119.96896654446604
20
26.146314463092445
30
0
10
119.96940419317676
20
26.365277052720892
30
0
10
119.81315949530165
20
26.515999135146572
30
0
0
SPLINE
5
761
100
AcDbEntity
8
0
100
AcDbSpline
70
0
71
2
72
6
73
3
74
0
42
0.000000001
43
0.0000000001
44
0.0000000001
40
0
40
0
40
0
40
1
40
1
40
1
10
119.81315949530165
20
26.515999135146572
30
0
10
119.65690525980891
20
26.666720789599715
30
0
10
119.4052025002494
20
26.667223877311585
30
0
0
SPLINE
5
762
100
AcDbEntity
8
0
100
AcDbSpline
70
0
71
2
72
6
73
3
74
0
42
0.000000001
43
0.0000000001
44
0.0000000001
40
0
40
0
40
0
40
1
40
1
40
1
10
119.4052025002494
20
26.667223877311585
30
0
10
119.13917558106961
20
26.667755595256587
30
0
10
118.9792403958164
20
26.508456984402571
30
0
0
SPLINE
5
763
100
AcDbEntity
8
0
100
AcDbSpline
70
0
71
2
72
6
73
3
74
0
42
0.000000001
43
0.0000000001
44
0.0000000001
40
0
40
0
40
0
40
1
40
1
40
1
10
118.9792403958164
20
26.508456984402571
30
0
10
118.81930521056319
20
26.349158373548555
30
0
10
118.8166903702849
20
26.066761891334174
30
0
0
LINE
5
764
100
AcDbEntity
8
0
100
AcDbLine
10
118.81669037028493
20
26.066761891334174
30
0
11
118.43818874645919
21
26.106399796218881
31
0
0
SPLINE
5
765
100
AcDbEntity
8
0
100
AcDbSpline
70
0
71
2
72
6
73
3
74
0
42
0.000000001
43
0.0000000001
44
0.0000000001
40
0
40
0
40
0
40
1
40
1
40
1
10
118.43818874645918
20
26.106399796218881
30
0
10
118.47791663726746
20
26.529922804476989
30
0
10
118.73211357720832
20
26.751448139288144
30
0
0
SPLINE
5
766
100
AcDbEntity
8
0
100
AcDbSpline
70
0
71
2
72
6
73
3
74
0
42
0.000000001
43
0.0000000001
44
0.0000000001
40
0
40
0
40
0
40
1
40
1
40
1
10
118.73211357720832
20
26.751448139288144
30
0
10
118.98630097982939
20
26.972973195138078
30
0
10
119.41399444620173
20
26.972118348223589
30
0
0
SPLINE
5
767
100
AcDbEntity
8
0
100
AcDbSpline
70
0
71
2
72
6
73
3
74
0
42
0.000000001
43
0.0000000001
44
0.0000000001
40
0
40
0
40
0
40
1
40
1
40
1
10
119.41399444620173
20
26.972118348223589
30
0
10
119.84578870394338
20
26.971255304904144
30
0
10
120.09701291258702
20
26.73132560574944
30
0
0
SPLINE
5
768
100
AcDbEntity
8
0
100
AcDbSpline
70
0
71
2
72
6
73
3
74
0
42
0.000000001
43
0.0000000001
44
0.0000000001
40
0
40
0
40
0
40
1
40
1
40
1
10
120.09701291258702
20
26.73132560574944
30
0
10
120.34823712123065
20
26.491395906594736
30
0
10
120.34752952070602
20
26.137372143895384
30
0
0
SPLINE
5
769
100
AcDbEntity
8
0
100
AcDbSpline
70
0
71
2
72
6
73
3
74
0
42
0.000000001
43
0.0000000001
44
0.0000000001
40
0
40
0
40
0
40
1
40
1
40
1
10
120.34752952070602
20
26.137372143895384
30
0
10
120.34716958505334
20
25.957290629471292
30
0
10
120.27315072639523
20
25.783495630564211
30
0
0
SPLINE
5
770
100
AcDbEntity
8
0
100
AcDbSpline
70
0
71
2
72
6
73
3
74
0
42
0.000000001
43
0.0000000001
44
0.0000000001
40
0
40
0
40
0
40
1
40
1
40
1
10
120.27315072639523
20
25.783495630564211
30
0
10
120.19913186743928
20
25.60970048264582
30
0
10
120.02787790485768
20
25.417682257173787
30
0
0
SPLINE
5
771
100
AcDbEntity
8
0
100
AcDbSpline
70
0
71
2
72
6
73
3
74
0
42
0.000000001
43
0.0000000001
44
0.0000000001
40
0
40
0
40
0
40
1
40
1
40
1
10
120.02787790485768
20
25.417682257173787
30
0
10
119.85662394227609
20
25.225664031701758
30
0
10
119.45894886473093
20
24.890850978710816
30
0
0
SPLINE
5
772
100
AcDbEntity
8
0
100
AcDbSpline
70
0
71
2
72
6
73
3
74
0
42
0.000000001
43
0.0000000001
44
0.0000000001
40
0
40
0
40
0
40
1
40
1
40
1
10
119.45894886473093
20
24.890850978710816
30
0
10
119.12688653410349
20
24.613206034639603
30
0
10
119.03255115651876
20
24.51414460785729
30
0
0
SPLINE
5
773
100
AcDbEntity
8
0
100
AcDbSpline
70
0
71
2
72
6
73
3
74
0
42
0.000000001
43
0.0000000001
44
0.0000000001
40
0
40
0
40
0
40
1
40
1
40
1
10
119.03255115651876
20
24.51414460785729
30
0
10
118.93821577893405
20
24.415083181074976
30
0
10
118.87662746702767
20
24.314933185737498
30
0
0
LINE
5
774
100
AcDbEntity
8
0
100
AcDbLine
10
118.87662746702767
20
24.314933185737502
30
0
11
120.34797233689311
21
24.311992353760765
31
0
0
SPLINE
5
775
100
AcDbEntity
8
0
100
AcDbSpline
70
0
71
2
72
6
73
3
74
0
42
0.000000001
43
0.0000000001
44
0.0000000001
40
0
40
0
40
0
40
1
40
1
40
1
10
120.74516629070811
20
25.436712540626594
30
0
10
120.74622973672449
20
25.968771445370862
30
0
10
120.85635962260332
20
26.292903909115477
30
0
0
SPLINE
5
776
100
AcDbEntity
8
0
100
AcDbSpline
70
0
71
2
72
6
73
3
74
0
42
0.000000001
43
0.0000000001
44
0.0000000001
40
0
40
0
40
0
40
1
40
1
40
1
10
120.85635962260332
20
26.292903909115477
30
0
10
120.96648950848217
20
26.617036372860095
30
0
10
121.18273362461954
20
26.792593779408129
30
0
0
SPLINE
5
777
100
AcDbEntity
8
0
100
AcDbSpline
70
0
71
2
72
6
73
3
74
0
42
0.000000001
43
0.0000000001
44
0.0000000001
40
0
40
0
40
0
40
1
40
1
40
1
10
121.18273362461954
20
26.792593779408129
30
0
10
121.39897774016126
20
26.96815088793354
30
0
10
121.72640208919154
20
26.967496452651023
30
0
0
SPLINE
5
778
100
AcDbEntity
8
0
100
AcDbSpline
70
0
71
2
72
6
73
3
74
0
42
0.000000001
43
0.0000000001
44
0.0000000001
40
0
40
0
40
0
40
1
40
1
40
1
10
121.72640208919154
20
26.967496452651023
30
0
10
121.96787194377595
20
26.967013817828747
30
0
10
122.14981001752898
20
26.869446722540928
30
0
0
SPLINE
5
779
100
AcDbEntity
8
0
100
AcDbSpline
70
0
71
2
72
6
73
3
74
0
42
0.000000001
43
0.0000000001
44
0.0000000001
40
0
40
0
40
0
40
1
40
1
40
1
10
122.14981001752898
20
26.869446722540928
30
0
10
122.33173855455792
20
26.771879646314517
30
0
10
122.45006655214441
20
26.588491409557243
30
0
0
SPLINE
5
780
100
AcDbEntity
8
0
100
AcDbSpline
70
0
71
2
72
6
73
3
74
0
42
0.000000001
43
0.0000000001
44
0.0000000001
40
0
40
0
40
0
40
1
40
1
40
1
10
122.45006655214441
20
26.588491409557243
30
0
10
122.56838501300678
20
26.405103191861382
30
0
10
122.63538896824952
20
26.142008100718904
30
0
0
SPLINE
5
781
100
AcDbEntity
8
0
100
AcDbSpline
70
0
71
2
72
6
73
3
74
0
42
0.000000001
43
0.0000000001
44
0.0000000001
40
0
40
0
40
0
40
1
40
1
40
1
10
122.63538896824952
20
26.142008100718904
30
0
10
122.70240246081201
20
25.878913288537646
30
0
10
122.70151080215115
20
25.432802321741413
30
0
0
SPLINE
5
782
100
AcDbEntity
8
0
100
AcDbSpline
70
0
71
2
72
6
73
3
74
0
42
0.000000001
43
0.0000000001
44
0.0000000001
40
0
40
0
40
0
40
1
40
1
40
1
10
122.70151080215115
20
25.432802321741413
30
0
10
122.700455535861
20
24.904835863732874
30
0
10
122.59134607976026
20
24.580701509429037
30
0
0
SPLINE
5
783
100
AcDbEntity
8
0
100
AcDbSpline
70
0
71
2
72
6
73
3
74
0
42
0.000000001
43
0.0000000001
44
0.0000000001
40
0
40
0
40
0
40
1
40
1
40
1
10
122.59134607976026
20
24.580701509429037
30
0
10
122.48223662306387
20
24.25656685710257
30
0
10
122.26599046199495
20
24.079986338870604
30
0
0
SPLINE
5
784
100
AcDbEntity
8
0
100
AcDbSpline
70
0
71
2
72
6
73
3
74
0
42
0.000000001
43
0.0000000001
44
0.0000000001
40
0
40
0
40
0
40
1
40
1
40
1
10
122.26599046199495
20
24.079986338870604
30
0
10
122.04974430152168
20
23.903406118661263
30
0
10
121.72027909353085
20
23.90406463308485
30
0
0
SPLINE
5
785
100
AcDbEntity
8
0
100
AcDbSpline
70
0
71
2
72
6
73
3
74
0
42
0.000000001
43
0.0000000001
44
0.0000000001
40
0
40
0
40
0
40
1
40
1
40
1
10
121.72027909353085
20
23.90406463308485
30
0
10
121.28644397682865
20
23.90493175554537
30
0
10
121.03945417876126
20
24.216476459639011
30
0
0
SPLINE
5
786
100
AcDbEntity
8
0
100
AcDbSpline
70
0
71
2
72
6
73
3
74
0
42
0.000000001
43
0.0000000001
44
0.0000000001
40
0
40
0
40
0
40
1
40
1
40
1
10
121.03945417876126
20
24.216476459639011
30
0
10
120.74347704679039
20
24.591557022743878
30
0
10
120.74516629070811
20
25.436712540626594
30
0
0
SPLINE
5
787
100
AcDbEntity
8
0
100
AcDbSpline
70
0
71
2
72
6
73
3
74
0
42
0.000000001
43
0.0000000001
44
0.0000000001
40
0
40
0
40
0
40
1
40
1
40
1
10
121.12374562788969
20
25.435955859957559
30
0
10
121.12226907353262
20
24.697212301837276
30
0
10
121.2947001790112
20
24.452324212522548
30
0
0
SPLINE
5
788
100
AcDbEntity
8
0
100
AcDbSpline
70
0
71
2
72
6
73
3
74
0
42
0.000000001
43
0.0000000001
44
0.0000000001
40
0
40
0
40
0
40
1
40
1
40
1
10
121.2947001790112
20
24.452324212522548
30
0
10
121.4671312844898
20
24.20743612320782
30
0
10
121.72088443973395
20
24.206928937293473
30
0
0
SPLINE
5
789
100
AcDbEntity
8
0
100
AcDbSpline
70
0
71
2
72
6
73
3
74
0
42
0.000000001
43
0.0000000001
44
0.0000000001
40
0
40
0
40
0
40
1
40
1
40
1
10
121.72088443973395
20
24.206928937293473
30
0
10
121.97463759497811
20
24.206421751379132
30
0
10
122.14803876100275
20
24.451641728579986
30
0
0
SPLINE
5
790
100
AcDbEntity
8
0
100
AcDbSpline
70
0
71
2
72
6
73
3
74
0
42
0.000000001
43
0.0000000001
44
0.0000000001
40
0
40
0
40
0
40
1
40
1
40
1
10
122.14803876100275
20
24.451641728579986
30
0
10
122.32144946375151
20
24.696861686719437
30
0
10
122.32292192824545
20
25.433559021471865
30
0
0
SPLINE
5
791
100
AcDbEntity
8
0
100
AcDbSpline
70
0
71
2
72
6
73
3
74
0
42
0.000000001
43
0.0000000001
44
0.0000000001
40
0
40
0
40
0
40
1
40
1
40
1
10
122.32292192824545
20
25.433559021471865
30
0
10
122.32440257246563
20
26.174348802960008
30
0
10
122.15196942205549
20
26.418213780590804
30
0
0
SPLINE
5
792
100
AcDbEntity
8
0
100
AcDbSpline
70
0
71
2
72
6
73
3
74
0
42
0.000000001
43
0.0000000001
44
0.0000000001
40
0
40
0
40
0
40
1
40
1
40
1
10
122.15196942205549
20
26.418213780590804
30
0
10
121.97954580836947
20
26.662078739160194
30
0
10
121.72170139848008
20
26.66259410241809
30
0
0
SPLINE
5
793
100
AcDbEntity
8
0
100
AcDbSpline
70
0
71
2
72
6
73
3
74
0
42
0.000000001
43
0.0000000001
44
0.0000000001
40
0
40
0
40
0
40
1
40
1
40
1
10
121.72170139848008
20
26.66259410241809
30
0
10
121.46794824323592
20
26.663101288332438
30
0
10
121.31608513203402
20
26.448533821519611
30
0
0
SPLINE
5
794
100
AcDbEntity
8
0
100
AcDbSpline
70
0
71
2
72
6
73
3
74
0
42
0.000000001
43
0.0000000001
44
0.0000000001
40
0
40
0
40
0
40
1
40
1
40
1
10
121.31608513203402
20
26.448533821519611
30
0
10
121.1252221819489
20
26.174699269066529
30
0
10
121.12374562788969
20
25.435955859957559
30
0
0
LINE
5
795
100
AcDbEntity
8
0
100
AcDbLine
10
145
20
0
30
0
11
138.00000205636024
21
-7.5791926982685768e-16
31
0
0
LINE
5
796
100
AcDbEntity
8
0
100
AcDbLine
10
135.00000201165676
20
-9.6018166923255317e-16
30
0
11
135.00000201165676
21
25.00000037252903
31
0
0
LINE
5
797
100
AcDbEntity
8
0
100
AcDbLine
10
135.00000201165676
20
25.00000037252903
30
0
11
145
21
25.00000037252903
31
0
0
LWPOLYLINE
5
798
100
AcDbEntity
8
0
100
AcDbPolyline
90
8
70
1
43
0.0
10
141.91326984155413
20
11.401224721806171
10
139.26808577679881
20
11.336519054129434
10
139.29225656590668
20
10.34841108034005
10
138.93833767016133
20
10.339753626683896
10
138.88018763445001
20
12.716941798158183
10
139.23410653019539
20
12.725599251814337
10
139.25837742687324
20
11.73339885523875
10
141.90356149162855
20
11.798104522915487
0
LINE
5
799
100
AcDbEntity
8
0
100
AcDbLine
10
141.14580705953747
20
14.15613235025261
30
0
11
141.18355209722804
21
14.537796436109504
31
0
0
SPLINE
5
800
100
AcDbEntity
8
0
100
AcDbSpline
70
0
71
2
72
6
73
3
74
0
42
0.000000001
43
0.0000000001
44
0.0000000001
40
0
40
0
40
0
40
1
40
1
40
1
10
141.18355209722804
20
14.537796436109506
30
0
10
141.51921493565263
20
14.455939816301576
30
0
10
141.70928946810173
20
14.216996372403429
30
0
0
SPLINE
5
801
100
AcDbEntity
8
0
100
AcDbSpline
70
0
71
2
72
6
73
3
74
0
42
0.000000001
43
0.0000000001
44
0.0000000001
40
0
40
0
40
0
40
1
40
1
40
1
10
141.70928946810173
20
14.216996372403429
30
0
10
141.89936428390897
20
13.97805353166145
30
0
10
141.90862225180135
20
13.599585462012659
30
0
0
SPLINE
5
802
100
AcDbEntity
8
0
100
AcDbSpline
70
0
71
2
72
6
73
3
74
0
42
0.000000001
43
0.0000000001
44
0.0000000001
40
0
40
0
40
0
40
1
40
1
40
1
10
141.90862225180135
20
13.599585462012659
30
0
10
141.92028227663866
20
13.122920696750137
30
0
10
141.63354467530257
20
12.836491843897697
30
0
0
SPLINE
5
803
100
AcDbEntity
8
0
100
AcDbSpline
70
0
71
2
72
6
73
3
74
0
42
0.000000001
43
0.0000000001
44
0.0000000001
40
0
40
0
40
0
40
1
40
1
40
1
10
141.63354467530257
20
12.836491843897697
30
0
10
141.34680708854239
20
12.550062395177061
30
0
10
140.81695199958799
20
12.537101245229305
30
0
0
SPLINE
5
804
100
AcDbEntity
8
0
100
AcDbSpline
70
0
71
2
72
6
73
3
74
0
42
0.000000001
43
0.0000000001
44
0.0000000001
40
0
40
0
40
0
40
1
40
1
40
1
10
140.81695199958799
20
12.537101245229305
30
0
10
140.26868488123893
20
12.523689705960388
30
0
10
139.95900444556997
20
12.798600320477648
30
0
0
SPLINE
5
805
100
AcDbEntity
8
0
100
AcDbSpline
70
0
71
2
72
6
73
3
74
0
42
0.000000001
43
0.0000000001
44
0.0000000001
40
0
40
0
40
0
40
1
40
1
40
1
10
139.95900444556997
20
12.798600320477648
30
0
10
139.64932417344403
20
13.073510342770698
30
0
10
139.63831470205199
20
13.523580318604882
30
0
0
SPLINE
5
806
100
AcDbEntity
8
0
100
AcDbSpline
70
0
71
2
72
6
73
3
74
0
42
0.000000001
43
0.0000000001
44
0.0000000001
40
0
40
0
40
0
40
1
40
1
40
1
10
139.63831470205199
20
13.523580318604882
30
0
10
139.62765553427505
20
13.959329794028349
30
0
10
139.91753675939114
20
14.242765583985069
30
0
0
SPLINE
5
807
100
AcDbEntity
8
0
100
AcDbSpline
70
0
71
2
72
6
73
3
74
0
42
0.000000001
43
0.0000000001
44
0.0000000001
40
0
40
0
40
0
40
1
40
1
40
1
10
139.91753675939114
20
14.242765583985069
30
0
10
140.20741799908313
20
14.526200778073591
30
0
10
140.7454564439395
20
14.539362106721397
30
0
0
SPLINE
5
808
100
AcDbEntity
8
0
100
AcDbSpline
70
0
71
2
72
6
73
3
74
0
42
0.000000001
43
0.0000000001
44
0.0000000001
40
0
40
0
40
0
40
1
40
1
40
1
10
140.7454564439395
20
14.539362106721397
30
0
10
140.77818867581075
20
14.540162792369703
30
0
10
140.84370347669636
20
14.539718555429385
30
0
0
LINE
5
809
100
AcDbEntity
8
0
100
AcDbLine
10
140.84370347669636
20
14.539718555429385
30
0
11
140.88333757662292
21
12.919466523252678
31
0
0
SPLINE
5
810
100
AcDbEntity
8
0
100
AcDbSpline
70
0
71
2
72
6
73
3
74
0
42
0.000000001
43
0.0000000001
44
0.0000000001
40
0
40
0
40
0
40
1
40
1
40
1
10
140.88333757662292
20
12.919466523252678
30
0
10
141.24084758010994
20
12.948681409600297
30
0
10
141.42665028533608
20
13.135409488416169
30
0
0
SPLINE
5
811
100
AcDbEntity
8
0
100
AcDbSpline
70
0
71
2
72
6
73
3
74
0
42
0.000000001
43
0.0000000001
44
0.0000000001
40
0
40
0
40
0
40
1
40
1
40
1
10
141.42665028533608
20
13.135409488416169
30
0
10
141.61245358643043
20
13.32213758180799
30
0
10
141.60579786147099
20
13.594225302007041
30
0
0
SPLINE
5
812
100
AcDbEntity
8
0
100
AcDbSpline
70
0
71
2
72
6
73
3
74
0
42
0.000000001
43
0.0000000001
44
0.0000000001
40
0
40
0
40
0
40
1
40
1
40
1
10
141.60579786147099
20
13.594225302007041
30
0
10
141.60084360080216
20
13.796756731545603
30
0
10
141.49096024435312
20
13.937358300983453
30
0
0
SPLINE
5
813
100
AcDbEntity
8
0
100
AcDbSpline
70
0
71
2
72
6
73
3
74
0
42
0.000000001
43
0.0000000001
44
0.0000000001
40
0
40
0
40
0
40
1
40
1
40
1
10
141.49096024435312
20
13.937358300983453
30
0
10
141.38107717126221
20
14.077960473577473
30
0
10
141.14580705953747
20
14.15613235025261
30
0
0
LINE
5
814
100
AcDbEntity
8
0
100
AcDbLine
10
140.58006266986825
20
12.932517495195402
30
0
11
140.55038713048839
21
14.145661052770077
31
0
0
SPLINE
5
815
100
AcDbEntity
8
0
100
AcDbSpline
70
0
71
2
72
6
73
3
74
0
42
0.000000001
43
0.0000000001
44
0.0000000001
40
0
40
0
40
0
40
1
40
1
40
1
10
140.55038713048839
20
14.145661052770077
30
0
10
140.27685416003362
20
14.11440611105418
30
0
10
140.14258975754959
20
13.996489817908406
30
0
0
SPLINE
5
816
100
AcDbEntity
8
0
100
AcDbSpline
70
0
71
2
72
6
73
3
74
0
42
0.000000001
43
0.0000000001
44
0.0000000001
40
0
40
0
40
0
40
1
40
1
40
1
10
140.14258975754959
20
13.996489817908406
30
0
10
139.93413304923183
20
13.81534929508847
30
0
10
139.94098896017931
20
13.535077921053409
30
0
0
SPLINE
5
817
100
AcDbEntity
8
0
100
AcDbSpline
70
0
71
2
72
6
73
3
74
0
42
0.000000001
43
0.0000000001
44
0.0000000001
40
0
40
0
40
0
40
1
40
1
40
1
10
139.94098896017931
20
13.535077921053409
30
0
10
139.94719428852963
20
13.281402528183078
30
0
10
140.12122212731899
20
13.11268818431482
30
0
0
SPLINE
5
818
100
AcDbEntity
8
0
100
AcDbSpline
70
0
71
2
72
6
73
3
74
0
42
0.000000001
43
0.0000000001
44
0.0000000001
40
0
40
0
40
0
40
1
40
1
40
1
10
140.12122212731899
20
13.11268818431482
30
0
10
140.29524996610834
20
12.943973840446564
30
0
10
140.58006266986825
20
12.932517495195402
30
0
0
LINE
5
819
100
AcDbEntity
8
0
100
AcDbLine
10
141.17993697583123
20
14.852946339114952
30
0
11
141.11374762242113
21
15.21569210531232
31
0
0
SPLINE
5
820
100
AcDbEntity
8
0
100
AcDbSpline
70
0
71
2
72
6
73
3
74
0
42
0.000000001
43
0.0000000001
44
0.0000000001
40
0
40
0
40
0
40
1
40
1
40
1
10
141.11374762242113
20
15.21569210531232
30
0
10
141.3318945068801
20
15.251733921019834
30
0
10
141.44507558892474
20
15.394721465723219
30
0
0
SPLINE
5
821
100
AcDbEntity
8
0
100
AcDbSpline
70
0
71
2
72
6
73
3
74
0
42
0.000000001
43
0.0000000001
44
0.0000000001
40
0
40
0
40
0
40
1
40
1
40
1
10
141.44507558892474
20
15.394721465723219
30
0
10
141.55825696890352
20
15.537709017714567
30
0
10
141.55210166518629
20
15.789339390928191
30
0
0
SPLINE
5
822
100
AcDbEntity
8
0
100
AcDbSpline
70
0
71
2
72
6
73
3
74
0
42
0.000000001
43
0.0000000001
44
0.0000000001
40
0
40
0
40
0
40
1
40
1
40
1
10
141.55210166518629
20
15.789339390928191
30
0
10
141.54589633683597
20
16.043014783798526
30
0
10
141.4395821228506
20
16.163234072352466
30
0
0
SPLINE
5
823
100
AcDbEntity
8
0
100
AcDbSpline
70
0
71
2
72
6
73
3
74
0
42
0.000000001
43
0.0000000001
44
0.0000000001
40
0
40
0
40
0
40
1
40
1
40
1
10
141.4395821228506
20
16.163234072352466
30
0
10
141.3332679088652
20
16.28345336090641
30
0
10
141.19415532754425
20
16.280050432325165
30
0
0
SPLINE
5
824
100
AcDbEntity
8
0
100
AcDbSpline
70
0
71
2
72
6
73
3
74
0
42
0.000000001
43
0.0000000001
44
0.0000000001
40
0
40
0
40
0
40
1
40
1
40
1
10
141.19415532754425
20
16.280050432325165
30
0
10
141.06936324663397
20
16.276997807359042
30
0
10
141.00041360801461
20
16.166820934752941
30
0
0
SPLINE
5
825
100
AcDbEntity
8
0
100
AcDbSpline
70
0
71
2
72
6
73
3
74
0
42
0.000000001
43
0.0000000001
44
0.0000000001
40
0
40
0
40
0
40
1
40
1
40
1
10
141.00041360801461
20
16.166820934752941
30
0
10
140.95316654419136
20
16.089926761757312
30
0
10
140.88482947036363
20
15.787345259794732
30
0
0
SPLINE
5
826
100
AcDbEntity
8
0
100
AcDbSpline
70
0
71
2
72
6
73
3
74
0
42
0.000000001
43
0.0000000001
44
0.0000000001
40
0
40
0
40
0
40
1
40
1
40
1
10
140.88482947036363
20
15.787345259794732
30
0
10
140.79244914208357
20
15.3797814352271
30
0
10
140.72160682755054
20
15.221452466804571
30
0
0
SPLINE
5
827
100
AcDbEntity
8
0
100
AcDbSpline
70
0
71
2
72
6
73
3
74
0
42
0.000000001
43
0.0000000001
44
0.0000000001
40
0
40
0
40
0
40
1
40
1
40
1
10
140.72160682755054
20
15.221452466804571
30
0
10
140.65076448386566
20
15.063124690118439
30
0
10
140.52078870558719
20
14.979088839851013
30
0
0
SPLINE
5
828
100
AcDbEntity
8
0
100
AcDbSpline
70
0
71
2
72
6
73
3
74
0
42
0.000000001
43
0.0000000001
44
0.0000000001
40
0
40
0
40
0
40
1
40
1
40
1
10
140.52078870558719
20
14.979088839851013
30
0
10
140.3908130762758
20
14.895052993227576
30
0
10
140.23124270106823
20
14.891149632472153
30
0
0
SPLINE
5
829
100
AcDbEntity
8
0
100
AcDbSpline
70
0
71
2
72
6
73
3
74
0
42
0.000000001
43
0.0000000001
44
0.0000000001
40
0
40
0
40
0
40
1
40
1
40
1
10
140.23124270106823
20
14.891149632472153
30
0
10
140.08599282627139
20
14.887596575331852
30
0
10
139.96059716951044
20
14.951055943541082
30
0
0
SPLINE
5
830
100
AcDbEntity
8
0
100
AcDbSpline
70
0
71
2
72
6
73
3
74
0
42
0.000000001
43
0.0000000001
44
0.0000000001
40
0
40
0
40
0
40
1
40
1
40
1
10
139.96059716951044
20
14.951055943541082
30
0
10
139.83520163256463
20
15.014516507130695
30
0
10
139.75056820621629
20
15.12707759362732
30
0
0
SPLINE
5
831
100
AcDbEntity
8
0
100
AcDbSpline
70
0
71
2
72
6
73
3
74
0
42
0.000000001
43
0.0000000001
44
0.0000000001
40
0
40
0
40
0
40
1
40
1
40
1
10
139.75056820621629
20
15.12707759362732
30
0
10
139.68504753630799
20
15.211449264004052
30
0
10
139.63743524939463
20
15.358692082183506
30
0
0
SPLINE
5
832
100
AcDbEntity
8
0
100
AcDbSpline
70
0
71
2
72
6
73
3
74
0
42
0.000000001
43
0.0000000001
44
0.0000000001
40
0
40
0
40
0
40
1
40
1
40
1
10
139.63743524939463
20
15.358692082183506
30
0
10
139.58982296248126
20
15.505934900362956
30
0
10
139.5856694020367
20
15.675733502162078
30
0
0
SPLINE
5
833
100
AcDbEntity
8
0
100
AcDbSpline
70
0
71
2
72
6
73
3
74
0
42
0.000000001
43
0.0000000001
44
0.0000000001
40
0
40
0
40
0
40
1
40
1
40
1
10
139.5856694020367
20
15.675733502162078
30
0
10
139.57941401990138
20
15.931455106425512
30
0
10
139.64833279175747
20
16.126581326428173
30
0
0
SPLINE
5
834
100
AcDbEntity
8
0
100
AcDbSpline
70
0
71
2
72
6
73
3
74
0
42
0.000000001
43
0.0000000001
44
0.0000000001
40
0
40
0
40
0
40
1
40
1
40
1
10
139.64833279175747
20
16.126581326428173
30
0
10
139.71725153446167
20
16.321708738167239
30
0
10
139.84081464735957
20
16.416845639552683
30
0
0
SPLINE
5
835
100
AcDbEntity
8
0
100
AcDbSpline
70
0
71
2
72
6
73
3
74
0
42
0.000000001
43
0.0000000001
44
0.0000000001
40
0
40
0
40
0
40
1
40
1
40
1
10
139.84081464735957
20
16.416845639552683
30
0
10
139.96437773110554
20
16.51198373267453
30
0
10
140.17424162814569
20
16.551916611663763
30
0
0
LINE
5
836
100
AcDbEntity
8
0
100
AcDbLine
10
140.17424162814569
20
16.55191661166376
30
0
11
140.23214772535476
21
16.193060709723742
31
0
0
SPLINE
5
837
100
AcDbEntity
8
0
100
AcDbSpline
70
0
71
2
72
6
73
3
74
0
42
0.000000001
43
0.0000000001
44
0.0000000001
40
0
40
0
40
0
40
1
40
1
40
1
10
140.23214772535476
20
16.193060709723742
30
0
10
140.06499494080674
20
16.164408603164993
30
0
10
139.97376682229822
20
16.044473896486956
30
0
0
SPLINE
5
838
100
AcDbEntity
8
0
100
AcDbSpline
70
0
71
2
72
6
73
3
74
0
42
0.000000001
43
0.0000000001
44
0.0000000001
40
0
40
0
40
0
40
1
40
1
40
1
10
139.97376682229822
20
16.044473896486956
30
0
10
139.88253867463786
20
15.924540381545311
30
0
10
139.88779318513681
20
15.709734662989131
30
0
0
SPLINE
5
839
100
AcDbEntity
8
0
100
AcDbSpline
70
0
71
2
72
6
73
3
74
0
42
0.000000001
43
0.0000000001
44
0.0000000001
40
0
40
0
40
0
40
1
40
1
40
1
10
139.88779318513681
20
15.709734662989131
30
0
10
139.89399851348713
20
15.456059270118804
30
0
10
139.98052760127626
20
15.349684477181707
30
0
0
SPLINE
5
840
100
AcDbEntity
8
0
100
AcDbSpline
70
0
71
2
72
6
73
3
74
0
42
0.000000001
43
0.0000000001
44
0.0000000001
40
0
40
0
40
0
40
1
40
1
40
1
10
139.98052760127626
20
15.349684477181707
30
0
10
140.06705651094646
20
15.243310872337016
30
0
10
140.17957400490499
20
15.24606324018503
30
0
0
SPLINE
5
841
100
AcDbEntity
8
0
100
AcDbSpline
70
0
71
2
72
6
73
3
74
0
42
0.000000001
43
0.0000000001
44
0.0000000001
40
0
40
0
40
0
40
1
40
1
40
1
10
140.17957400490499
20
15.24606324018503
30
0
10
140.25117606005745
20
15.247814747328672
30
0
10
140.3073568428637
20
15.294221879521839
30
0
0
SPLINE
5
842
100
AcDbEntity
8
0
100
AcDbSpline
70
0
71
2
72
6
73
3
74
0
42
0.000000001
43
0.0000000001
44
0.0000000001
40
0
40
0
40
0
40
1
40
1
40
1
10
140.3073568428637
20
15.294221879521839
30
0
10
140.36558321204299
20
15.340680242660438
30
0
10
140.40210085404533
20
15.437782736468812
30
0
0
SPLINE
5
843
100
AcDbEntity
8
0
100
AcDbSpline
70
0
71
2
72
6
73
3
74
0
42
0.000000001
43
0.0000000001
44
0.0000000001
40
0
40
0
40
0
40
1
40
1
40
1
10
140.40210085404533
20
15.437782736468812
30
0
10
140.4212074872564
20
15.493518958892762
30
0
10
140.48824963572631
20
15.765362017695374
30
0
0
SPLINE
5
844
100
AcDbEntity
8
0
100
AcDbSpline
70
0
71
2
72
6
73
3
74
0
42
0.000000001
43
0.0000000001
44
0.0000000001
40
0
40
0
40
0
40
1
40
1
40
1
10
140.48824963572631
20
15.765362017695374
30
0
10
140.58302581026669
20
16.158658360402306
30
0
10
140.64573514976877
20
16.314739754283263
30
0
0
SPLINE
5
845
100
AcDbEntity
8
0
100
AcDbSpline
70
0
71
2
72
6
73
3
74
0
42
0.000000001
43
0.0000000001
44
0.0000000001
40
0
40
0
40
0
40
1
40
1
40
1
10
140.64573514976877
20
16.314739754283263
30
0
10
140.708444609086
20
16.470822343544601
30
0
10
140.8331306081644
20
16.561893033484761
30
0
0
SPLINE
5
846
100
AcDbEntity
8
0
100
AcDbSpline
70
0
71
2
72
6
73
3
74
0
42
0.000000001
43
0.0000000001
44
0.0000000001
40
0
40
0
40
0
40
1
40
1
40
1
10
140.8331306081644
20
16.561893033484761
30
0
10
140.95781675620987
20
16.652963727068904
30
0
10
141.14602768533769
20
16.657567684122604
30
0
0
SPLINE
5
847
100
AcDbEntity
8
0
100
AcDbSpline
70
0
71
2
72
6
73
3
74
0
42
0.000000001
43
0.0000000001
44
0.0000000001
40
0
40
0
40
0
40
1
40
1
40
1
10
141.14602768533769
20
16.657567684122604
30
0
10
141.33014738341575
20
16.662071562758243
30
0
10
141.49541358612717
20
16.558647126693113
30
0
0
SPLINE
5
848
100
AcDbEntity
8
0
100
AcDbSpline
70
0
71
2
72
6
73
3
74
0
42
0.000000001
43
0.0000000001
44
0.0000000001
40
0
40
0
40
0
40
1
40
1
40
1
10
141.49541358612717
20
16.558647126693113
30
0
10
141.66067978883862
20
16.455222690627981
30
0
10
141.75462519190097
20
16.254867538437516
30
0
0
SPLINE
5
849
100
AcDbEntity
8
0
100
AcDbSpline
70
0
71
2
72
6
73
3
74
0
42
0.000000001
43
0.0000000001
44
0.0000000001
40
0
40
0
40
0
40
1
40
1
40
1
10
141.75462519190097
20
16.254867538437516
30
0
10
141.8485705658114
20
16.054513577983446
30
0
10
141.85482597709859
20
15.798790781983616
30
0
0
SPLINE
5
850
100
AcDbEntity
8
0
100
AcDbSpline
70
0
71
2
72
6
73
3
74
0
42
0.000000001
43
0.0000000001
44
0.0000000001
40
0
40
0
40
0
40
1
40
1
40
1
10
141.85482597709859
20
15.798790781983616
30
0
10
141.86518486589347
20
15.375316787314164
30
0
10
141.6946779099537
20
15.149046217526767
30
0
0
SPLINE
5
851
100
AcDbEntity
8
0
100
AcDbSpline
70
0
71
2
72
6
73
3
74
0
42
0.000000001
43
0.0000000001
44
0.0000000001
40
0
40
0
40
0
40
1
40
1
40
1
10
141.6946779099537
20
15.149046217526767
30
0
10
141.52417122279613
20
14.922776846763739
30
0
10
141.17993697583123
20
14.852946339114952
30
0
0
LINE
5
852
100
AcDbEntity
8
0
100
AcDbLine
10
141.42456331771592
20
17.906908746120482
30
0
11
141.74854007659741
21
17.968056363139464
31
0
0
SPLINE
5
853
100
AcDbEntity
8
0
100
AcDbSpline
70
0
71
2
72
6
73
3
74
0
42
0.000000001
43
0.0000000001
44
0.0000000001
40
0
40
0
40
0
40
1
40
1
40
1
10
141.74854007659741
20
17.968056363139464
30
0
10
141.78507557987405
20
17.813378351531167
30
0
10
141.78807816563113
20
17.690631886145809
30
0
0
SPLINE
5
854
100
AcDbEntity
8
0
100
AcDbSpline
70
0
71
2
72
6
73
3
74
0
42
0.000000001
43
0.0000000001
44
0.0000000001
40
0
40
0
40
0
40
1
40
1
40
1
10
141.78807816563113
20
17.690631886145809
30
0
10
141.79298238709094
20
17.490146072132148
30
0
10
141.73226586022435
20
17.378123159545027
30
0
0
SPLINE
5
855
100
AcDbEntity
8
0
100
AcDbSpline
70
0
71
2
72
6
73
3
74
0
42
0.000000001
43
0.0000000001
44
0.0000000001
40
0
40
0
40
0
40
1
40
1
40
1
10
141.73226586022435
20
17.378123159545027
30
0
10
141.67154936250967
20
17.266099055221503
30
0
10
141.56933865518391
20
17.218565953369428
30
0
0
SPLINE
5
856
100
AcDbEntity
8
0
100
AcDbSpline
70
0
71
2
72
6
73
3
74
0
42
0.000000001
43
0.0000000001
44
0.0000000001
40
0
40
0
40
0
40
1
40
1
40
1
10
141.56933865518391
20
17.218565953369428
30
0
10
141.46712797700999
20
17.171031659780954
30
0
10
141.13571293757727
20
17.162924688439965
30
0
0
LINE
5
857
100
AcDbEntity
8
0
100
AcDbLine
10
141.13571293757727
20
17.162924688439965
30
0
11
139.8857457681145
21
17.132348381349757
31
0
0
LINE
5
858
100
AcDbEntity
8
0
100
AcDbLine
10
139.8857457681145
20
17.132348381349757
30
0
11
139.89235146844086
21
16.862305680807406
31
0
0
LINE
5
859
100
AcDbEntity
8
0
100
AcDbLine
10
139.89235146844086
20
16.862305680807406
30
0
11
139.60594324783108
21
16.855299652232844
31
0
0
LINE
5
860
100
AcDbEntity
8
0
100
AcDbLine
10
139.60594324783108
20
16.855299652232844
30
0
11
139.59933754750472
21
17.125342352775192
31
0
0
LINE
5
861
100
AcDbEntity
8
0
100
AcDbLine
10
139.59933754750472
20
17.125342352775192
30
0
11
139.06129910264838
21
17.112181024127384
31
0
0
LINE
5
862
100
AcDbEntity
8
0
100
AcDbLine
10
139.06129910264838
20
17.112181024127384
30
0
11
138.83139796938079
21
17.472968367163983
31
0
0
LINE
5
863
100
AcDbEntity
8
0
100
AcDbLine
10
138.83139796938079
20
17.472968367163983
30
0
11
139.59037987317032
21
17.491534345801771
31
0
0
LINE
5
864
100
AcDbEntity
8
0
100
AcDbLine
10
139.59037987317032
20
17.491534345801771
30
0
11
139.58132206211405
21
17.861819953350949
31
0
0
LINE
5
865
100
AcDbEntity
8
0
100
AcDbLine
10
139.58132206211405
20
17.861819953350949
30
0
11
139.86773028272384
21
17.868825981925514
31
0
0
LINE
5
866
100
AcDbEntity
8
0
100
AcDbLine
10
139.86773028272384
20
17.868825981925514
30
0
11
139.87678809378008
21
17.498540374376333
31
0
0
LINE
5
867
100
AcDbEntity
8
0
100
AcDbLine
10
139.87678809378008
20
17.498540374376333
30
0
11
141.1472129081624
21
17.529617109996735
31
0
0
SPLINE
5
868
100
AcDbEntity
8
0
100
AcDbSpline
70
0
71
2
72
6
73
3
74
0
42
0.000000001
43
0.0000000001
44
0.0000000001
40
0
40
0
40
0
40
1
40
1
40
1
10
141.14721290816237
20
17.529617109996739
30
0
10
141.30473751887797
20
17.53347042789914
30
0
10
141.34926892877527
20
17.554006207822638
30
0
0
SPLINE
5
869
100
AcDbEntity
8
0
100
AcDbSpline
70
0
71
2
72
6
73
3
74
0
42
0.000000001
43
0.0000000001
44
0.0000000001
40
0
40
0
40
0
40
1
40
1
40
1
10
141.34926892877527
20
17.554006207822638
30
0
10
141.39380063660664
20
17.574541995034103
30
0
10
141.41931978623123
20
17.619177162696044
30
0
0
SPLINE
5
870
100
AcDbEntity
8
0
100
AcDbSpline
70
0
71
2
72
6
73
3
74
0
42
0.000000001
43
0.0000000001
44
0.0000000001
40
0
40
0
40
0
40
1
40
1
40
1
10
141.41931978623123
20
17.619177162696044
30
0
10
141.44483893585584
20
17.663812330357981
30
0
10
141.44283722173506
20
17.745642910036089
30
0
0
SPLINE
5
871
100
AcDbEntity
8
0
100
AcDbSpline
70
0
71
2
72
6
73
3
74
0
42
0.000000001
43
0.0000000001
44
0.0000000001
40
0
40
0
40
0
40
1
40
1
40
1
10
141.44283722173506
20
17.745642910036089
30
0
10
141.44133592885652
20
17.80701614272877
30
0
10
141.42456331771592
20
17.906908746120482
30
0
0
LWPOLYLINE
5
872
100
AcDbEntity
8
0
100
AcDbPolyline
90
10
70
1
43
0.0
10
94.000001400709152
20
55.500000923871994
10
94.000001400709152
20
58.000000923871994
10
95.686563588678837
20
58.000000923871994
10
95.686563588678837
20
57.704980432987213
10
94.330833591520786
20
57.704980432987213
10
94.330833591520786
20
56.930764973163605
10
95.504094250500202
20
56.930764973163605
10
95.504094250500202
20
56.635744482278824
10
94.330833591520786
20
56.635744482278824
10
94.330833591520786
20
55.500000923871994
0
SPLINE
5
873
100
AcDbEntity
8
0
100
AcDbSpline
70
0
71
2
72
6
73
3
74
0
42
0.000000001
43
0.0000000001
44
0.0000000001
40
0
40
0
40
0
40
1
40
1
40
1
10
97.258869297802448
20
55.723397940397263
30
0
10
97.088336832821369
20
55.578445702791214
30
0
10
96.930594928562641
20
55.518759399652481
30
0
0
SPLINE
5
874
100
AcDbEntity
8
0
100
AcDbSpline
70
0
71
2
72
6
73
3
74
0
42
0.000000001
43
0.0000000001
44
0.0000000001
40
0
40
0
40
0
40
1
40
1
40
1
10
96.930594928562641
20
55.518759399652481
30
0
10
96.772852726280689
20
55.459073096513748
30
0
10
96.59208882600069
20
55.459073096513748
30
0
0
SPLINE
5
875
100
AcDbEntity
8
0
100
AcDbSpline
70
0
71
2
72
6
73
3
74
0
42
0.000000001
43
0.0000000001
44
0.0000000001
40
0
40
0
40
0
40
1
40
1
40
1
10
96.59208882600069
20
55.459073096513748
30
0
10
96.29365760833025
20
55.459073096513748
30
0
10
96.133357472717762
20
55.604878276586533
30
0
0
SPLINE
5
876
100
AcDbEntity
8
0
100
AcDbSpline
70
0
71
2
72
6
73
3
74
0
42
0.000000001
43
0.0000000001
44
0.0000000001
40
0
40
0
40
0
40
1
40
1
40
1
10
96.133357472717762
20
55.604878276586533
30
0
10
95.973057337105274
20
55.750683158636093
30
0
10
95.973057337105274
20
55.97749075293541
30
0
0
SPLINE
5
877
100
AcDbEntity
8
0
100
AcDbSpline
70
0
71
2
72
6
73
3
74
0
42
0.000000001
43
0.0000000001
44
0.0000000001
40
0
40
0
40
0
40
1
40
1
40
1
10
95.973057337105274
20
55.97749075293541
30
0
10
95.973057337105274
20
56.110505670309067
30
0
10
96.033596284687519
20
56.220498889684677
30
0
0
SPLINE
5
878
100
AcDbEntity
8
0
100
AcDbSpline
70
0
71
2
72
6
73
3
74
0
42
0.000000001
43
0.0000000001
44
0.0000000001
40
0
40
0
40
0
40
1
40
1
40
1
10
96.033596284687519
20
56.220498889684677
30
0
10
96.094135083258152
20
56.330492109060287
30
0
10
96.192190982401371
20
56.396999567747116
30
0
0
SPLINE
5
879
100
AcDbEntity
8
0
100
AcDbSpline
70
0
71
2
72
6
73
3
74
0
42
0.000000001
43
0.0000000001
44
0.0000000001
40
0
40
0
40
0
40
1
40
1
40
1
10
96.192190982401371
20
56.396999567747116
30
0
10
96.290247030556202
20
56.463507026433945
30
0
10
96.413029916584492
20
56.497613400220871
30
0
0
SPLINE
5
880
100
AcDbEntity
8
0
100
AcDbSpline
70
0
71
2
72
6
73
3
74
0
42
0.000000001
43
0.0000000001
44
0.0000000001
40
0
40
0
40
0
40
1
40
1
40
1
10
96.413029916584492
20
56.497613400220871
30
0
10
96.503412015736103
20
56.521488040685654
30
0
10
96.68588150292635
20
56.543657094240189
30
0
0
SPLINE
5
881
100
AcDbEntity
8
0
100
AcDbSpline
70
0
71
2
72
6
73
3
74
0
42
0.000000001
43
0.0000000001
44
0.0000000001
40
0
40
0
40
0
40
1
40
1
40
1
10
96.68588150292635
20
56.543657094240189
30
0
10
97.057641334831715
20
56.587995499372482
30
0
10
97.233289368450642
20
56.649387091398239
30
0
0
SPLINE
5
882
100
AcDbEntity
8
0
100
AcDbSpline
70
0
71
2
72
6
73
3
74
0
42
0.000000001
43
0.0000000001
44
0.0000000001
40
0
40
0
40
0
40
1
40
1
40
1
10
97.233289368450642
20
56.649387091398239
30
0
10
97.234994657337666
20
56.712483823299408
30
0
10
97.234994657337666
20
56.729537159204483
30
0
0
SPLINE
5
883
100
AcDbEntity
8
0
100
AcDbSpline
70
0
71
2
72
6
73
3
74
0
42
0.000000001
43
0.0000000001
44
0.0000000001
40
0
40
0
40
0
40
1
40
1
40
1
10
97.234994657337666
20
56.729537159204483
30
0
10
97.234994657337666
20
56.917122364044189
30
0
10
97.148023135960102
20
56.993861854076385
30
0
0
SPLINE
5
884
100
AcDbEntity
8
0
100
AcDbSpline
70
0
71
2
72
6
73
3
74
0
42
0.000000001
43
0.0000000001
44
0.0000000001
40
0
40
0
40
0
40
1
40
1
40
1
10
97.148023135960102
20
56.993861854076385
30
0
10
97.030356116592884
20
57.0978864133358
30
0
10
96.798432357609272
20
57.0978864133358
30
0
0
SPLINE
5
885
100
AcDbEntity
8
0
100
AcDbSpline
70
0
71
2
72
6
73
3
74
0
42
0.000000001
43
0.0000000001
44
0.0000000001
40
0
40
0
40
0
40
1
40
1
40
1
10
96.798432357609272
20
57.0978864133358
30
0
10
96.581856794655323
20
57.0978864133358
30
0
10
96.478685028851032
20
57.021999567747116
30
0
0
SPLINE
5
886
100
AcDbEntity
8
0
100
AcDbSpline
70
0
71
2
72
6
73
3
74
0
42
0.000000001
43
0.0000000001
44
0.0000000001
40
0
40
0
40
0
40
1
40
1
40
1
10
96.478685028851032
20
57.021999567747116
30
0
10
96.375512965023518
20
56.946112871170044
30
0
10
96.326058693230152
20
56.753411650657654
30
0
0
LINE
5
887
100
AcDbEntity
8
0
100
AcDbLine
10
96.326058693230152
20
56.753411650657654
30
0
11
96.025922335684299
21
56.794339329004288
31
0
0
SPLINE
5
888
100
AcDbEntity
8
0
100
AcDbSpline
70
0
71
2
72
6
73
3
74
0
42
0.000000001
43
0.0000000001
44
0.0000000001
40
0
40
0
40
0
40
1
40
1
40
1
10
96.025922335684299
20
56.794339329004288
30
0
10
96.066850014030933
20
56.987040549516678
30
0
10
96.160642541944981
20
57.10556036233902
30
0
0
SPLINE
5
889
100
AcDbEntity
8
0
100
AcDbSpline
70
0
71
2
72
6
73
3
74
0
42
0.000000001
43
0.0000000001
44
0.0000000001
40
0
40
0
40
0
40
1
40
1
40
1
10
96.160642541944981
20
57.10556036233902
30
0
10
96.254435367882252
20
57.22408002614975
30
0
10
96.431788690388203
20
57.288029551506042
30
0
0
SPLINE
5
890
100
AcDbEntity
8
0
100
AcDbSpline
70
0
71
2
72
6
73
3
74
0
42
0.000000001
43
0.0000000001
44
0.0000000001
40
0
40
0
40
0
40
1
40
1
40
1
10
96.431788690388203
20
57.288029551506042
30
0
10
96.609142012894154
20
57.351979076862335
30
0
10
96.842770762741566
20
57.351979076862335
30
0
0
SPLINE
5
891
100
AcDbEntity
8
0
100
AcDbSpline
70
0
71
2
72
6
73
3
74
0
42
0.000000001
43
0.0000000001
44
0.0000000001
40
0
40
0
40
0
40
1
40
1
40
1
10
96.842770762741566
20
57.351979076862335
30
0
10
97.074694521725178
20
57.351979076862335
30
0
10
97.219646759331226
20
57.297408789396286
30
0
0
SPLINE
5
892
100
AcDbEntity
8
0
100
AcDbSpline
70
0
71
2
72
6
73
3
74
0
42
0.000000001
43
0.0000000001
44
0.0000000001
40
0
40
0
40
0
40
1
40
1
40
1
10
97.219646759331226
20
57.297408789396286
30
0
10
97.364598996937275
20
57.242838650941849
30
0
10
97.432811744511127
20
57.160130500793457
30
0
0
SPLINE
5
893
100
AcDbEntity
8
0
100
AcDbSpline
70
0
71
2
72
6
73
3
74
0
42
0.000000001
43
0.0000000001
44
0.0000000001
40
0
40
0
40
0
40
1
40
1
40
1
10
97.432811744511127
20
57.160130500793457
30
0
10
97.50102449208498
20
57.077422499656677
30
0
10
97.528309710323811
20
56.951228737831116
30
0
0
SPLINE
5
894
100
AcDbEntity
8
0
100
AcDbSpline
70
0
71
2
72
6
73
3
74
0
42
0.000000001
43
0.0000000001
44
0.0000000001
40
0
40
0
40
0
40
1
40
1
40
1
10
97.528309710323811
20
56.951228737831116
30
0
10
97.54365760833025
20
56.872783958911896
30
0
10
97.54365760833025
20
56.668145567178726
30
0
0
LINE
5
895
100
AcDbEntity
8
0
100
AcDbLine
10
97.54365760833025
20
56.668145567178726
30
0
11
97.54365760833025
21
56.258868634700775
31
0
0
SPLINE
5
896
100
AcDbEntity
8
0
100
AcDbSpline
70
0
71
2
72
6
73
3
74
0
42
0.000000001
43
0.0000000001
44
0.0000000001
40
0
40
0
40
0
40
1
40
1
40
1
10
97.54365760833025
20
56.258868634700775
30
0
10
97.54365760833025
20
55.830833226442337
30
0
10
97.563269026577473
20
55.717429429292679
30
0
0
SPLINE
5
897
100
AcDbEntity
8
0
100
AcDbSpline
70
0
71
2
72
6
73
3
74
0
42
0.000000001
43
0.0000000001
44
0.0000000001
40
0
40
0
40
0
40
1
40
1
40
1
10
97.563269026577473
20
55.717429429292679
30
0
10
97.582880146801472
20
55.604025632143021
30
0
10
97.640860863029957
20
55.500000923871994
30
0
0
LINE
5
898
100
AcDbEntity
8
0
100
AcDbLine
10
97.640860863029957
20
55.50000092387198
30
0
11
97.320260591804981
21
55.500000923871994
31
0
0
SPLINE
5
899
100
AcDbEntity
8
0
100
AcDbSpline
70
0
71
2
72
6
73
3
74
0
42
0.000000001
43
0.0000000001
44
0.0000000001
40
0
40
0
40
0
40
1
40
1
40
1
10
97.320260591804981
20
55.500000923871994
30
0
10
97.27251160889864
20
55.595498889684677
30
0
10
97.258869297802448
20
55.723397940397263
30
0
0
SPLINE
5
900
100
AcDbEntity
8
0
100
AcDbSpline
70
0
71
2
72
6
73
3
74
0
42
0.000000001
43
0.0000000001
44
0.0000000001
40
0
40
0
40
0
40
1
40
1
40
1
10
97.233289368450642
20
56.408936887979507
30
0
10
97.066167779266834
20
56.340723991394043
30
0
10
96.731924898922443
20
56.292975008487701
30
0
0
SPLINE
5
901
100
AcDbEntity
8
0
100
AcDbSpline
70
0
71
2
72
6
73
3
74
0
42
0.000000001
43
0.0000000001
44
0.0000000001
40
0
40
0
40
0
40
1
40
1
40
1
10
96.731924898922443
20
56.292975008487701
30
0
10
96.542634256184101
20
56.265689939260483
30
0
10
96.464189775288105
20
56.231583565473557
30
0
0
SPLINE
5
902
100
AcDbEntity
8
0
100
AcDbSpline
70
0
71
2
72
6
73
3
74
0
42
0.000000001
43
0.0000000001
44
0.0000000001
40
0
40
0
40
0
40
1
40
1
40
1
10
96.464189775288105
20
56.231583565473557
30
0
10
96.385744996368885
20
56.197477042675018
30
0
10
96.343111880123615
20
56.131822377443314
30
0
0
SPLINE
5
903
100
AcDbEntity
8
0
100
AcDbSpline
70
0
71
2
72
6
73
3
74
0
42
0.000000001
43
0.0000000001
44
0.0000000001
40
0
40
0
40
0
40
1
40
1
40
1
10
96.343111880123615
20
56.131822377443314
30
0
10
96.300479061901569
20
56.066167265176773
30
0
10
96.300479061901569
20
55.986017197370529
30
0
0
SPLINE
5
904
100
AcDbEntity
8
0
100
AcDbSpline
70
0
71
2
72
6
73
3
74
0
42
0.000000001
43
0.0000000001
44
0.0000000001
40
0
40
0
40
0
40
1
40
1
40
1
10
96.300479061901569
20
55.986017197370529
30
0
10
96.300479061901569
20
55.863234311342239
30
0
10
96.393418796360493
20
55.781378954648972
30
0
0
SPLINE
5
905
100
AcDbEntity
8
0
100
AcDbSpline
70
0
71
2
72
6
73
3
74
0
42
0.000000001
43
0.0000000001
44
0.0000000001
40
0
40
0
40
0
40
1
40
1
40
1
10
96.393418796360493
20
55.781378954648972
30
0
10
96.48635882884264
20
55.69952329993248
30
0
10
96.665417440235615
20
55.69952329993248
30
0
0
SPLINE
5
906
100
AcDbEntity
8
0
100
AcDbSpline
70
0
71
2
72
6
73
3
74
0
42
0.000000001
43
0.0000000001
44
0.0000000001
40
0
40
0
40
0
40
1
40
1
40
1
10
96.665417440235615
20
55.69952329993248
30
0
10
96.842770762741566
20
55.69952329993248
30
0
10
96.980901844799519
20
55.777115434408188
30
0
0
SPLINE
5
907
100
AcDbEntity
8
0
100
AcDbSpline
70
0
71
2
72
6
73
3
74
0
42
0.000000001
43
0.0000000001
44
0.0000000001
40
0
40
0
40
0
40
1
40
1
40
1
10
96.980901844799519
20
55.777115434408188
30
0
10
97.119032628834248
20
55.854707568883896
30
0
10
97.183834798634052
20
55.989428073167801
30
0
0
SPLINE
5
908
100
AcDbEntity
8
0
100
AcDbSpline
70
0
71
2
72
6
73
3
74
0
42
0.000000001
43
0.0000000001
44
0.0000000001
40
0
40
0
40
0
40
1
40
1
40
1
10
97.183834798634052
20
55.989428073167801
30
0
10
97.233289368450642
20
56.093452483415604
30
0
10
97.233289368450642
20
56.296385735273361
30
0
0
LINE
5
909
100
AcDbEntity
8
0
100
AcDbLine
10
97.233289368450642
20
56.296385735273361
30
0
11
97.233289368450642
21
56.408936887979507
31
0
0
LINE
5
910
100
AcDbEntity
8
0
100
AcDbLine
10
98.302525170147419
20
55.500000923871994
30
0
11
98.017736561596394
21
55.500000923871994
31
0
0
LINE
5
911
100
AcDbEntity
8
0
100
AcDbLine
10
98.017736561596394
20
55.500000923871994
30
0
11
98.017736561596394
21
58.000000923871994
31
0
0
LINE
5
912
100
AcDbEntity
8
0
100
AcDbLine
10
98.017736561596394
20
58.000000923871994
30
0
11
98.324694223701954
21
58.000000923871994
31
0
0
LINE
5
913
100
AcDbEntity
8
0
100
AcDbLine
10
98.324694223701954
20
58.000000923871994
30
0
11
98.324694223701954
21
57.108118444681168
31
0
0
SPLINE
5
914
100
AcDbEntity
8
0
100
AcDbSpline
70
0
71
2
72
6
73
3
74
0
42
0.000000001
43
0.0000000001
44
0.0000000001
40
0
40
0
40
0
40
1
40
1
40
1
10
98.324694223701954
20
57.108118444681168
30
0
10
98.519100733101368
20
57.351979225873947
30
0
10
98.820942528545856
20
57.351979225873947
30
0
0
SPLINE
5
915
100
AcDbEntity
8
0
100
AcDbSpline
70
0
71
2
72
6
73
3
74
0
42
0.000000001
43
0.0000000001
44
0.0000000001
40
0
40
0
40
0
40
1
40
1
40
1
10
98.820942528545856
20
57.351979225873947
30
0
10
98.98806381970644
20
57.351979225873947
30
0
10
99.137279875576496
20
57.284619122743607
30
0
0
SPLINE
5
916
100
AcDbEntity
8
0
100
AcDbSpline
70
0
71
2
72
6
73
3
74
0
42
0.000000001
43
0.0000000001
44
0.0000000001
40
0
40
0
40
0
40
1
40
1
40
1
10
99.137279875576496
20
57.284619122743607
30
0
10
99.286495335400105
20
57.217258870601654
30
0
10
99.382845647633076
20
57.095328480005264
30
0
0
SPLINE
5
917
100
AcDbEntity
8
0
100
AcDbSpline
70
0
71
2
72
6
73
3
74
0
42
0.000000001
43
0.0000000001
44
0.0000000001
40
0
40
0
40
0
40
1
40
1
40
1
10
99.382845647633076
20
57.095328480005264
30
0
10
99.479195959866047
20
56.973398089408875
30
0
10
99.533766396343708
20
56.801160633563995
30
0
0
SPLINE
5
918
100
AcDbEntity
8
0
100
AcDbSpline
70
0
71
2
72
6
73
3
74
0
42
0.000000001
43
0.0000000001
44
0.0000000001
40
0
40
0
40
0
40
1
40
1
40
1
10
99.533766396343708
20
56.801160633563995
30
0
10
99.588336832821369
20
56.628923326730728
30
0
10
99.588336832821369
20
56.432811379432678
30
0
0
SPLINE
5
919
100
AcDbEntity
8
0
100
AcDbSpline
70
0
71
2
72
6
73
3
74
0
42
0.000000001
43
0.0000000001
44
0.0000000001
40
0
40
0
40
0
40
1
40
1
40
1
10
99.588336832821369
20
56.432811379432678
30
0
10
99.588336832821369
20
55.967258721590042
30
0
10
99.358118660748005
20
55.713165909051895
30
0
0
SPLINE
5
920
100
AcDbEntity
8
0
100
AcDbSpline
70
0
71
2
72
6
73
3
74
0
42
0.000000001
43
0.0000000001
44
0.0000000001
40
0
40
0
40
0
40
1
40
1
40
1
10
99.358118660748005
20
55.713165909051895
30
0
10
99.127900488674641
20
55.459073096513748
30
0
10
98.805594928562641
20
55.459073096513748
30
0
0
SPLINE
5
921
100
AcDbEntity
8
0
100
AcDbSpline
70
0
71
2
72
6
73
3
74
0
42
0.000000001
43
0.0000000001
44
0.0000000001
40
0
40
0
40
0
40
1
40
1
40
1
10
98.805594928562641
20
55.459073096513748
30
0
10
98.484994359314442
20
55.459073096513748
30
0
10
98.302525170147419
20
55.72680851817131
30
0
0
LINE
5
922
100
AcDbEntity
8
0
100
AcDbLine
10
98.302525170147419
20
55.72680851817131
30
0
11
98.302525170147419
21
55.500000923871994
31
0
0
SPLINE
5
923
100
AcDbEntity
8
0
100
AcDbSpline
70
0
71
2
72
6
73
3
74
0
42
0.000000001
43
0.0000000001
44
0.0000000001
40
0
40
0
40
0
40
1
40
1
40
1
10
98.299114592373371
20
56.419168919324875
30
0
10
98.299114592373371
20
56.093452483415604
30
0
10
98.387791104614735
20
55.948500245809555
30
0
0
SPLINE
5
924
100
AcDbEntity
8
0
100
AcDbSpline
70
0
71
2
72
6
73
3
74
0
42
0.000000001
43
0.0000000001
44
0.0000000001
40
0
40
0
40
0
40
1
40
1
40
1
10
98.387791104614735
20
55.948500245809555
30
0
10
98.532743342220783
20
55.711460620164871
30
0
10
98.780014999210835
20
55.711460620164871
30
0
0
SPLINE
5
925
100
AcDbEntity
8
0
100
AcDbSpline
70
0
71
2
72
6
73
3
74
0
42
0.000000001
43
0.0000000001
44
0.0000000001
40
0
40
0
40
0
40
1
40
1
40
1
10
98.780014999210835
20
55.711460620164871
30
0
10
98.981242664158344
20
55.711460620164871
30
0
10
99.127900488674641
20
55.886256009340286
30
0
0
SPLINE
5
926
100
AcDbEntity
8
0
100
AcDbSpline
70
0
71
2
72
6
73
3
74
0
42
0.000000001
43
0.0000000001
44
0.0000000001
40
0
40
0
40
0
40
1
40
1
40
1
10
99.127900488674641
20
55.886256009340286
30
0
10
99.274557717144489
20
56.061051398515701
30
0
10
99.274557717144489
20
56.407231599092484
30
0
0
SPLINE
5
927
100
AcDbEntity
8
0
100
AcDbSpline
70
0
71
2
72
6
73
3
74
0
42
0.000000001
43
0.0000000001
44
0.0000000001
40
0
40
0
40
0
40
1
40
1
40
1
10
99.274557717144489
20
56.407231599092484
30
0
10
99.274557717144489
20
56.761938244104385
30
0
10
99.133868701756001
20
56.930765122175217
30
0
0
SPLINE
5
928
100
AcDbEntity
8
0
100
AcDbSpline
70
0
71
2
72
6
73
3
74
0
42
0.000000001
43
0.0000000001
44
0.0000000001
40
0
40
0
40
0
40
1
40
1
40
1
10
99.133868701756001
20
56.930765122175217
30
0
10
98.993179686367512
20
57.099591851234436
30
0
10
98.793657310307026
20
57.099591851234436
30
0
0
SPLINE
5
929
100
AcDbEntity
8
0
100
AcDbSpline
70
0
71
2
72
6
73
3
74
0
42
0.000000001
43
0.0000000001
44
0.0000000001
40
0
40
0
40
0
40
1
40
1
40
1
10
98.793657310307026
20
57.099591851234436
30
0
10
98.592429645359516
20
57.099591851234436
30
0
10
98.445772118866444
20
56.924796462059021
30
0
0
SPLINE
5
930
100
AcDbEntity
8
0
100
AcDbSpline
70
0
71
2
72
6
73
3
74
0
42
0.000000001
43
0.0000000001
44
0.0000000001
40
0
40
0
40
0
40
1
40
1
40
1
10
98.445772118866444
20
56.924796462059021
30
0
10
98.299114592373371
20
56.750001072883606
30
0
10
98.299114592373371
20
56.419168919324875
30
0
0
LWPOLYLINE
5
931
100
AcDbEntity
8
0
100
AcDbPolyline
90
8
70
1
43
0.0
10
99.726468212902546
20
55.500000923871994
10
100.68656373769045
20
58.000000923871994
10
101.04297567158937
20
58.000000923871994
10
102.06616807729006
20
55.500000923871994
10
101.6892920807004
20
55.500000923871994
10
101.39768231660128
20
56.257163196802139
10
100.35232055932283
20
56.257163196802139
10
100.0777642801404
20
55.500000923871994
0
LINE
5
932
100
AcDbEntity
8
0
100
AcDbLine
10
100.44781912118196
20
56.526603907346725
30
0
11
101.2953631952405
21
56.526603907346725
31
0
0
LINE
5
933
100
AcDbEntity
8
0
100
AcDbLine
10
101.2953631952405
20
56.526603907346725
30
0
11
101.03444922715425
21
57.218964159488678
31
0
0
SPLINE
5
934
100
AcDbEntity
8
0
100
AcDbSpline
70
0
71
2
72
6
73
3
74
0
42
0.000000001
43
0.0000000001
44
0.0000000001
40
0
40
0
40
0
40
1
40
1
40
1
10
101.03444922715425
20
57.218964159488678
30
0
10
100.91507662087679
20
57.53444841504097
30
0
10
100.85709560662508
20
57.737381517887115
30
0
0
SPLINE
5
935
100
AcDbEntity
8
0
100
AcDbSpline
70
0
71
2
72
6
73
3
74
0
42
0.000000001
43
0.0000000001
44
0.0000000001
40
0
40
0
40
0
40
1
40
1
40
1
10
100.85709560662508
20
57.737381517887115
30
0
10
100.80934692174196
20
57.496931314468384
30
0
10
100.7223754003644
20
57.259891837835312
30
0
0
LINE
5
936
100
AcDbEntity
8
0
100
AcDbLine
10
100.7223754003644
20
57.259891837835319
30
0
11
100.44781912118196
21
56.526603907346725
31
0
0
LINE
5
937
100
AcDbEntity
8
0
100
AcDbLine
10
103.4730576351285
20
56.163370668888092
30
0
11
103.77489913254976
21
56.124148279428482
31
0
0
SPLINE
5
938
100
AcDbEntity
8
0
100
AcDbSpline
70
0
71
2
72
6
73
3
74
0
42
0.000000001
43
0.0000000001
44
0.0000000001
40
0
40
0
40
0
40
1
40
1
40
1
10
103.77489913254976
20
56.124148279428482
30
0
10
103.72544515877962
20
55.812074452638626
30
0
10
103.52165926247835
20
55.635573774576187
30
0
0
SPLINE
5
939
100
AcDbEntity
8
0
100
AcDbSpline
70
0
71
2
72
6
73
3
74
0
42
0.000000001
43
0.0000000001
44
0.0000000001
40
0
40
0
40
0
40
1
40
1
40
1
10
103.52165926247835
20
55.635573774576187
30
0
10
103.31787336617708
20
55.459073096513748
30
0
10
103.02114773541689
20
55.459073096513748
30
0
0
SPLINE
5
940
100
AcDbEntity
8
0
100
AcDbSpline
70
0
71
2
72
6
73
3
74
0
42
0.000000001
43
0.0000000001
44
0.0000000001
40
0
40
0
40
0
40
1
40
1
40
1
10
103.02114773541689
20
55.459073096513748
30
0
10
102.6493876054883
20
55.459073096513748
30
0
10
102.42343295365572
20
55.70208153128624
30
0
0
SPLINE
5
941
100
AcDbEntity
8
0
100
AcDbSpline
70
0
71
2
72
6
73
3
74
0
42
0.000000001
43
0.0000000001
44
0.0000000001
40
0
40
0
40
0
40
1
40
1
40
1
10
102.42343295365572
20
55.70208153128624
30
0
10
102.19747770577669
20
55.945089668035507
30
0
10
102.19747770577669
20
56.39870485663414
30
0
0
SPLINE
5
942
100
AcDbEntity
8
0
100
AcDbSpline
70
0
71
2
72
6
73
3
74
0
42
0.000000001
43
0.0000000001
44
0.0000000001
40
0
40
0
40
0
40
1
40
1
40
1
10
102.19747770577669
20
56.39870485663414
30
0
10
102.19747770577669
20
56.692020058631897
30
0
10
102.2946809604764
20
56.912006348371506
30
0
0
SPLINE
5
943
100
AcDbEntity
8
0
100
AcDbSpline
70
0
71
2
72
6
73
3
74
0
42
0.000000001
43
0.0000000001
44
0.0000000001
40
0
40
0
40
0
40
1
40
1
40
1
10
102.2946809604764
20
56.912006348371506
30
0
10
102.39188421517611
20
57.131992787122726
30
0
10
102.5905542448163
20
57.241986006498337
30
0
0
SPLINE
5
944
100
AcDbEntity
8
0
100
AcDbSpline
70
0
71
2
72
6
73
3
74
0
42
0.000000001
43
0.0000000001
44
0.0000000001
40
0
40
0
40
0
40
1
40
1
40
1
10
102.5905542448163
20
57.241986006498337
30
0
10
102.78922367841005
20
57.351979076862335
30
0
10
103.02285302430391
20
57.351979076862335
30
0
0
SPLINE
5
945
100
AcDbEntity
8
0
100
AcDbSpline
70
0
71
2
72
6
73
3
74
0
42
0.000000001
43
0.0000000001
44
0.0000000001
40
0
40
0
40
0
40
1
40
1
40
1
10
103.02285302430391
20
57.351979076862335
30
0
10
103.31787336617708
20
57.351979076862335
30
0
10
103.5054587200284
20
57.202763617038727
30
0
0
SPLINE
5
946
100
AcDbEntity
8
0
100
AcDbSpline
70
0
71
2
72
6
73
3
74
0
42
0.000000001
43
0.0000000001
44
0.0000000001
40
0
40
0
40
0
40
1
40
1
40
1
10
103.5054587200284
20
57.202763617038727
30
0
10
103.69304407387972
20
57.053548008203506
30
0
10
103.74590862542391
20
56.778991430997849
30
0
0
LINE
5
947
100
AcDbEntity
8
0
100
AcDbLine
10
103.74590862542391
20
56.778991430997856
30
0
11
103.44747770577669
21
56.732947736978531
31
0
0
SPLINE
5
948
100
AcDbEntity
8
0
100
AcDbSpline
70
0
71
2
72
6
73
3
74
0
42
0.000000001
43
0.0000000001
44
0.0000000001
40
0
40
0
40
0
40
1
40
1
40
1
10
103.44747770577669
20
56.732947736978531
30
0
10
103.40484488755465
20
56.915417075157166
30
0
10
103.29655695706606
20
57.007504314184189
30
0
0
SPLINE
5
949
100
AcDbEntity
8
0
100
AcDbSpline
70
0
71
2
72
6
73
3
74
0
42
0.000000001
43
0.0000000001
44
0.0000000001
40
0
40
0
40
0
40
1
40
1
40
1
10
103.29655695706606
20
57.007504314184189
30
0
10
103.18826902657747
20
57.099591702222824
30
0
10
103.03479004651308
20
57.099591702222824
30
0
0
SPLINE
5
950
100
AcDbEntity
8
0
100
AcDbSpline
70
0
71
2
72
6
73
3
74
0
42
0.000000001
43
0.0000000001
44
0.0000000001
40
0
40
0
40
0
40
1
40
1
40
1
10
103.03479004651308
20
57.099591702222824
30
0
10
102.80286658555269
20
57.099591702222824
30
0
10
102.65791404992342
20
56.933322906494141
30
0
0
SPLINE
5
951
100
AcDbEntity
8
0
100
AcDbSpline
70
0
71
2
72
6
73
3
74
0
42
0.000000001
43
0.0000000001
44
0.0000000001
40
0
40
0
40
0
40
1
40
1
40
1
10
102.65791404992342
20
56.933322906494141
30
0
10
102.5129621103406
20
56.767054110765457
30
0
10
102.5129621103406
20
56.407231599092484
30
0
0
SPLINE
5
952
100
AcDbEntity
8
0
100
AcDbSpline
70
0
71
2
72
6
73
3
74
0
42
0.000000001
43
0.0000000001
44
0.0000000001
40
0
40
0
40
0
40
1
40
1
40
1
10
102.5129621103406
20
56.407231599092484
30
0
10
102.5129621103406
20
56.042292922735214
30
0
10
102.65279818326235
20
55.876876622438431
30
0
0
SPLINE
5
953
100
AcDbEntity
8
0
100
AcDbSpline
70
0
71
2
72
6
73
3
74
0
42
0.000000001
43
0.0000000001
44
0.0000000001
40
0
40
0
40
0
40
1
40
1
40
1
10
102.65279818326235
20
55.876876622438431
30
0
10
102.79263485223055
20
55.711460620164871
30
0
10
103.01773715764284
20
55.711460620164871
30
0
0
SPLINE
5
954
100
AcDbEntity
8
0
100
AcDbSpline
70
0
71
2
72
6
73
3
74
0
42
0.000000001
43
0.0000000001
44
0.0000000001
40
0
40
0
40
0
40
1
40
1
40
1
10
103.01773715764284
20
55.711460620164871
30
0
10
103.19850075989962
20
55.711460620164871
30
0
10
103.31957865506411
20
55.822306483983994
30
0
0
SPLINE
5
955
100
AcDbEntity
8
0
100
AcDbSpline
70
0
71
2
72
6
73
3
74
0
42
0.000000001
43
0.0000000001
44
0.0000000001
40
0
40
0
40
0
40
1
40
1
40
1
10
103.31957865506411
20
55.822306483983994
30
0
10
103.4406565502286
20
55.933152347803116
30
0
10
103.4730576351285
20
56.163370668888092
30
0
0
SPLINE
5
956
100
AcDbEntity
8
0
100
AcDbSpline
70
0
71
2
72
6
73
3
74
0
42
0.000000001
43
0.0000000001
44
0.0000000001
40
0
40
0
40
0
40
1
40
1
40
1
10
105.21930564194918
20
55.723397940397263
30
0
10
105.0487731769681
20
55.578445702791214
30
0
10
104.89103186875582
20
55.518759399652481
30
0
0
SPLINE
5
957
100
AcDbEntity
8
0
100
AcDbSpline
70
0
71
2
72
6
73
3
74
0
42
0.000000001
43
0.0000000001
44
0.0000000001
40
0
40
0
40
0
40
1
40
1
40
1
10
104.89103186875582
20
55.518759399652481
30
0
10
104.73328936845064
20
55.459073096513748
30
0
10
104.55252517014742
20
55.459073096513748
30
0
0
SPLINE
5
958
100
AcDbEntity
8
0
100
AcDbSpline
70
0
71
2
72
6
73
3
74
0
42
0.000000001
43
0.0000000001
44
0.0000000001
40
0
40
0
40
0
40
1
40
1
40
1
10
104.55252517014742
20
55.459073096513748
30
0
10
104.2540942505002
20
55.459073096513748
30
0
10
104.09379471093416
20
55.604878276586533
30
0
0
SPLINE
5
959
100
AcDbEntity
8
0
100
AcDbSpline
70
0
71
2
72
6
73
3
74
0
42
0.000000001
43
0.0000000001
44
0.0000000001
40
0
40
0
40
0
40
1
40
1
40
1
10
104.09379471093416
20
55.604878276586533
30
0
10
103.93349397927523
20
55.750683158636093
30
0
10
103.93349397927523
20
55.97749075293541
30
0
0
SPLINE
5
960
100
AcDbEntity
8
0
100
AcDbSpline
70
0
71
2
72
6
73
3
74
0
42
0.000000001
43
0.0000000001
44
0.0000000001
40
0
40
0
40
0
40
1
40
1
40
1
10
103.93349397927523
20
55.97749075293541
30
0
10
103.93349397927523
20
56.110505670309067
30
0
10
103.9940332248807
20
56.220498889684677
30
0
0
SPLINE
5
961
100
AcDbEntity
8
0
100
AcDbSpline
70
0
71
2
72
6
73
3
74
0
42
0.000000001
43
0.0000000001
44
0.0000000001
40
0
40
0
40
0
40
1
40
1
40
1
10
103.9940332248807
20
56.220498889684677
30
0
10
104.05457127839327
20
56.330492109060287
30
0
10
104.15262807160616
20
56.396999567747116
30
0
0
SPLINE
5
962
100
AcDbEntity
8
0
100
AcDbSpline
70
0
71
2
72
6
73
3
74
0
42
0.000000001
43
0.0000000001
44
0.0000000001
40
0
40
0
40
0
40
1
40
1
40
1
10
104.15262807160616
20
56.396999567747116
30
0
10
104.25068367272615
20
56.463507026433945
30
0
10
104.37346685677767
20
56.497613400220871
30
0
0
SPLINE
5
963
100
AcDbEntity
8
0
100
AcDbSpline
70
0
71
2
72
6
73
3
74
0
42
0.000000001
43
0.0000000001
44
0.0000000001
40
0
40
0
40
0
40
1
40
1
40
1
10
104.37346685677767
20
56.497613400220871
30
0
10
104.46384895592928
20
56.521488040685654
30
0
10
104.64631784707308
20
56.543657094240189
30
0
0
SPLINE
5
964
100
AcDbEntity
8
0
100
AcDbSpline
70
0
71
2
72
6
73
3
74
0
42
0.000000001
43
0.0000000001
44
0.0000000001
40
0
40
0
40
0
40
1
40
1
40
1
10
104.64631784707308
20
56.543657094240189
30
0
10
105.01807797700167
20
56.587995499372482
30
0
10
105.19372571259737
20
56.649387091398239
30
0
0
SPLINE
5
965
100
AcDbEntity
8
0
100
AcDbSpline
70
0
71
2
72
6
73
3
74
0
42
0.000000001
43
0.0000000001
44
0.0000000001
40
0
40
0
40
0
40
1
40
1
40
1
10
105.19372571259737
20
56.649387091398239
30
0
10
105.19543159753084
20
56.712483823299408
30
0
10
105.19543159753084
20
56.729537159204483
30
0
0
SPLINE
5
966
100
AcDbEntity
8
0
100
AcDbSpline
70
0
71
2
72
6
73
3
74
0
42
0.000000001
43
0.0000000001
44
0.0000000001
40
0
40
0
40
0
40
1
40
1
40
1
10
105.19543159753084
20
56.729537159204483
30
0
10
105.19543159753084
20
56.917122364044189
30
0
10
105.10846007615328
20
56.993861854076385
30
0
0
SPLINE
5
967
100
AcDbEntity
8
0
100
AcDbSpline
70
0
71
2
72
6
73
3
74
0
42
0.000000001
43
0.0000000001
44
0.0000000001
40
0
40
0
40
0
40
1
40
1
40
1
10
105.10846007615328
20
56.993861854076385
30
0
10
104.99079216271639
20
57.0978864133358
30
0
10
104.75886929780245
20
57.0978864133358
30
0
0
SPLINE
5
968
100
AcDbEntity
8
0
100
AcDbSpline
70
0
71
2
72
6
73
3
74
0
42
0.000000001
43
0.0000000001
44
0.0000000001
40
0
40
0
40
0
40
1
40
1
40
1
10
104.75886929780245
20
57.0978864133358
30
0
10
104.54229343682528
20
57.0978864133358
30
0
10
104.43912137299776
20
57.021999567747116
30
0
0
SPLINE
5
969
100
AcDbEntity
8
0
100
AcDbSpline
70
0
71
2
72
6
73
3
74
0
42
0.000000001
43
0.0000000001
44
0.0000000001
40
0
40
0
40
0
40
1
40
1
40
1
10
104.43912137299776
20
57.021999567747116
30
0
10
104.33594930917025
20
56.946112871170044
30
0
10
104.2864953354001
20
56.753411650657654
30
0
0
LINE
5
970
100
AcDbEntity
8
0
100
AcDbLine
10
104.28649533540012
20
56.753411650657654
30
0
11
103.98635853081942
21
56.794339329004288
31
0
0
SPLINE
5
971
100
AcDbEntity
8
0
100
AcDbSpline
70
0
71
2
72
6
73
3
74
0
42
0.000000001
43
0.0000000001
44
0.0000000001
40
0
40
0
40
0
40
1
40
1
40
1
10
103.98635853081942
20
56.794339329004288
30
0
10
104.02728665620089
20
56.987040549516678
30
0
10
104.12107933312654
20
57.10556036233902
30
0
0
SPLINE
5
972
100
AcDbEntity
8
0
100
AcDbSpline
70
0
71
2
72
6
73
3
74
0
42
0.000000001
43
0.0000000001
44
0.0000000001
40
0
40
0
40
0
40
1
40
1
40
1
10
104.12107933312654
20
57.10556036233902
30
0
10
104.2148720100522
20
57.22408002614975
30
0
10
104.39222563058138
20
57.288029551506042
30
0
0
SPLINE
5
973
100
AcDbEntity
8
0
100
AcDbSpline
70
0
71
2
72
6
73
3
74
0
42
0.000000001
43
0.0000000001
44
0.0000000001
40
0
40
0
40
0
40
1
40
1
40
1
10
104.39222563058138
20
57.288029551506042
30
0
10
104.56957805901766
20
57.351979076862335
30
0
10
104.80320800095797
20
57.351979076862335
30
0
0
SPLINE
5
974
100
AcDbEntity
8
0
100
AcDbSpline
70
0
71
2
72
6
73
3
74
0
42
0.000000001
43
0.0000000001
44
0.0000000001
40
0
40
0
40
0
40
1
40
1
40
1
10
104.80320800095797
20
57.351979076862335
30
0
10
105.03513086587191
20
57.351979076862335
30
0
10
105.18008340150118
20
57.297408789396286
30
0
0
SPLINE
5
975
100
AcDbEntity
8
0
100
AcDbSpline
70
0
71
2
72
6
73
3
74
0
42
0.000000001
43
0.0000000001
44
0.0000000001
40
0
40
0
40
0
40
1
40
1
40
1
10
105.18008340150118
20
57.297408789396286
30
0
10
105.32503593713045
20
57.242838650941849
30
0
10
105.3932486847043
20
57.160130500793457
30
0
0
SPLINE
5
976
100
AcDbEntity
8
0
100
AcDbSpline
70
0
71
2
72
6
73
3
74
0
42
0.000000001
43
0.0000000001
44
0.0000000001
40
0
40
0
40
0
40
1
40
1
40
1
10
105.3932486847043
20
57.160130500793457
30
0
10
105.46146143227816
20
57.077422499656677
30
0
10
105.48874605447054
20
56.951228737831116
30
0
0
SPLINE
5
977
100
AcDbEntity
8
0
100
AcDbSpline
70
0
71
2
72
6
73
3
74
0
42
0.000000001
43
0.0000000001
44
0.0000000001
40
0
40
0
40
0
40
1
40
1
40
1
10
105.48874605447054
20
56.951228737831116
30
0
10
105.5040942505002
20
56.872783958911896
30
0
10
105.5040942505002
20
56.668145567178726
30
0
0
LINE
5
978
100
AcDbEntity
8
0
100
AcDbLine
10
105.5040942505002
20
56.668145567178726
30
0
11
105.5040942505002
21
56.258868634700775
31
0
0
SPLINE
5
979
100
AcDbEntity
8
0
100
AcDbSpline
70
0
71
2
72
6
73
3
74
0
42
0.000000001
43
0.0000000001
44
0.0000000001
40
0
40
0
40
0
40
1
40
1
40
1
10
105.5040942505002
20
56.258868634700775
30
0
10
105.5040942505002
20
55.830833226442337
30
0
10
105.5237053707242
20
55.717429429292679
30
0
0
SPLINE
5
980
100
AcDbEntity
8
0
100
AcDbSpline
70
0
71
2
72
6
73
3
74
0
42
0.000000001
43
0.0000000001
44
0.0000000001
40
0
40
0
40
0
40
1
40
1
40
1
10
105.5237053707242
20
55.717429429292679
30
0
10
105.5433164909482
20
55.604025632143021
30
0
10
105.60129750519991
20
55.500000923871994
30
0
0
LINE
5
981
100
AcDbEntity
8
0
100
AcDbLine
10
105.60129750519991
20
55.50000092387198
30
0
11
105.28069723397493
21
55.500000923871994
31
0
0
SPLINE
5
982
100
AcDbEntity
8
0
100
AcDbSpline
70
0
71
2
72
6
73
3
74
0
42
0.000000001
43
0.0000000001
44
0.0000000001
40
0
40
0
40
0
40
1
40
1
40
1
10
105.28069723397493
20
55.500000923871994
30
0
10
105.23294795304537
20
55.595498889684677
30
0
10
105.21930564194918
20
55.723397940397263
30
0
0
SPLINE
5
983
100
AcDbEntity
8
0
100
AcDbSpline
70
0
71
2
72
6
73
3
74
0
42
0.000000001
43
0.0000000001
44
0.0000000001
40
0
40
0
40
0
40
1
40
1
40
1
10
105.19372571259737
20
56.408936887979507
30
0
10
105.02660501748323
20
56.340723991394043
30
0
10
104.69236124306917
20
56.292975008487701
30
0
0
SPLINE
5
984
100
AcDbEntity
8
0
100
AcDbSpline
70
0
71
2
72
6
73
3
74
0
42
0.000000001
43
0.0000000001
44
0.0000000001
40
0
40
0
40
0
40
1
40
1
40
1
10
104.69236124306917
20
56.292975008487701
30
0
10
104.50307119637728
20
56.265689939260483
30
0
10
104.42462671548128
20
56.231583565473557
30
0
0
SPLINE
5
985
100
AcDbEntity
8
0
100
AcDbSpline
70
0
71
2
72
6
73
3
74
0
42
0.000000001
43
0.0000000001
44
0.0000000001
40
0
40
0
40
0
40
1
40
1
40
1
10
104.42462671548128
20
56.231583565473557
30
0
10
104.34618104249239
20
56.197477042675018
30
0
10
104.30354822427034
20
56.131822377443314
30
0
0
SPLINE
5
986
100
AcDbEntity
8
0
100
AcDbSpline
70
0
71
2
72
6
73
3
74
0
42
0.000000001
43
0.0000000001
44
0.0000000001
40
0
40
0
40
0
40
1
40
1
40
1
10
104.30354822427034
20
56.131822377443314
30
0
10
104.2609154060483
20
56.066167265176773
30
0
10
104.2609154060483
20
55.986017197370529
30
0
0
SPLINE
5
987
100
AcDbEntity
8
0
100
AcDbSpline
70
0
71
2
72
6
73
3
74
0
42
0.000000001
43
0.0000000001
44
0.0000000001
40
0
40
0
40
0
40
1
40
1
40
1
10
104.2609154060483
20
55.986017197370529
30
0
10
104.2609154060483
20
55.863234311342239
30
0
10
104.35385573655367
20
55.781378954648972
30
0
0
SPLINE
5
988
100
AcDbEntity
8
0
100
AcDbSpline
70
0
71
2
72
6
73
3
74
0
42
0.000000001
43
0.0000000001
44
0.0000000001
40
0
40
0
40
0
40
1
40
1
40
1
10
104.35385573655367
20
55.781378954648972
30
0
10
104.44679487496614
20
55.69952329993248
30
0
10
104.62585438042879
20
55.69952329993248
30
0
0
SPLINE
5
989
100
AcDbEntity
8
0
100
AcDbSpline
70
0
71
2
72
6
73
3
74
0
42
0.000000001
43
0.0000000001
44
0.0000000001
40
0
40
0
40
0
40
1
40
1
40
1
10
104.62585438042879
20
55.69952329993248
30
0
10
104.80320800095797
20
55.69952329993248
30
0
10
104.94133818894625
20
55.777115434408188
30
0
0
SPLINE
5
990
100
AcDbEntity
8
0
100
AcDbSpline
70
0
71
2
72
6
73
3
74
0
42
0.000000001
43
0.0000000001
44
0.0000000001
40
0
40
0
40
0
40
1
40
1
40
1
10
104.94133818894625
20
55.777115434408188
30
0
10
105.07946956902742
20
55.854707568883896
30
0
10
105.14427173882723
20
55.989428073167801
30
0
0
SPLINE
5
991
100
AcDbEntity
8
0
100
AcDbSpline
70
0
71
2
72
6
73
3
74
0
42
0.000000001
43
0.0000000001
44
0.0000000001
40
0
40
0
40
0
40
1
40
1
40
1
10
105.14427173882723
20
55.989428073167801
30
0
10
105.19372571259737
20
56.093452483415604
30
0
10
105.19372571259737
20
56.296385735273361
30
0
0
LINE
5
992
100
AcDbEntity
8
0
100
AcDbLine
10
105.19372571259737
20
56.296385735273361
30
0
11
105.19372571259737
21
56.408936887979507
31
0
0
LINE
5
993
100
AcDbEntity
8
0
100
AcDbLine
10
107.15484488755465
20
55.500000923871994
30
0
11
107.15484488755465
21
55.728513807058334
31
0
0
SPLINE
5
994
100
AcDbEntity
8
0
100
AcDbSpline
70
0
71
2
72
6
73
3
74
0
42
0.000000001
43
0.0000000001
44
0.0000000001
40
0
40
0
40
0
40
1
40
1
40
1
10
107.15484488755465
20
55.728513807058334
30
0
10
106.98260772973299
20
55.459073096513748
30
0
10
106.64836514741182
20
55.459073096513748
30
0
0
SPLINE
5
995
100
AcDbEntity
8
0
100
AcDbSpline
70
0
71
2
72
6
73
3
74
0
42
0.000000001
43
0.0000000001
44
0.0000000001
40
0
40
0
40
0
40
1
40
1
40
1
10
106.64836514741182
20
55.459073096513748
30
0
10
106.43178928643465
20
55.459073096513748
30
0
10
106.25017274171114
20
55.578445702791214
30
0
0
SPLINE
5
996
100
AcDbEntity
8
0
100
AcDbSpline
70
0
71
2
72
6
73
3
74
0
42
0.000000001
43
0.0000000001
44
0.0000000001
40
0
40
0
40
0
40
1
40
1
40
1
10
106.25017274171114
20
55.578445702791214
30
0
10
106.06855619698763
20
55.697818011045456
30
0
10
105.96879471093416
20
55.911835938692093
30
0
0
SPLINE
5
997
100
AcDbEntity
8
0
100
AcDbSpline
70
0
71
2
72
6
73
3
74
0
42
0.000000001
43
0.0000000001
44
0.0000000001
40
0
40
0
40
0
40
1
40
1
40
1
10
105.96879471093416
20
55.911835938692093
30
0
10
105.8690332248807
20
56.125853568315506
30
0
10
105.8690332248807
20
56.403821021318436
30
0
0
SPLINE
5
998
100
AcDbEntity
8
0
100
AcDbSpline
70
0
71
2
72
6
73
3
74
0
42
0.000000001
43
0.0000000001
44
0.0000000001
40
0
40
0
40
0
40
1
40
1
40
1
10
105.8690332248807
20
56.403821021318436
30
0
10
105.8690332248807
20
56.674967020750046
30
0
10
105.95941532403231
20
56.895805954933167
30
0
0
SPLINE
5
999
100
AcDbEntity
8
0
100
AcDbSpline
70
0
71
2
72
6
73
3
74
0
42
0.000000001
43
0.0000000001
44
0.0000000001
40
0
40
0
40
0
40
1
40
1
40
1
10
105.95941532403231
20
56.895805954933167
30
0
10
106.04979742318392
20
57.116645038127899
30
0
10
106.23056162148714
20
57.234312206506729
30
0
0
SPLINE
5
1000
100
AcDbEntity
8
0
100
AcDbSpline
70
0
71
2
72
6
73
3
74
0
42
0.000000001
43
0.0000000001
44
0.0000000001
40
0
40
0
40
0
40
1
40
1
40
1
10
106.23056162148714
20
57.234312206506729
30
0
10
106.41132462769747
20
57.351979225873947
30
0
10
106.63472164422274
20
57.351979225873947
30
0
0
SPLINE
5
1001
100
AcDbEntity
8
0
100
AcDbSpline
70
0
71
2
72
6
73
3
74
0
42
0.000000001
43
0.0000000001
44
0.0000000001
40
0
40
0
40
0
40
1
40
1
40
1
10
106.63472164422274
20
57.351979225873947
30
0
10
106.79843295365572
20
57.351979225873947
30
0
10
106.92633140832186
20
57.282913833856583
30
0
0
SPLINE
5
1002
100
AcDbEntity
8
0
100
AcDbSpline
70
0
71
2
72
6
73
3
74
0
42
0.000000001
43
0.0000000001
44
0.0000000001
40
0
40
0
40
0
40
1
40
1
40
1
10
106.92633140832186
20
57.282913833856583
30
0
10
107.05423105508089
20
57.213848292827606
30
0
10
107.13438142091036
20
57.103002429008484
30
0
0
LINE
5
1003
100
AcDbEntity
8
0
100
AcDbLine
10
107.13438142091036
20
57.103002429008484
30
0
11
107.13438142091036
21
58.000000923871994
31
0
0
LINE
5
1004
100
AcDbEntity
8
0
100
AcDbLine
10
107.13438142091036
20
58.000000923871994
30
0
11
107.43963349610567
21
58.000000923871994
31
0
0
LINE
5
1005
100
AcDbEntity
8
0
100
AcDbLine
10
107.43963349610567
20
58.000000923871994
30
0
11
107.43963349610567
21
55.500000923871994
31
0
0
LINE
5
1006
100
AcDbEntity
8
0
100
AcDbLine
10
107.43963349610567
20
55.500000923871994
30
0
11
107.15484488755465
21
55.500000923871994
31
0
0
SPLINE
5
1007
100
AcDbEntity
8
0
100
AcDbSpline
70
0
71
2
72
6
73
3
74
0
42
0.000000001
43
0.0000000001
44
0.0000000001
40
0
40
0
40
0
40
1
40
1
40
1
10
106.18451703339815
20
56.403821021318436
30
0
10
106.18451703339815
20
56.05593553185463
30
0
10
106.3311754539609
20
55.88369807600975
30
0
0
SPLINE
5
1008
100
AcDbEntity
8
0
100
AcDbSpline
70
0
71
2
72
6
73
3
74
0
42
0.000000001
43
0.0000000001
44
0.0000000001
40
0
40
0
40
0
40
1
40
1
40
1
10
106.3311754539609
20
55.88369807600975
30
0
10
106.47783268243074
20
55.711460620164871
30
0
10
106.67735565453768
20
55.711460620164871
30
0
0
SPLINE
5
1009
100
AcDbEntity
8
0
100
AcDbSpline
70
0
71
2
72
6
73
3
74
0
42
0.000000001
43
0.0000000001
44
0.0000000001
40
0
40
0
40
0
40
1
40
1
40
1
10
106.67735565453768
20
55.711460620164871
30
0
10
106.87858331948519
20
55.711460620164871
30
0
10
107.01927173882723
20
55.876024276018143
30
0
0
SPLINE
5
1010
100
AcDbEntity
8
0
100
AcDbSpline
70
0
71
2
72
6
73
3
74
0
42
0.000000001
43
0.0000000001
44
0.0000000001
40
0
40
0
40
0
40
1
40
1
40
1
10
107.01927173882723
20
55.876024276018143
30
0
10
107.15996135026217
20
56.04058763384819
30
0
10
107.15996135026217
20
56.378241091966629
30
0
0
SPLINE
5
1011
100
AcDbEntity
8
0
100
AcDbSpline
70
0
71
2
72
6
73
3
74
0
42
0.000000001
43
0.0000000001
44
0.0000000001
40
0
40
0
40
0
40
1
40
1
40
1
10
107.15996135026217
20
56.378241091966629
30
0
10
107.15996135026217
20
56.750001072883606
30
0
10
107.01671350747347
20
56.923943817615509
30
0
0
SPLINE
5
1012
100
AcDbEntity
8
0
100
AcDbSpline
70
0
71
2
72
6
73
3
74
0
42
0.000000001
43
0.0000000001
44
0.0000000001
40
0
40
0
40
0
40
1
40
1
40
1
10
107.01671350747347
20
56.923943817615509
30
0
10
106.87346685677767
20
57.097886562347412
30
0
10
106.66371215134859
20
57.097886562347412
30
0
0
SPLINE
5
1013
100
AcDbEntity
8
0
100
AcDbSpline
70
0
71
2
72
6
73
3
74
0
42
0.000000001
43
0.0000000001
44
0.0000000001
40
0
40
0
40
0
40
1
40
1
40
1
10
106.66371215134859
20
57.097886562347412
30
0
10
106.45907390862703
20
57.097886562347412
30
0
10
106.32179606705904
20
56.930765122175217
30
0
0
SPLINE
5
1014
100
AcDbEntity
8
0
100
AcDbSpline
70
0
71
2
72
6
73
3
74
0
42
0.000000001
43
0.0000000001
44
0.0000000001
40
0
40
0
40
0
40
1
40
1
40
1
10
106.32179606705904
20
56.930765122175217
30
0
10
106.18451703339815
20
56.763643682003021
30
0
10
106.18451703339815
20
56.403821021318436
30
0
0
LINE
5
1015
100
AcDbEntity
8
0
100
AcDbLine
10
109.16200626641512
20
56.08322075009346
30
0
11
109.47919595986605
21
56.043998211622238
31
0
0
SPLINE
5
1016
100
AcDbEntity
8
0
100
AcDbSpline
70
0
71
2
72
6
73
3
74
0
42
0.000000001
43
0.0000000001
44
0.0000000001
40
0
40
0
40
0
40
1
40
1
40
1
10
109.47919595986605
20
56.043998211622238
30
0
10
109.4041620567441
20
55.766031056642532
30
0
10
109.20122850686312
20
55.61255207657814
30
0
0
SPLINE
5
1017
100
AcDbEntity
8
0
100
AcDbSpline
70
0
71
2
72
6
73
3
74
0
42
0.000000001
43
0.0000000001
44
0.0000000001
40
0
40
0
40
0
40
1
40
1
40
1
10
109.20122850686312
20
55.61255207657814
30
0
10
108.99829614907503
20
55.459073096513748
30
0
10
108.68281114846468
20
55.459073096513748
30
0
0
SPLINE
5
1018
100
AcDbEntity
8
0
100
AcDbSpline
70
0
71
2
72
6
73
3
74
0
42
0.000000001
43
0.0000000001
44
0.0000000001
40
0
40
0
40
0
40
1
40
1
40
1
10
108.68281114846468
20
55.459073096513748
30
0
10
108.28547228127718
20
55.459073096513748
30
0
10
108.05269587785006
20
55.703786820173264
30
0
0
SPLINE
5
1019
100
AcDbEntity
8
0
100
AcDbSpline
70
0
71
2
72
6
73
3
74
0
42
0.000000001
43
0.0000000001
44
0.0000000001
40
0
40
0
40
0
40
1
40
1
40
1
10
108.05269587785006
20
55.703786820173264
30
0
10
107.81991947442293
20
55.948500245809555
30
0
10
107.81991947442293
20
56.390178263187408
30
0
0
SPLINE
5
1020
100
AcDbEntity
8
0
100
AcDbSpline
70
0
71
2
72
6
73
3
74
0
42
0.000000001
43
0.0000000001
44
0.0000000001
40
0
40
0
40
0
40
1
40
1
40
1
10
107.81991947442293
20
56.390178263187408
30
0
10
107.81991947442293
20
56.847204178571701
30
0
10
108.05525410920382
20
57.099591702222824
30
0
0
SPLINE
5
1021
100
AcDbEntity
8
0
100
AcDbSpline
70
0
71
2
72
6
73
3
74
0
42
0.000000001
43
0.0000000001
44
0.0000000001
40
0
40
0
40
0
40
1
40
1
40
1
10
108.05525410920382
20
57.099591702222824
30
0
10
108.2905875518918
20
57.351979076862335
30
0
10
108.66575825959444
20
57.351979076862335
30
0
0
SPLINE
5
1022
100
AcDbEntity
8
0
100
AcDbSpline
70
0
71
2
72
6
73
3
74
0
42
0.000000001
43
0.0000000001
44
0.0000000001
40
0
40
0
40
0
40
1
40
1
40
1
10
108.66575825959444
20
57.351979076862335
30
0
10
109.02899134904146
20
57.351979076862335
30
0
10
109.25920952111483
20
57.104707568883896
30
0
0
SPLINE
5
1023
100
AcDbEntity
8
0
100
AcDbSpline
70
0
71
2
72
6
73
3
74
0
42
0.000000001
43
0.0000000001
44
0.0000000001
40
0
40
0
40
0
40
1
40
1
40
1
10
109.25920952111483
20
57.104707568883896
30
0
10
109.48942888528109
20
56.857436209917068
30
0
10
109.48942888528109
20
56.408936887979507
30
0
0
SPLINE
5
1024
100
AcDbEntity
8
0
100
AcDbSpline
70
0
71
2
72
6
73
3
74
0
42
0.000000001
43
0.0000000001
44
0.0000000001
40
0
40
0
40
0
40
1
40
1
40
1
10
109.48942888528109
20
56.408936887979507
30
0
10
109.48942888528109
20
56.381651669740677
30
0
10
109.48772300034761
20
56.32708153128624
30
0
0
LINE
5
1025
100
AcDbEntity
8
0
100
AcDbLine
10
109.48772300034761
20
56.32708153128624
30
0
11
108.13710916787386
21
56.32708153128624
31
0
0
SPLINE
5
1026
100
AcDbEntity
8
0
100
AcDbSpline
70
0
71
2
72
6
73
3
74
0
42
0.000000001
43
0.0000000001
44
0.0000000001
40
0
40
0
40
0
40
1
40
1
40
1
10
108.13710916787386
20
56.32708153128624
30
0
10
108.1541620567441
20
56.028650313615799
30
0
10
108.30593574792147
20
55.870055466890335
30
0
0
SPLINE
5
1027
100
AcDbEntity
8
0
100
AcDbSpline
70
0
71
2
72
6
73
3
74
0
42
0.000000001
43
0.0000000001
44
0.0000000001
40
0
40
0
40
0
40
1
40
1
40
1
10
108.30593574792147
20
55.870055466890335
30
0
10
108.45770943909883
20
55.711460620164871
30
0
10
108.68451703339815
20
55.711460620164871
30
0
0
SPLINE
5
1028
100
AcDbEntity
8
0
100
AcDbSpline
70
0
71
2
72
6
73
3
74
0
42
0.000000001
43
0.0000000001
44
0.0000000001
40
0
40
0
40
0
40
1
40
1
40
1
10
108.68451703339815
20
55.711460620164871
30
0
10
108.85334361344576
20
55.711460620164871
30
0
10
108.97271621972322
20
55.800137430429459
30
0
0
SPLINE
5
1029
100
AcDbEntity
8
0
100
AcDbSpline
70
0
71
2
72
6
73
3
74
0
42
0.000000001
43
0.0000000001
44
0.0000000001
40
0
40
0
40
0
40
1
40
1
40
1
10
108.97271621972322
20
55.800137430429459
30
0
10
109.09208882600069
20
55.888813942670822
30
0
10
109.16200626641512
20
56.08322075009346
30
0
0
LINE
5
1030
100
AcDbEntity
8
0
100
AcDbLine
10
108.1541620567441
20
56.579468905925751
30
0
11
109.16541803628206
21
56.579468905925751
31
0
0
SPLINE
5
1031
100
AcDbEntity
8
0
100
AcDbSpline
70
0
71
2
72
6
73
3
74
0
42
0.000000001
43
0.0000000001
44
0.0000000001
40
0
40
0
40
0
40
1
40
1
40
1
10
109.16541803628206
20
56.579468905925751
30
0
10
109.14495337754488
20
56.807981789112091
30
0
10
109.04945600777864
20
56.922238379716873
30
0
0
SPLINE
5
1032
100
AcDbEntity
8
0
100
AcDbSpline
70
0
71
2
72
6
73
3
74
0
42
0.000000001
43
0.0000000001
44
0.0000000001
40
0
40
0
40
0
40
1
40
1
40
1
10
109.04945600777864
20
56.922238379716873
30
0
10
108.9027975872159
20
57.099591702222824
30
0
10
108.66916883736849
20
57.099591702222824
30
0
0
SPLINE
5
1033
100
AcDbEntity
8
0
100
AcDbSpline
70
0
71
2
72
6
73
3
74
0
42
0.000000001
43
0.0000000001
44
0.0000000001
40
0
40
0
40
0
40
1
40
1
40
1
10
108.66916883736849
20
57.099591702222824
30
0
10
108.45770943909883
20
57.099591702222824
30
0
10
108.31360924988985
20
56.958050042390823
30
0
0
SPLINE
5
1034
100
AcDbEntity
8
0
100
AcDbSpline
70
0
71
2
72
6
73
3
74
0
42
0.000000001
43
0.0000000001
44
0.0000000001
40
0
40
0
40
0
40
1
40
1
40
1
10
108.31360924988985
20
56.958050042390823
30
0
10
108.16951025277376
20
56.816508382558823
30
0
10
108.1541620567441
20
56.579468905925751
30
0
0
LINE
5
1035
100
AcDbEntity
8
0
100
AcDbLine
10
109.86459840089083
20
55.500000923871994
30
0
11
109.86459840089083
21
57.311051398515701
31
0
0
LINE
5
1036
100
AcDbEntity
8
0
100
AcDbLine
10
109.86459840089083
20
57.311051398515701
30
0
11
110.13915527611971
21
57.311051398515701
31
0
0
LINE
5
1037
100
AcDbEntity
8
0
100
AcDbLine
10
110.13915527611971
20
57.311051398515701
30
0
11
110.13915527611971
21
57.056958585977554
31
0
0
SPLINE
5
1038
100
AcDbEntity
8
0
100
AcDbSpline
70
0
71
2
72
6
73
3
74
0
42
0.000000001
43
0.0000000001
44
0.0000000001
40
0
40
0
40
0
40
1
40
1
40
1
10
110.13915527611971
20
57.056958585977554
30
0
10
110.2244209125638
20
57.189973652362823
30
0
10
110.36596287041903
20
57.270976364612579
30
0
0
SPLINE
5
1039
100
AcDbEntity
8
0
100
AcDbSpline
70
0
71
2
72
6
73
3
74
0
42
0.000000001
43
0.0000000001
44
0.0000000001
40
0
40
0
40
0
40
1
40
1
40
1
10
110.36596287041903
20
57.270976364612579
30
0
10
110.50750482827425
20
57.351979076862335
30
0
10
110.68826783448458
20
57.351979076862335
30
0
0
SPLINE
5
1040
100
AcDbEntity
8
0
100
AcDbSpline
70
0
71
2
72
6
73
3
74
0
42
0.000000001
43
0.0000000001
44
0.0000000001
40
0
40
0
40
0
40
1
40
1
40
1
10
110.68826783448458
20
57.351979076862335
30
0
10
110.88949669152498
20
57.351979076862335
30
0
10
111.01824749261141
20
57.268418431282043
30
0
0
SPLINE
5
1041
100
AcDbEntity
8
0
100
AcDbSpline
70
0
71
2
72
6
73
3
74
0
42
0.000000001
43
0.0000000001
44
0.0000000001
40
0
40
0
40
0
40
1
40
1
40
1
10
111.01824749261141
20
57.268418431282043
30
0
10
111.14699948579073
20
57.18485763669014
30
0
10
111.19986403733492
20
57.034789532423019
30
0
0
SPLINE
5
1042
100
AcDbEntity
8
0
100
AcDbSpline
70
0
71
2
72
6
73
3
74
0
42
0.000000001
43
0.0000000001
44
0.0000000001
40
0
40
0
40
0
40
1
40
1
40
1
10
111.19986403733492
20
57.034789532423019
30
0
10
111.41473520547152
20
57.351979076862335
30
0
10
111.75920952111483
20
57.351979076862335
30
0
0
SPLINE
5
1043
100
AcDbEntity
8
0
100
AcDbSpline
70
0
71
2
72
6
73
3
74
0
42
0.000000001
43
0.0000000001
44
0.0000000001
40
0
40
0
40
0
40
1
40
1
40
1
10
111.75920952111483
20
57.351979076862335
30
0
10
112.02864993363619
20
57.351979076862335
30
0
10
112.17360246926546
20
57.202763617038727
30
0
0
SPLINE
5
1044
100
AcDbEntity
8
0
100
AcDbSpline
70
0
71
2
72
6
73
3
74
0
42
0.000000001
43
0.0000000001
44
0.0000000001
40
0
40
0
40
0
40
1
40
1
40
1
10
112.17360246926546
20
57.202763617038727
30
0
10
112.31855500489473
20
57.053548008203506
30
0
10
112.31855500489473
20
56.743179619312286
30
0
0
LINE
5
1045
100
AcDbEntity
8
0
100
AcDbLine
10
112.31855500489473
20
56.743179619312293
30
0
11
112.31855500489473
21
55.500000923871994
31
0
0
LINE
5
1046
100
AcDbEntity
8
0
100
AcDbLine
10
112.31855500489473
20
55.500000923871994
30
0
11
112.01330173760653
21
55.500000923871994
31
0
0
LINE
5
1047
100
AcDbEntity
8
0
100
AcDbLine
10
112.01330173760653
20
55.500000923871994
30
0
11
112.01330173760653
21
56.640860348939896
31
0
0
SPLINE
5
1048
100
AcDbEntity
8
0
100
AcDbSpline
70
0
71
2
72
6
73
3
74
0
42
0.000000001
43
0.0000000001
44
0.0000000001
40
0
40
0
40
0
40
1
40
1
40
1
10
112.01330173760653
20
56.640860348939896
30
0
10
112.01330173760653
20
56.825034976005554
30
0
10
111.98345888406038
20
56.906037837266922
30
0
0
SPLINE
5
1049
100
AcDbEntity
8
0
100
AcDbSpline
70
0
71
2
72
6
73
3
74
0
42
0.000000001
43
0.0000000001
44
0.0000000001
40
0
40
0
40
0
40
1
40
1
40
1
10
111.98345888406038
20
56.906037837266922
30
0
10
111.95361603051424
20
56.987040549516678
30
0
10
111.87517154961824
20
57.036494821310043
30
0
0
SPLINE
5
1050
100
AcDbEntity
8
0
100
AcDbSpline
70
0
71
2
72
6
73
3
74
0
42
0.000000001
43
0.0000000001
44
0.0000000001
40
0
40
0
40
0
40
1
40
1
40
1
10
111.87517154961824
20
57.036494821310043
30
0
10
111.79672706872225
20
57.085949093103409
30
0
10
111.69099677354097
20
57.085949093103409
30
0
0
SPLINE
5
1051
100
AcDbEntity
8
0
100
AcDbSpline
70
0
71
2
72
6
73
3
74
0
42
0.000000001
43
0.0000000001
44
0.0000000001
40
0
40
0
40
0
40
1
40
1
40
1
10
111.69099677354097
20
57.085949093103409
30
0
10
111.50000084191561
20
57.085949093103409
30
0
10
111.37380708009005
20
56.958902686834335
30
0
0
SPLINE
5
1052
100
AcDbEntity
8
0
100
AcDbSpline
70
0
71
2
72
6
73
3
74
0
42
0.000000001
43
0.0000000001
44
0.0000000001
40
0
40
0
40
0
40
1
40
1
40
1
10
111.37380708009005
20
56.958902686834335
30
0
10
111.24761331826448
20
56.831856280565262
30
0
10
111.24761331826448
20
56.552183836698532
30
0
0
LINE
5
1053
100
AcDbEntity
8
0
100
AcDbLine
10
111.24761331826448
20
56.552183836698539
30
0
11
111.24761331826448
21
55.500000923871994
31
0
0
LINE
5
1054
100
AcDbEntity
8
0
100
AcDbLine
10
111.24761331826448
20
55.500000923871994
30
0
11
110.9406553581357
21
55.500000923871994
31
0
0
LINE
5
1055
100
AcDbEntity
8
0
100
AcDbLine
10
110.9406553581357
20
55.500000923871994
30
0
11
110.9406553581357
21
56.676672160625458
31
0
0
SPLINE
5
1056
100
AcDbEntity
8
0
100
AcDbSpline
70
0
71
2
72
6
73
3
74
0
42
0.000000001
43
0.0000000001
44
0.0000000001
40
0
40
0
40
0
40
1
40
1
40
1
10
110.9406553581357
20
56.676672160625458
30
0
10
110.9406553581357
20
56.881310552358627
30
0
10
110.86562145501375
20
56.983629822731018
30
0
0
SPLINE
5
1057
100
AcDbEntity
8
0
100
AcDbSpline
70
0
71
2
72
6
73
3
74
0
42
0.000000001
43
0.0000000001
44
0.0000000001
40
0
40
0
40
0
40
1
40
1
40
1
10
110.86562145501375
20
56.983629822731018
30
0
10
110.7905875518918
20
57.085949093103409
30
0
10
110.62005508691072
20
57.085949093103409
30
0
0
SPLINE
5
1058
100
AcDbEntity
8
0
100
AcDbSpline
70
0
71
2
72
6
73
3
74
0
42
0.000000001
43
0.0000000001
44
0.0000000001
40
0
40
0
40
0
40
1
40
1
40
1
10
110.62005508691072
20
57.085949093103409
30
0
10
110.49045074731112
20
57.085949093103409
30
0
10
110.3804575279355
20
57.017736196517944
30
0
0
SPLINE
5
1059
100
AcDbEntity
8
0
100
AcDbSpline
70
0
71
2
72
6
73
3
74
0
42
0.000000001
43
0.0000000001
44
0.0000000001
40
0
40
0
40
0
40
1
40
1
40
1
10
110.3804575279355
20
57.017736196517944
30
0
10
110.27046430855989
20
56.949523448944092
30
0
10
110.22101033478975
20
56.818213820457458
30
0
0
SPLINE
5
1060
100
AcDbEntity
8
0
100
AcDbSpline
70
0
71
2
72
6
73
3
74
0
42
0.000000001
43
0.0000000001
44
0.0000000001
40
0
40
0
40
0
40
1
40
1
40
1
10
110.22101033478975
20
56.818213820457458
30
0
10
110.17155636101961
20
56.686904042959213
30
0
10
110.17155636101961
20
56.439632683992386
30
0
0
LINE
5
1061
100
AcDbEntity
8
0
100
AcDbLine
10
110.17155636101961
20
56.439632683992386
30
0
11
110.17155636101961
21
55.500000923871994
31
0
0
LINE
5
1062
100
AcDbEntity
8
0
100
AcDbLine
10
110.17155636101961
20
55.500000923871994
30
0
11
109.86459840089083
21
55.500000923871994
31
0
0
LINE
5
1063
100
AcDbEntity
8
0
100
AcDbLine
10
112.76023376733065
20
54.802524656057358
30
0
11
112.72612679749727
21
55.090723842382431
31
0
0
SPLINE
5
1064
100
AcDbEntity
8
0
100
AcDbSpline
70
0
71
2
72
6
73
3
74
0
42
0.000000001
43
0.0000000001
44
0.0000000001
40
0
40
0
40
0
40
1
40
1
40
1
10
112.72612679749727
20
55.090723842382431
30
0
10
112.82674062997103
20
55.063438922166824
30
0
10
112.90177453309298
20
55.063438922166824
30
0
0
SPLINE
5
1065
100
AcDbEntity
8
0
100
AcDbSpline
70
0
71
2
72
6
73
3
74
0
42
0.000000001
43
0.0000000001
44
0.0000000001
40
0
40
0
40
0
40
1
40
1
40
1
10
112.90177453309298
20
55.063438922166824
30
0
10
113.0040942505002
20
55.063438922166824
30
0
10
113.06548584252596
20
55.097545295953751
30
0
0
SPLINE
5
1066
100
AcDbEntity
8
0
100
AcDbSpline
70
0
71
2
72
6
73
3
74
0
42
0.000000001
43
0.0000000001
44
0.0000000001
40
0
40
0
40
0
40
1
40
1
40
1
10
113.06548584252596
20
55.097545295953751
30
0
10
113.12687743455172
20
55.131651669740677
30
0
10
113.16609967499971
20
55.193043261766434
30
0
0
SPLINE
5
1067
100
AcDbEntity
8
0
100
AcDbSpline
70
0
71
2
72
6
73
3
74
0
42
0.000000001
43
0.0000000001
44
0.0000000001
40
0
40
0
40
0
40
1
40
1
40
1
10
113.16609967499971
20
55.193043261766434
30
0
10
113.19509018212557
20
55.239086955785751
30
0
10
113.25989235192537
20
55.421556144952774
30
0
0
SPLINE
5
1068
100
AcDbEntity
8
0
100
AcDbSpline
70
0
71
2
72
6
73
3
74
0
42
0.000000001
43
0.0000000001
44
0.0000000001
40
0
40
0
40
0
40
1
40
1
40
1
10
113.25989235192537
20
55.421556144952774
30
0
10
113.26841820031404
20
55.447136074304581
30
0
10
113.28717697411776
20
55.496590346097946
30
0
0
LINE
5
1069
100
AcDbEntity
8
0
100
AcDbLine
10
113.28717697411776
20
55.496590346097946
30
0
11
112.59993303567171
21
57.311051398515701
31
0
0
LINE
5
1070
100
AcDbEntity
8
0
100
AcDbLine
10
112.59993303567171
20
57.311051398515701
30
0
11
112.93076504021883
21
57.311051398515701
31
0
0
LINE
5
1071
100
AcDbEntity
8
0
100
AcDbLine
10
112.93076504021883
20
57.311051398515701
30
0
11
113.30764163285494
21
56.262279212474823
31
0
0
SPLINE
5
1072
100
AcDbEntity
8
0
100
AcDbSpline
70
0
71
2
72
6
73
3
74
0
42
0.000000001
43
0.0000000001
44
0.0000000001
40
0
40
0
40
0
40
1
40
1
40
1
10
113.30764163285494
20
56.262279212474823
30
0
10
113.38096965104342
20
56.062756687402725
30
0
10
113.43895066529512
20
55.842770248651505
30
0
0
SPLINE
5
1073
100
AcDbEntity
8
0
100
AcDbSpline
70
0
71
2
72
6
73
3
74
0
42
0.000000001
43
0.0000000001
44
0.0000000001
40
0
40
0
40
0
40
1
40
1
40
1
10
113.43895066529512
20
55.842770248651505
30
0
10
113.49181521683931
20
56.054230242967606
30
0
10
113.56514442712069
20
56.255457907915115
30
0
0
LINE
5
1074
100
AcDbEntity
8
0
100
AcDbLine
10
113.56514442712069
20
56.255457907915101
30
0
11
113.95225275307894
21
57.311051398515701
31
0
0
LINE
5
1075
100
AcDbEntity
8
0
100
AcDbLine
10
113.95225275307894
20
57.311051398515701
30
0
11
114.25920952111483
21
57.311051398515701
31
0
0
LINE
5
1076
100
AcDbEntity
8
0
100
AcDbLine
10
114.25920952111483
20
57.311051398515701
30
0
11
113.57026088982821
21
55.469305127859116
31
0
0
SPLINE
5
1077
100
AcDbEntity
8
0
100
AcDbSpline
70
0
71
2
72
6
73
3
74
0
42
0.000000001
43
0.0000000001
44
0.0000000001
40
0
40
0
40
0
40
1
40
1
40
1
10
113.57026088982821
20
55.469305127859116
30
0
10
113.45941413193941
20
55.170873910188675
30
0
10
113.39802253991365
20
55.058322757482529
30
0
0
SPLINE
5
1078
100
AcDbEntity
8
0
100
AcDbSpline
70
0
71
2
72
6
73
3
74
0
42
0.000000001
43
0.0000000001
44
0.0000000001
40
0
40
0
40
0
40
1
40
1
40
1
10
113.39802253991365
20
55.058322757482529
30
0
10
113.31616748124361
20
54.906549364328384
30
0
10
113.21043837815523
20
54.835778385400772
30
0
0
SPLINE
5
1079
100
AcDbEntity
8
0
100
AcDbSpline
70
0
71
2
72
6
73
3
74
0
42
0.000000001
43
0.0000000001
44
0.0000000001
40
0
40
0
40
0
40
1
40
1
40
1
10
113.21043837815523
20
54.835778385400772
30
0
10
113.10470808297396
20
54.765007704496384
30
0
10
112.95805085450411
20
54.765007704496384
30
0
0
SPLINE
5
1080
100
AcDbEntity
8
0
100
AcDbSpline
70
0
71
2
72
6
73
3
74
0
42
0.000000001
43
0.0000000001
44
0.0000000001
40
0
40
0
40
0
40
1
40
1
40
1
10
112.95805085450411
20
54.765007704496384
30
0
10
112.86937344819307
20
54.765007704496384
30
0
10
112.76023376733065
20
54.802524656057358
30
0
0
LINE
5
1081
100
AcDbEntity
8
0
100
AcDbLine
10
117.01842058449984
20
55.795021265745163
30
0
11
117.01842058449984
21
55.500000923871994
31
0
0
LINE
5
1082
100
AcDbEntity
8
0
100
AcDbLine
10
117.01842058449984
20
55.500000923871994
30
0
11
115.36596525460482
21
55.500000923871994
31
0
0
SPLINE
5
1083
100
AcDbEntity
8
0
100
AcDbSpline
70
0
71
2
72
6
73
3
74
0
42
0.000000001
43
0.0000000001
44
0.0000000001
40
0
40
0
40
0
40
1
40
1
40
1
10
115.36596525460482
20
55.500000923871994
30
0
10
115.36255348473787
20
55.610846787691116
30
0
10
115.40177572518587
20
55.713165909051895
30
0
0
SPLINE
5
1084
100
AcDbEntity
8
0
100
AcDbSpline
70
0
71
2
72
6
73
3
74
0
42
0.000000001
43
0.0000000001
44
0.0000000001
40
0
40
0
40
0
40
1
40
1
40
1
10
115.40177572518587
20
55.713165909051895
30
0
10
115.4648732021451
20
55.881992787122726
30
0
10
115.60385692864656
20
56.045703500509262
30
0
0
SPLINE
5
1085
100
AcDbEntity
8
0
100
AcDbSpline
70
0
71
2
72
6
73
3
74
0
42
0.000000001
43
0.0000000001
44
0.0000000001
40
0
40
0
40
0
40
1
40
1
40
1
10
115.60385692864656
20
56.045703500509262
30
0
10
115.74284065514803
20
56.209414213895798
30
0
10
116.0054587200284
20
56.424284785985947
30
0
0
SPLINE
5
1086
100
AcDbEntity
8
0
100
AcDbSpline
70
0
71
2
72
6
73
3
74
0
42
0.000000001
43
0.0000000001
44
0.0000000001
40
0
40
0
40
0
40
1
40
1
40
1
10
116.0054587200284
20
56.424284785985947
30
0
10
116.41303051263094
20
56.758527517318726
30
0
10
116.55627716332674
20
56.953786671161652
30
0
0
SPLINE
5
1087
100
AcDbEntity
8
0
100
AcDbSpline
70
0
71
2
72
6
73
3
74
0
42
0.000000001
43
0.0000000001
44
0.0000000001
40
0
40
0
40
0
40
1
40
1
40
1
10
116.55627716332674
20
56.953786671161652
30
0
10
116.69952381402254
20
57.14904597401619
30
0
10
116.69952381402254
20
57.322988718748093
30
0
0
SPLINE
5
1088
100
AcDbEntity
8
0
100
AcDbSpline
70
0
71
2
72
6
73
3
74
0
42
0.000000001
43
0.0000000001
44
0.0000000001
40
0
40
0
40
0
40
1
40
1
40
1
10
116.69952381402254
20
57.322988718748093
30
0
10
116.69952381402254
20
57.505457907915115
30
0
10
116.56906832009554
20
57.630799025297165
30
0
0
SPLINE
5
1089
100
AcDbEntity
8
0
100
AcDbSpline
70
0
71
2
72
6
73
3
74
0
42
0.000000001
43
0.0000000001
44
0.0000000001
40
0
40
0
40
0
40
1
40
1
40
1
10
116.56906832009554
20
57.630799025297165
30
0
10
116.43861044198275
20
57.756140142679214
30
0
10
116.22885692864656
20
57.756140142679214
30
0
0
SPLINE
5
1090
100
AcDbEntity
8
0
100
AcDbSpline
70
0
71
2
72
6
73
3
74
0
42
0.000000001
43
0.0000000001
44
0.0000000001
40
0
40
0
40
0
40
1
40
1
40
1
10
116.22885692864656
20
57.756140142679214
30
0
10
116.00716579705477
20
57.756140142679214
30
0
10
115.87414968758821
20
57.623125076293945
30
0
0
SPLINE
5
1091
100
AcDbEntity
8
0
100
AcDbSpline
70
0
71
2
72
6
73
3
74
0
42
0.000000001
43
0.0000000001
44
0.0000000001
40
0
40
0
40
0
40
1
40
1
40
1
10
115.87414968758821
20
57.623125076293945
30
0
10
115.74113357812166
20
57.490110009908676
30
0
10
115.73942888528109
20
57.254775822162628
30
0
0
LINE
5
1092
100
AcDbEntity
8
0
100
AcDbLine
10
115.73942888528109
20
57.254775822162635
30
0
11
115.42394388467073
21
57.287176907062531
31
0
0
SPLINE
5
1093
100
AcDbEntity
8
0
100
AcDbSpline
70
0
71
2
72
6
73
3
74
0
42
0.000000001
43
0.0000000001
44
0.0000000001
40
0
40
0
40
0
40
1
40
1
40
1
10
115.42394388467073
20
57.287176907062531
30
0
10
115.45634496957064
20
57.640178263187408
30
0
10
115.66780555993319
20
57.825205534696579
30
0
0
SPLINE
5
1094
100
AcDbEntity
8
0
100
AcDbSpline
70
0
71
2
72
6
73
3
74
0
42
0.000000001
43
0.0000000001
44
0.0000000001
40
0
40
0
40
0
40
1
40
1
40
1
10
115.66780555993319
20
57.825205534696579
30
0
10
115.87926615029573
20
58.010232955217361
30
0
10
116.23567808419466
20
58.010232955217361
30
0
0
SPLINE
5
1095
100
AcDbEntity
8
0
100
AcDbSpline
70
0
71
2
72
6
73
3
74
0
42
0.000000001
43
0.0000000001
44
0.0000000001
40
0
40
0
40
0
40
1
40
1
40
1
10
116.23567808419466
20
58.010232955217361
30
0
10
116.59549940377474
20
58.010232955217361
30
0
10
116.80525530129671
20
57.810710281133652
30
0
0
SPLINE
5
1096
100
AcDbEntity
8
0
100
AcDbSpline
70
0
71
2
72
6
73
3
74
0
42
0.000000001
43
0.0000000001
44
0.0000000001
40
0
40
0
40
0
40
1
40
1
40
1
10
116.80525530129671
20
57.810710281133652
30
0
10
117.01500881463289
20
57.611187905073166
30
0
10
117.01500881463289
20
57.316167414188385
30
0
0
SPLINE
5
1097
100
AcDbEntity
8
0
100
AcDbSpline
70
0
71
2
72
6
73
3
74
0
42
0.000000001
43
0.0000000001
44
0.0000000001
40
0
40
0
40
0
40
1
40
1
40
1
10
117.01500881463289
20
57.316167414188385
30
0
10
117.01500881463289
20
57.166099160909653
30
0
10
116.95361841470003
20
57.021146923303604
30
0
0
SPLINE
5
1098
100
AcDbEntity
8
0
100
AcDbSpline
70
0
71
2
72
6
73
3
74
0
42
0.000000001
43
0.0000000001
44
0.0000000001
40
0
40
0
40
0
40
1
40
1
40
1
10
116.95361841470003
20
57.021146923303604
30
0
10
116.89222563058138
20
56.876194685697556
30
0
10
116.74983251839876
20
56.715894550085068
30
0
0
SPLINE
5
1099
100
AcDbEntity
8
0
100
AcDbSpline
70
0
71
2
72
6
73
3
74
0
42
0.000000001
43
0.0000000001
44
0.0000000001
40
0
40
0
40
0
40
1
40
1
40
1
10
116.74983251839876
20
56.715894550085068
30
0
10
116.60743702203035
20
56.55559441447258
30
0
10
116.27660501748323
20
56.275921821594238
30
0
0
SPLINE
5
1100
100
AcDbEntity
8
0
100
AcDbSpline
70
0
71
2
72
6
73
3
74
0
42
0.000000001
43
0.0000000001
44
0.0000000001
40
0
40
0
40
0
40
1
40
1
40
1
10
116.27660501748323
20
56.275921821594238
30
0
10
116.00034225732088
20
56.043998211622238
30
0
10
115.92189777642488
20
55.961290210485458
30
0
0
SPLINE
5
1101
100
AcDbEntity
8
0
100
AcDbSpline
70
0
71
2
72
6
73
3
74
0
42
0.000000001
43
0.0000000001
44
0.0000000001
40
0
40
0
40
0
40
1
40
1
40
1
10
115.92189777642488
20
55.961290210485458
30
0
10
115.84345329552889
20
55.878582209348679
30
0
10
115.79229343682528
20
55.795021265745163
30
0
0
LINE
5
1102
100
AcDbEntity
8
0
100
AcDbLine
10
115.79229343682528
20
55.795021265745163
30
0
11
117.01842058449984
21
55.795021265745163
31
0
0
SPLINE
5
1103
100
AcDbEntity
8
0
100
AcDbSpline
70
0
71
2
72
6
73
3
74
0
42
0.000000001
43
0.0000000001
44
0.0000000001
40
0
40
0
40
0
40
1
40
1
40
1
10
117.34754551202059
20
56.732947736978531
30
0
10
117.34754551202059
20
57.17633119225502
30
0
10
117.43878114968538
20
57.446624398231506
30
0
0
SPLINE
5
1104
100
AcDbEntity
8
0
100
AcDbSpline
70
0
71
2
72
6
73
3
74
0
42
0.000000001
43
0.0000000001
44
0.0000000001
40
0
40
0
40
0
40
1
40
1
40
1
10
117.43878114968538
20
57.446624398231506
30
0
10
117.53001440316439
20
57.716917753219604
30
0
10
117.70992506295443
20
57.863575279712677
30
0
0
SPLINE
5
1105
100
AcDbEntity
8
0
100
AcDbSpline
70
0
71
2
72
6
73
3
74
0
42
0.000000001
43
0.0000000001
44
0.0000000001
40
0
40
0
40
0
40
1
40
1
40
1
10
117.70992506295443
20
57.863575279712677
30
0
10
117.88983810693026
20
58.010232657194138
30
0
10
118.16268909722567
20
58.010232657194138
30
0
0
SPLINE
5
1106
100
AcDbEntity
8
0
100
AcDbSpline
70
0
71
2
72
6
73
3
74
0
42
0.000000001
43
0.0000000001
44
0.0000000001
40
0
40
0
40
0
40
1
40
1
40
1
10
118.16268909722567
20
58.010232657194138
30
0
10
118.36391676217318
20
58.010232657194138
30
0
10
118.51568926125765
20
57.929230242967606
30
0
0
SPLINE
5
1107
100
AcDbEntity
8
0
100
AcDbSpline
70
0
71
2
72
6
73
3
74
0
42
0.000000001
43
0.0000000001
44
0.0000000001
40
0
40
0
40
0
40
1
40
1
40
1
10
118.51568926125765
20
57.929230242967606
30
0
10
118.66746414452791
20
57.848227381706238
30
0
10
118.7663720920682
20
57.69560119509697
30
0
0
SPLINE
5
1108
100
AcDbEntity
8
0
100
AcDbSpline
70
0
71
2
72
6
73
3
74
0
42
0.000000001
43
0.0000000001
44
0.0000000001
40
0
40
0
40
0
40
1
40
1
40
1
10
118.7663720920682
20
57.69560119509697
30
0
10
118.86528003960848
20
57.542975008487701
30
0
10
118.92155636101961
20
57.323841363191605
30
0
0
SPLINE
5
1109
100
AcDbEntity
8
0
100
AcDbSpline
70
0
71
2
72
6
73
3
74
0
42
0.000000001
43
0.0000000001
44
0.0000000001
40
0
40
0
40
0
40
1
40
1
40
1
10
118.92155636101961
20
57.323841363191605
30
0
10
118.97783268243074
20
57.104707717895508
30
0
10
118.97783268243074
20
56.732947736978531
30
0
0
SPLINE
5
1110
100
AcDbEntity
8
0
100
AcDbSpline
70
0
71
2
72
6
73
3
74
0
42
0.000000001
43
0.0000000001
44
0.0000000001
40
0
40
0
40
0
40
1
40
1
40
1
10
118.97783268243074
20
56.732947736978531
30
0
10
118.97783268243074
20
56.292975008487701
30
0
10
118.88745058327913
20
56.022681802511215
30
0
0
SPLINE
5
1111
100
AcDbEntity
8
0
100
AcDbSpline
70
0
71
2
72
6
73
3
74
0
42
0.000000001
43
0.0000000001
44
0.0000000001
40
0
40
0
40
0
40
1
40
1
40
1
10
118.88745058327913
20
56.022681802511215
30
0
10
118.79706848412752
20
55.752388447523117
30
0
10
118.61715782433748
20
55.604878276586533
30
0
0
SPLINE
5
1112
100
AcDbEntity
8
0
100
AcDbSpline
70
0
71
2
72
6
73
3
74
0
42
0.000000001
43
0.0000000001
44
0.0000000001
40
0
40
0
40
0
40
1
40
1
40
1
10
118.61715782433748
20
55.604878276586533
30
0
10
118.43724478036165
20
55.457367807626724
30
0
10
118.16268909722567
20
55.457367807626724
30
0
0
SPLINE
5
1113
100
AcDbEntity
8
0
100
AcDbSpline
70
0
71
2
72
6
73
3
74
0
42
0.000000001
43
0.0000000001
44
0.0000000001
40
0
40
0
40
0
40
1
40
1
40
1
10
118.16268909722567
20
55.457367807626724
30
0
10
117.80116070061922
20
55.457367807626724
30
0
10
117.59481657296419
20
55.716576486825943
30
0
0
SPLINE
5
1114
100
AcDbEntity
8
0
100
AcDbSpline
70
0
71
2
72
6
73
3
74
0
42
0.000000001
43
0.0000000001
44
0.0000000001
40
0
40
0
40
0
40
1
40
1
40
1
10
117.59481657296419
20
55.716576486825943
30
0
10
117.34754551202059
20
56.028650313615799
30
0
10
117.34754551202059
20
56.732947736978531
30
0
0
SPLINE
5
1115
100
AcDbEntity
8
0
100
AcDbSpline
70
0
71
2
72
6
73
3
74
0
42
0.000000001
43
0.0000000001
44
0.0000000001
40
0
40
0
40
0
40
1
40
1
40
1
10
117.66303051263094
20
56.732947736978531
30
0
10
117.66303051263094
20
56.117327123880386
30
0
10
117.80712831765413
20
55.913541227579117
30
0
0
SPLINE
5
1116
100
AcDbEntity
8
0
100
AcDbSpline
70
0
71
2
72
6
73
3
74
0
42
0.000000001
43
0.0000000001
44
0.0000000001
40
0
40
0
40
0
40
1
40
1
40
1
10
117.80712831765413
20
55.913541227579117
30
0
10
117.95122850686312
20
55.709755331277847
30
0
10
118.16268909722567
20
55.709755331277847
30
0
0
SPLINE
5
1117
100
AcDbEntity
8
0
100
AcDbSpline
70
0
71
2
72
6
73
3
74
0
42
0.000000001
43
0.0000000001
44
0.0000000001
40
0
40
0
40
0
40
1
40
1
40
1
10
118.16268909722567
20
55.709755331277847
30
0
10
118.37414968758821
20
55.709755331277847
30
0
10
118.51824749261141
20
55.914393872022629
30
0
0
SPLINE
5
1118
100
AcDbEntity
8
0
100
AcDbSpline
70
0
71
2
72
6
73
3
74
0
42
0.000000001
43
0.0000000001
44
0.0000000001
40
0
40
0
40
0
40
1
40
1
40
1
10
118.51824749261141
20
55.914393872022629
30
0
10
118.66234768182039
20
56.11903241276741
30
0
10
118.66234768182039
20
56.732947736978531
30
0
0
SPLINE
5
1119
100
AcDbEntity
8
0
100
AcDbSpline
70
0
71
2
72
6
73
3
74
0
42
0.000000001
43
0.0000000001
44
0.0000000001
40
0
40
0
40
0
40
1
40
1
40
1
10
118.66234768182039
20
56.732947736978531
30
0
10
118.66234768182039
20
57.350273787975311
30
0
10
118.51824749261141
20
57.553207039833069
30
0
0
SPLINE
5
1120
100
AcDbEntity
8
0
100
AcDbSpline
70
0
71
2
72
6
73
3
74
0
42
0.000000001
43
0.0000000001
44
0.0000000001
40
0
40
0
40
0
40
1
40
1
40
1
10
118.51824749261141
20
57.553207039833069
30
0
10
118.37414968758821
20
57.756140142679214
30
0
10
118.15927732735872
20
57.756140142679214
30
0
0
SPLINE
5
1121
100
AcDbEntity
8
0
100
AcDbSpline
70
0
71
2
72
6
73
3
74
0
42
0.000000001
43
0.0000000001
44
0.0000000001
40
0
40
0
40
0
40
1
40
1
40
1
10
118.15927732735872
20
57.756140142679214
30
0
10
117.94781912118196
20
57.756140142679214
30
0
10
117.82162416726351
20
57.57708153128624
30
0
0
SPLINE
5
1122
100
AcDbEntity
8
0
100
AcDbSpline
70
0
71
2
72
6
73
3
74
0
42
0.000000001
43
0.0000000001
44
0.0000000001
40
0
40
0
40
0
40
1
40
1
40
1
10
117.82162416726351
20
57.57708153128624
30
0
10
117.66303051263094
20
57.348568499088287
30
0
10
117.66303051263094
20
56.732947736978531
30
0
0
LINE
5
1123
100
AcDbEntity
8
0
100
AcDbLine
10
120.90314138680696
20
55.795021265745163
30
0
11
120.90314138680696
21
55.500000923871994
31
0
0
LINE
5
1124
100
AcDbEntity
8
0
100
AcDbLine
10
120.90314138680696
20
55.500000923871994
30
0
11
119.25068605691195
21
55.500000923871994
31
0
0
SPLINE
5
1125
100
AcDbEntity
8
0
100
AcDbSpline
70
0
71
2
72
6
73
3
74
0
42
0.000000001
43
0.0000000001
44
0.0000000001
40
0
40
0
40
0
40
1
40
1
40
1
10
119.25068605691195
20
55.500000923871994
30
0
10
119.247274287045
20
55.610846787691116
30
0
10
119.286496527493
20
55.713165909051895
30
0
0
SPLINE
5
1126
100
AcDbEntity
8
0
100
AcDbSpline
70
0
71
2
72
6
73
3
74
0
42
0.000000001
43
0.0000000001
44
0.0000000001
40
0
40
0
40
0
40
1
40
1
40
1
10
119.286496527493
20
55.713165909051895
30
0
10
119.34959400445223
20
55.881992787122726
30
0
10
119.48857773095369
20
56.045703500509262
30
0
0
SPLINE
5
1127
100
AcDbEntity
8
0
100
AcDbSpline
70
0
71
2
72
6
73
3
74
0
42
0.000000001
43
0.0000000001
44
0.0000000001
40
0
40
0
40
0
40
1
40
1
40
1
10
119.48857773095369
20
56.045703500509262
30
0
10
119.62756145745516
20
56.209414213895798
30
0
10
119.89017952233553
20
56.424284785985947
30
0
0
SPLINE
5
1128
100
AcDbEntity
8
0
100
AcDbSpline
70
0
71
2
72
6
73
3
74
0
42
0.000000001
43
0.0000000001
44
0.0000000001
40
0
40
0
40
0
40
1
40
1
40
1
10
119.89017952233553
20
56.424284785985947
30
0
10
120.29775131493807
20
56.758527517318726
30
0
10
120.44099796563387
20
56.953786671161652
30
0
0
SPLINE
5
1129
100
AcDbEntity
8
0
100
AcDbSpline
70
0
71
2
72
6
73
3
74
0
42
0.000000001
43
0.0000000001
44
0.0000000001
40
0
40
0
40
0
40
1
40
1
40
1
10
120.44099796563387
20
56.953786671161652
30
0
10
120.58424461632967
20
57.14904597401619
30
0
10
120.58424461632967
20
57.322988718748093
30
0
0
SPLINE
5
1130
100
AcDbEntity
8
0
100
AcDbSpline
70
0
71
2
72
6
73
3
74
0
42
0.000000001
43
0.0000000001
44
0.0000000001
40
0
40
0
40
0
40
1
40
1
40
1
10
120.58424461632967
20
57.322988718748093
30
0
10
120.58424461632967
20
57.505457907915115
30
0
10
120.45378912240267
20
57.630799025297165
30
0
0
SPLINE
5
1131
100
AcDbEntity
8
0
100
AcDbSpline
70
0
71
2
72
6
73
3
74
0
42
0.000000001
43
0.0000000001
44
0.0000000001
40
0
40
0
40
0
40
1
40
1
40
1
10
120.45378912240267
20
57.630799025297165
30
0
10
120.32333124428988
20
57.756140142679214
30
0
10
120.11357773095369
20
57.756140142679214
30
0
0
SPLINE
5
1132
100
AcDbEntity
8
0
100
AcDbSpline
70
0
71
2
72
6
73
3
74
0
42
0.000000001
43
0.0000000001
44
0.0000000001
40
0
40
0
40
0
40
1
40
1
40
1
10
120.11357773095369
20
57.756140142679214
30
0
10
119.8918865993619
20
57.756140142679214
30
0
10
119.75887048989534
20
57.623125076293945
30
0
0
SPLINE
5
1133
100
AcDbEntity
8
0
100
AcDbSpline
70
0
71
2
72
6
73
3
74
0
42
0.000000001
43
0.0000000001
44
0.0000000001
40
0
40
0
40
0
40
1
40
1
40
1
10
119.75887048989534
20
57.623125076293945
30
0
10
119.62585438042879
20
57.490110009908676
30
0
10
119.62414968758821
20
57.254775822162628
30
0
0
LINE
5
1134
100
AcDbEntity
8
0
100
AcDbLine
10
119.62414968758821
20
57.254775822162635
30
0
11
119.30866468697786
21
57.287176907062531
31
0
0
SPLINE
5
1135
100
AcDbEntity
8
0
100
AcDbSpline
70
0
71
2
72
6
73
3
74
0
42
0.000000001
43
0.0000000001
44
0.0000000001
40
0
40
0
40
0
40
1
40
1
40
1
10
119.30866468697786
20
57.287176907062531
30
0
10
119.34106577187777
20
57.640178263187408
30
0
10
119.55252636224031
20
57.825205534696579
30
0
0
SPLINE
5
1136
100
AcDbEntity
8
0
100
AcDbSpline
70
0
71
2
72
6
73
3
74
0
42
0.000000001
43
0.0000000001
44
0.0000000001
40
0
40
0
40
0
40
1
40
1
40
1
10
119.55252636224031
20
57.825205534696579
30
0
10
119.76398695260286
20
58.010232955217361
30
0
10
120.12039888650179
20
58.010232955217361
30
0
0
SPLINE
5
1137
100
AcDbEntity
8
0
100
AcDbSpline
70
0
71
2
72
6
73
3
74
0
42
0.000000001
43
0.0000000001
44
0.0000000001
40
0
40
0
40
0
40
1
40
1
40
1
10
120.12039888650179
20
58.010232955217361
30
0
10
120.48022020608187
20
58.010232955217361
30
0
10
120.68997610360384
20
57.810710281133652
30
0
0
SPLINE
5
1138
100
AcDbEntity
8
0
100
AcDbSpline
70
0
71
2
72
6
73
3
74
0
42
0.000000001
43
0.0000000001
44
0.0000000001
40
0
40
0
40
0
40
1
40
1
40
1
10
120.68997610360384
20
57.810710281133652
30
0
10
120.89972961694002
20
57.611187905073166
30
0
10
120.89972961694002
20
57.316167414188385
30
0
0
SPLINE
5
1139
100
AcDbEntity
8
0
100
AcDbSpline
70
0
71
2
72
6
73
3
74
0
42
0.000000001
43
0.0000000001
44
0.0000000001
40
0
40
0
40
0
40
1
40
1
40
1
10
120.89972961694002
20
57.316167414188385
30
0
10
120.89972961694002
20
57.166099160909653
30
0
10
120.83833921700716
20
57.021146923303604
30
0
0
SPLINE
5
1140
100
AcDbEntity
8
0
100
AcDbSpline
70
0
71
2
72
6
73
3
74
0
42
0.000000001
43
0.0000000001
44
0.0000000001
40
0
40
0
40
0
40
1
40
1
40
1
10
120.83833921700716
20
57.021146923303604
30
0
10
120.77694643288851
20
56.876194685697556
30
0
10
120.63455332070589
20
56.715894550085068
30
0
0
SPLINE
5
1141
100
AcDbEntity
8
0
100
AcDbSpline
70
0
71
2
72
6
73
3
74
0
42
0.000000001
43
0.0000000001
44
0.0000000001
40
0
40
0
40
0
40
1
40
1
40
1
10
120.63455332070589
20
56.715894550085068
30
0
10
120.49215782433748
20
56.55559441447258
30
0
10
120.16132581979036
20
56.275921821594238
30
0
0
SPLINE
5
1142
100
AcDbEntity
8
0
100
AcDbSpline
70
0
71
2
72
6
73
3
74
0
42
0.000000001
43
0.0000000001
44
0.0000000001
40
0
40
0
40
0
40
1
40
1
40
1
10
120.16132581979036
20
56.275921821594238
30
0
10
119.88506305962801
20
56.043998211622238
30
0
10
119.80661857873201
20
55.961290210485458
30
0
0
SPLINE
5
1143
100
AcDbEntity
8
0
100
AcDbSpline
70
0
71
2
72
6
73
3
74
0
42
0.000000001
43
0.0000000001
44
0.0000000001
40
0
40
0
40
0
40
1
40
1
40
1
10
119.80661857873201
20
55.961290210485458
30
0
10
119.72817409783602
20
55.878582209348679
30
0
10
119.6770142391324
20
55.795021265745163
30
0
0
LINE
5
1144
100
AcDbEntity
8
0
100
AcDbLine
10
119.6770142391324
20
55.795021265745163
30
0
11
120.90314138680696
21
55.795021265745163
31
0
0
LWPOLYLINE
5
1145
100
AcDbEntity
8
0
100
AcDbPolyline
90
11
70
1
43
0.0
10
122.2162364795804
20
55.500000923871994
10
122.2162364795804
20
56.098568350076675
10
121.13165367394686
20
56.098568350076675
10
121.13165367394686
20
56.379946380853653
10
122.27251280099154
20
58.000000923871994
10
122.52319563180208
20
58.000000923871994
10
122.52319563180208
20
56.379946380853653
10
122.8608487918973
20
56.379946380853653
10
122.8608487918973
20
56.098568350076675
10
122.52319563180208
20
56.098568350076675
10
122.52319563180208
20
55.500000923871994
0
LWPOLYLINE
5
1146
100
AcDbEntity
8
0
100
AcDbPolyline
90
3
70
1
43
0.0
10
122.2162364795804
20
56.379946380853653
10
122.2162364795804
20
57.507163345813751
10
121.43349636346102
20
56.379946380853653
0
LWPOLYLINE
5
1147
100
AcDbEntity
8
0
100
AcDbPolyline
90
4
70
1
43
0.0
10
124.11084640771151
20
56.250342041254044
10
124.11084640771151
20
56.559004992246628
10
125.05388963967562
20
56.559004992246628
10
125.05388963967562
20
56.250342041254044
0
LINE
5
1148
100
AcDbEntity
8
0
100
AcDbLine
10
128.1865643337369
20
56.376535505056381
30
0
11
128.51739633828402
21
56.292974859476089
31
0
0
SPLINE
5
1149
100
AcDbEntity
8
0
100
AcDbSpline
70
0
71
2
72
6
73
3
74
0
42
0.000000001
43
0.0000000001
44
0.0000000001
40
0
40
0
40
0
40
1
40
1
40
1
10
128.51739633828402
20
56.292974859476089
30
0
10
128.41337192803621
20
55.885403364896774
30
0
10
128.14307916909456
20
55.671385735273361
30
0
0
SPLINE
5
1150
100
AcDbEntity
8
0
100
AcDbSpline
70
0
71
2
72
6
73
3
74
0
42
0.000000001
43
0.0000000001
44
0.0000000001
40
0
40
0
40
0
40
1
40
1
40
1
10
128.14307916909456
20
55.671385735273361
30
0
10
127.87278641015291
20
55.457367807626724
30
0
10
127.48226631432772
20
55.457367807626724
30
0
0
SPLINE
5
1151
100
AcDbEntity
8
0
100
AcDbSpline
70
0
71
2
72
6
73
3
74
0
42
0.000000001
43
0.0000000001
44
0.0000000001
40
0
40
0
40
0
40
1
40
1
40
1
10
127.48226631432772
20
55.457367807626724
30
0
10
127.07810629159212
20
55.457367807626724
30
0
10
126.82486522942781
20
55.621931463479996
30
0
0
SPLINE
5
1152
100
AcDbEntity
8
0
100
AcDbSpline
70
0
71
2
72
6
73
3
74
0
42
0.000000001
43
0.0000000001
44
0.0000000001
40
0
40
0
40
0
40
1
40
1
40
1
10
126.82486522942781
20
55.621931463479996
30
0
10
126.5716265514493
20
55.786494821310043
30
0
10
126.43946398049593
20
56.098568350076675
30
0
0
SPLINE
5
1153
100
AcDbEntity
8
0
100
AcDbSpline
70
0
71
2
72
6
73
3
74
0
42
0.000000001
43
0.0000000001
44
0.0000000001
40
0
40
0
40
0
40
1
40
1
40
1
10
126.43946398049593
20
56.098568350076675
30
0
10
126.30730140954256
20
56.410642027854919
30
0
10
126.30730140954256
20
56.768759399652481
30
0
0
SPLINE
5
1154
100
AcDbEntity
8
0
100
AcDbSpline
70
0
71
2
72
6
73
3
74
0
42
0.000000001
43
0.0000000001
44
0.0000000001
40
0
40
0
40
0
40
1
40
1
40
1
10
126.30730140954256
20
56.768759399652481
30
0
10
126.30730140954256
20
57.159277707338333
30
0
10
126.45651806145906
20
57.450034976005554
30
0
0
SPLINE
5
1155
100
AcDbEntity
8
0
100
AcDbSpline
70
0
71
2
72
6
73
3
74
0
42
0.000000001
43
0.0000000001
44
0.0000000001
40
0
40
0
40
0
40
1
40
1
40
1
10
126.45651806145906
20
57.450034976005554
30
0
10
126.60573232918978
20
57.740792095661163
30
0
10
126.88114155083895
20
57.891712993383408
30
0
0
SPLINE
5
1156
100
AcDbEntity
8
0
100
AcDbSpline
70
0
71
2
72
6
73
3
74
0
42
0.000000001
43
0.0000000001
44
0.0000000001
40
0
40
0
40
0
40
1
40
1
40
1
10
126.88114155083895
20
57.891712993383408
30
0
10
127.15655077248812
20
58.04263374209404
30
0
10
127.48738277703524
20
58.04263374209404
30
0
0
SPLINE
5
1157
100
AcDbEntity
8
0
100
AcDbSpline
70
0
71
2
72
6
73
3
74
0
42
0.000000001
43
0.0000000001
44
0.0000000001
40
0
40
0
40
0
40
1
40
1
40
1
10
127.48738277703524
20
58.04263374209404
30
0
10
127.86255348473787
20
58.04263374209404
30
0
10
128.11835277825594
20
57.851637959480286
30
0
0
SPLINE
5
1158
100
AcDbEntity
8
0
100
AcDbSpline
70
0
71
2
72
6
73
3
74
0
42
0.000000001
43
0.0000000001
44
0.0000000001
40
0
40
0
40
0
40
1
40
1
40
1
10
128.11835277825594
20
57.851637959480286
30
0
10
128.37414968758821
20
57.660642027854919
30
0
10
128.47476471215487
20
57.314461976289749
30
0
0
LINE
5
1159
100
AcDbEntity
8
0
100
AcDbLine
10
128.47476471215484
20
57.314461976289749
30
0
11
128.14904678612947
21
57.237722486257553
31
0
0
SPLINE
5
1160
100
AcDbEntity
8
0
100
AcDbSpline
70
0
71
2
72
6
73
3
74
0
42
0.000000001
43
0.0000000001
44
0.0000000001
40
0
40
0
40
0
40
1
40
1
40
1
10
128.14904678612947
20
57.237722486257553
30
0
10
128.06207645684481
20
57.510573774576187
30
0
10
127.89665926247835
20
57.635062247514725
30
0
0
SPLINE
5
1161
100
AcDbEntity
8
0
100
AcDbSpline
70
0
71
2
72
6
73
3
74
0
42
0.000000001
43
0.0000000001
44
0.0000000001
40
0
40
0
40
0
40
1
40
1
40
1
10
127.89665926247835
20
57.635062247514725
30
0
10
127.73124445229769
20
57.75955057144165
30
0
10
127.48056162148714
20
57.75955057144165
30
0
0
SPLINE
5
1162
100
AcDbEntity
8
0
100
AcDbSpline
70
0
71
2
72
6
73
3
74
0
42
0.000000001
43
0.0000000001
44
0.0000000001
40
0
40
0
40
0
40
1
40
1
40
1
10
127.48056162148714
20
57.75955057144165
30
0
10
127.19236362725496
20
57.75955057144165
30
0
10
126.99880827218294
20
57.621419638395309
30
0
0
SPLINE
5
1163
100
AcDbEntity
8
0
100
AcDbSpline
70
0
71
2
72
6
73
3
74
0
42
0.000000001
43
0.0000000001
44
0.0000000001
40
0
40
0
40
0
40
1
40
1
40
1
10
126.99880827218294
20
57.621419638395309
30
0
10
126.80525530129671
20
57.483288705348969
30
0
10
126.72681082040071
20
57.250512450933456
30
0
0
SPLINE
5
1164
100
AcDbEntity
8
0
100
AcDbSpline
70
0
71
2
72
6
73
3
74
0
42
0.000000001
43
0.0000000001
44
0.0000000001
40
0
40
0
40
0
40
1
40
1
40
1
10
126.72681082040071
20
57.250512450933456
30
0
10
126.64836633950472
20
57.017736196517944
30
0
10
126.64836633950472
20
56.770464688539505
30
0
0
SPLINE
5
1165
100
AcDbEntity
8
0
100
AcDbSpline
70
0
71
2
72
6
73
3
74
0
42
0.000000001
43
0.0000000001
44
0.0000000001
40
0
40
0
40
0
40
1
40
1
40
1
10
126.64836633950472
20
56.770464688539505
30
0
10
126.64836633950472
20
56.451569706201553
30
0
10
126.74130667001009
20
56.213677436113358
30
0
0
SPLINE
5
1166
100
AcDbEntity
8
0
100
AcDbSpline
70
0
71
2
72
6
73
3
74
0
42
0.000000001
43
0.0000000001
44
0.0000000001
40
0
40
0
40
0
40
1
40
1
40
1
10
126.74130667001009
20
56.213677436113358
30
0
10
126.83424461632967
20
55.975785464048386
30
0
10
127.03035820275545
20
55.858118146657944
30
0
0
SPLINE
5
1167
100
AcDbEntity
8
0
100
AcDbSpline
70
0
71
2
72
6
73
3
74
0
42
0.000000001
43
0.0000000001
44
0.0000000001
40
0
40
0
40
0
40
1
40
1
40
1
10
127.03035820275545
20
55.858118146657944
30
0
10
127.22646940499544
20
55.740451127290726
30
0
10
127.45498169213533
20
55.740451127290726
30
0
0
SPLINE
5
1168
100
AcDbEntity
8
0
100
AcDbSpline
70
0
71
2
72
6
73
3
74
0
42
0.000000001
43
0.0000000001
44
0.0000000001
40
0
40
0
40
0
40
1
40
1
40
1
10
127.45498169213533
20
55.740451127290726
30
0
10
127.73294914513826
20
55.740451127290726
30
0
10
127.9256509616971
20
55.900751262903214
30
0
0
SPLINE
5
1169
100
AcDbEntity
8
0
100
AcDbSpline
70
0
71
2
72
6
73
3
74
0
42
0.000000001
43
0.0000000001
44
0.0000000001
40
0
40
0
40
0
40
1
40
1
40
1
10
127.9256509616971
20
55.900751262903214
30
0
10
128.11835277825594
20
56.061051398515701
30
0
10
128.1865643337369
20
56.376535505056381
30
0
0
LWPOLYLINE
5
1170
100
AcDbEntity
8
0
100
AcDbPolyline
90
4
70
1
43
0.0
10
128.9812420681119
20
55.500000923871994
10
128.9812420681119
20
58.000000923871994
10
129.31207407265902
20
58.000000923871994
10
129.31207407265902
20
55.500000923871994
0
LINE
5
1171
100
AcDbEntity
8
0
100
AcDbLine
10
129.89529598504305
20
55.500000923871994
30
0
11
129.89529598504305
21
58.000000923871994
31
0
0
LINE
5
1172
100
AcDbEntity
8
0
100
AcDbLine
10
129.89529598504305
20
58.000000923871994
30
0
11
130.75648296624422
21
58.000000923871994
31
0
0
SPLINE
5
1173
100
AcDbEntity
8
0
100
AcDbSpline
70
0
71
2
72
6
73
3
74
0
42
0.000000001
43
0.0000000001
44
0.0000000001
40
0
40
0
40
0
40
1
40
1
40
1
10
130.75648296624422
20
58.000000923871994
30
0
10
131.04809273034334
20
58.000000923871994
30
0
10
131.20157230645418
20
57.964189261198044
30
0
0
SPLINE
5
1174
100
AcDbEntity
8
0
100
AcDbSpline
70
0
71
2
72
6
73
3
74
0
42
0.000000001
43
0.0000000001
44
0.0000000001
40
0
40
0
40
0
40
1
40
1
40
1
10
131.20157230645418
20
57.964189261198044
30
0
10
131.41644228249788
20
57.914734840393066
30
0
10
131.56821478158236
20
57.785130500793457
30
0
0
SPLINE
5
1175
100
AcDbEntity
8
0
100
AcDbSpline
70
0
71
2
72
6
73
3
74
0
42
0.000000001
43
0.0000000001
44
0.0000000001
40
0
40
0
40
0
40
1
40
1
40
1
10
131.56821478158236
20
57.785130500793457
30
0
10
131.76603306084871
20
57.618009060621262
30
0
10
131.8640898540616
20
57.357947736978531
30
0
0
SPLINE
5
1176
100
AcDbEntity
8
0
100
AcDbSpline
70
0
71
2
72
6
73
3
74
0
42
0.000000001
43
0.0000000001
44
0.0000000001
40
0
40
0
40
0
40
1
40
1
40
1
10
131.8640898540616
20
57.357947736978531
30
0
10
131.9621442630887
20
57.097886264324188
30
0
10
131.9621442630887
20
56.763643532991409
30
0
0
SPLINE
5
1177
100
AcDbEntity
8
0
100
AcDbSpline
70
0
71
2
72
6
73
3
74
0
42
0.000000001
43
0.0000000001
44
0.0000000001
40
0
40
0
40
0
40
1
40
1
40
1
10
131.9621442630887
20
56.763643532991409
30
0
10
131.9621442630887
20
56.478854924440384
30
0
10
131.89563740044832
20
56.258868485689163
30
0
0
SPLINE
5
1178
100
AcDbEntity
8
0
100
AcDbSpline
70
0
71
2
72
6
73
3
74
0
42
0.000000001
43
0.0000000001
44
0.0000000001
40
0
40
0
40
0
40
1
40
1
40
1
10
131.89563740044832
20
56.258868485689163
30
0
10
131.82913053780794
20
56.038882344961166
30
0
10
131.72510612756014
20
55.89478275179863
30
0
0
SPLINE
5
1179
100
AcDbEntity
8
0
100
AcDbSpline
70
0
71
2
72
6
73
3
74
0
42
0.000000001
43
0.0000000001
44
0.0000000001
40
0
40
0
40
0
40
1
40
1
40
1
10
131.72510612756014
20
55.89478275179863
30
0
10
131.62107933312654
20
55.750683158636093
30
0
10
131.49744499474764
20
55.667974859476089
30
0
0
SPLINE
5
1180
100
AcDbEntity
8
0
100
AcDbSpline
70
0
71
2
72
6
73
3
74
0
42
0.000000001
43
0.0000000001
44
0.0000000001
40
0
40
0
40
0
40
1
40
1
40
1
10
131.49744499474764
20
55.667974859476089
30
0
10
131.37380827218294
20
55.58526685833931
30
0
10
131.19901407510042
20
55.542634040117264
30
0
0
SPLINE
5
1181
100
AcDbEntity
8
0
100
AcDbSpline
70
0
71
2
72
6
73
3
74
0
42
0.000000001
43
0.0000000001
44
0.0000000001
40
0
40
0
40
0
40
1
40
1
40
1
10
131.19901407510042
20
55.542634040117264
30
0
10
131.02421749383211
20
55.500000923871994
30
0
10
130.79740989953279
20
55.500000923871994
30
0
0
LINE
5
1182
100
AcDbEntity
8
0
100
AcDbLine
10
130.79740989953279
20
55.500000923871994
30
0
11
129.89529598504305
21
55.500000923871994
31
0
0
LINE
5
1183
100
AcDbEntity
8
0
100
AcDbLine
10
130.22612798959017
20
55.795021265745163
30
0
11
130.75989235192537
21
55.795021265745163
31
0
0
SPLINE
5
1184
100
AcDbEntity
8
0
100
AcDbSpline
70
0
71
2
72
6
73
3
74
0
42
0.000000001
43
0.0000000001
44
0.0000000001
40
0
40
0
40
0
40
1
40
1
40
1
10
130.75989235192537
20
55.795021265745163
30
0
10
131.00716579705477
20
55.795021265745163
30
0
10
131.14785421639681
20
55.841064959764481
30
0
0
SPLINE
5
1185
100
AcDbEntity
8
0
100
AcDbSpline
70
0
71
2
72
6
73
3
74
0
42
0.000000001
43
0.0000000001
44
0.0000000001
40
0
40
0
40
0
40
1
40
1
40
1
10
131.14785421639681
20
55.841064959764481
30
0
10
131.28854263573885
20
55.887108653783798
30
0
10
131.37210357934237
20
55.97066929936409
30
0
0
SPLINE
5
1186
100
AcDbEntity
8
0
100
AcDbSpline
70
0
71
2
72
6
73
3
74
0
42
0.000000001
43
0.0000000001
44
0.0000000001
40
0
40
0
40
0
40
1
40
1
40
1
10
131.37210357934237
20
55.97066929936409
30
0
10
131.48977030068636
20
56.088336616754532
30
0
10
131.55542600899935
20
56.287006348371506
30
0
0
SPLINE
5
1187
100
AcDbEntity
8
0
100
AcDbSpline
70
0
71
2
72
6
73
3
74
0
42
0.000000001
43
0.0000000001
44
0.0000000001
40
0
40
0
40
0
40
1
40
1
40
1
10
131.55542600899935
20
56.287006348371506
30
0
10
131.62107933312654
20
56.485676229000092
30
0
10
131.62107933312654
20
56.768759399652481
30
0
0
SPLINE
5
1188
100
AcDbEntity
8
0
100
AcDbSpline
70
0
71
2
72
6
73
3
74
0
42
0.000000001
43
0.0000000001
44
0.0000000001
40
0
40
0
40
0
40
1
40
1
40
1
10
131.62107933312654
20
56.768759399652481
30
0
10
131.62107933312654
20
57.160983145236969
30
0
10
131.49232853204012
20
57.371590346097946
30
0
0
SPLINE
5
1189
100
AcDbEntity
8
0
100
AcDbSpline
70
0
71
2
72
6
73
3
74
0
42
0.000000001
43
0.0000000001
44
0.0000000001
40
0
40
0
40
0
40
1
40
1
40
1
10
131.49232853204012
20
57.371590346097946
30
0
10
131.36357773095369
20
57.582197397947311
30
0
10
131.17940176278353
20
57.653820872306824
30
0
0
SPLINE
5
1190
100
AcDbEntity
8
0
100
AcDbSpline
70
0
71
2
72
6
73
3
74
0
42
0.000000001
43
0.0000000001
44
0.0000000001
40
0
40
0
40
0
40
1
40
1
40
1
10
131.17940176278353
20
57.653820872306824
30
0
10
131.04638803750277
20
57.704980432987213
30
0
10
130.7513665035367
20
57.704980432987213
30
0
0
LINE
5
1191
100
AcDbEntity
8
0
100
AcDbLine
10
130.7513665035367
20
57.704980432987213
30
0
11
130.22612798959017
21
57.704980432987213
31
0
0
LINE
5
1192
100
AcDbEntity
8
0
100
AcDbLine
10
130.22612798959017
20
57.704980432987213
30
0
11
130.22612798959017
21
55.795021265745163
31
0
0
LWPOLYLINE
5
1193
100
AcDbEntity
8
0
100
AcDbPolyline
90
4
70
1
43
0.0
10
132.47373808175325
20
55.500000923871994
10
132.47373808175325
20
58.000000923871994
10
132.80457008630037
20
58.000000923871994
10
132.80457008630037
20
55.500000923871994
0
LINE
5
1194
100
AcDbEntity
8
0
100
AcDbLine
10
35.000000521540642
20
35.000000223517418
30
0
11
35.000000521540642
21
45.000000223517418
31
0
0
LINE
5
1195
100
AcDbEntity
8
0
100
AcDbLine
10
45.000000521540642
20
35.000000223517418
30
0
11
45.000000521540642
21
45.000000223517418
31
0
0
LINE
5
1196
100
AcDbEntity
8
0
100
AcDbLine
10
55.000000521540642
20
35.000000223517418
30
0
11
55.000000521540642
21
45.000000223517418
31
0
0
LINE
5
1197
100
AcDbEntity
8
0
100
AcDbLine
10
65.000000521540642
20
35.000000223517418
30
0
11
65.000000521540642
21
45.000000223517418
31
0
0
LINE
5
1198
100
AcDbEntity
8
0
100
AcDbLine
10
75.000000521540642
20
35.000000223517418
30
0
11
75.000000521540642
21
45.000000223517418
31
0
0
LINE
5
1199
100
AcDbEntity
8
0
100
AcDbLine
10
85.000000521540642
20
35.000000223517418
30
0
11
85.000000521540642
21
45.000000223517418
31
0
0
LINE
5
1200
100
AcDbEntity
8
0
100
AcDbLine
10
95.000000521540642
20
35.000000223517418
30
0
11
95.000000521540642
21
45.000000223517418
31
0
0
LINE
5
1201
100
AcDbEntity
8
0
100
AcDbLine
10
105.00000052154064
20
35.000000223517418
30
0
11
105.00000052154064
21
45.000000223517418
31
0
0
LINE
5
1202
100
AcDbEntity
8
0
100
AcDbLine
10
115.00000052154064
20
35.000000223517418
30
0
11
115.00000052154064
21
45.000000223517418
31
0
0
LINE
5
1203
100
AcDbEntity
8
0
100
AcDbLine
10
125.00000052154064
20
35.000000223517418
30
0
11
125.00000052154064
21
45.000000223517418
31
0
0
ENDSEC
0
SECTION
2
OBJECTS
0
DICTIONARY
5
C
100
AcDbDictionary
3
ACAD_GROUP
350
D
3
ACAD_MLINESTYLE
350
17
0
DICTIONARY
5
D
100
AcDbDictionary
0
DICTIONARY
5
1A
330
C
100
AcDbDictionary
0
DICTIONARY
5
17
100
AcDbDictionary
0
ENDSEC
0
EOF
