  0
SECTION
  2
HEADER
  9
$ACADVER
  1
AC1024
  9
$ACADMAINTVER
 70
     6
  9
$DWGCODEPAGE
  3
UNDEFINED
  9
$INSBASE
 10
0.0
 20
0.0
 30
0.0
  9
$EXTMIN
 10
1.000000000000000E+20
 20
1.000000000000000E+20
 30
1.000000000000000E+20
  9
$EXTMAX
 10
-1.000000000000000E+20
 20
-1.000000000000000E+20
 30
-1.000000000000000E+20
  9
$LIMMIN
 10
0.0
 20
0.0
  9
$LIMMAX
 10
12.0
 20
9.0
  9
$ORTHOMODE
 70
     0
  9
$REGENMODE
 70
     1
  9
$FILLMODE
 70
     1
  9
$QTEXTMODE
 70
     0
  9
$MIRRTEXT
 70
     1
  9
$LTSCALE
 40
1.0
  9
$ATTMODE
 70
     1
  9
$TEXTSIZE
 40
0.2
  9
$TRACEWID
 40
0.05
  9
$TEXTSTYLE
  7
Standard
  9
$CLAYER
  8
0
  9
$CELTYPE
  6
ByLayer
  9
$CECOLOR
 62
   256
  9
$CELTSCALE
 40
1.0
  9
$DISPSILH
 70
     0
  9
$DIMSCALE
 40
1.0
  9
$DIMASZ
 40
0.18
  9
$DIMEXO
 40
0.0625
  9
$DIMDLI
 40
0.38
  9
$DIMRND
 40
0.0
  9
$DIMDLE
 40
0.0
  9
$DIMEXE
 40
0.18
  9
$DIMTP
 40
0.0
  9
$DIMTM
 40
0.0
  9
$DIMTXT
 40
0.18
  9
$DIMCEN
 40
0.09
  9
$DIMTSZ
 40
0.0
  9
$DIMTOL
 70
     0
  9
$DIMLIM
 70
     0
  9
$DIMTIH
 70
     1
  9
$DIMTOH
 70
     1
  9
$DIMSE1
 70
     0
  9
$DIMSE2
 70
     0
  9
$DIMTAD
 70
     0
  9
$DIMZIN
 70
     0
  9
$DIMBLK
  1

  9
$DIMASO
 70
     1
  9
$DIMSHO
 70
     1
  9
$DIMPOST
  1

  9
$DIMAPOST
  1

  9
$DIMALT
 70
     0
  9
$DIMALTD
 70
     2
  9
$DIMALTF
 40
25.4
  9
$DIMLFAC
 40
1.0
  9
$DIMTOFL
 70
     0
  9
$DIMTVP
 40
0.0
  9
$DIMTIX
 70
     0
  9
$DIMSOXD
 70
     0
  9
$DIMSAH
 70
     0
  9
$DIMBLK1
  1

  9
$DIMBLK2
  1

  9
$DIMSTYLE
  2
Standard
  9
$DIMCLRD
 70
     0
  9
$DIMCLRE
 70
     0
  9
$DIMCLRT
 70
     0
  9
$DIMTFAC
 40
1.0
  9
$DIMGAP
 40
0.09
  9
$DIMJUST
 70
     0
  9
$DIMSD1
 70
     0
  9
$DIMSD2
 70
     0
  9
$DIMTOLJ
 70
     1
  9
$DIMTZIN
 70
     0
  9
$DIMALTZ
 70
     0
  9
$DIMALTTZ
 70
     0
  9
$DIMUPT
 70
     0
  9
$DIMDEC
 70
     4
  9
$DIMTDEC
 70
     4
  9
$DIMALTU
 70
     2
  9
$DIMALTTD
 70
     2
  9
$DIMTXSTY
  7
Standard
  9
$DIMAUNIT
 70
     0
  9
$DIMADEC
 70
     0
  9
$DIMALTRND
 40
0.0
  9
$DIMAZIN
 70
     0
  9
$DIMDSEP
 70
    46
  9
$DIMATFIT
 70
     3
  9
$DIMFRAC
 70
     0
  9
$DIMLDRBLK
  1

  9
$DIMLUNIT
 70
     2
  9
$DIMLWD
 70
    -2
  9
$DIMLWE
 70
    -2
  9
$DIMTMOVE
 70
     0
  9
$DIMFXL
 40
1.0
  9
$DIMFXLON
 70
     0
  9
$DIMJOGANG
 40
0.7853981633974483
  9
$DIMTFILL
 70
     0
  9
$DIMTFILLCLR
 70
     0
  9
$DIMARCSYM
 70
     0
  9
$DIMLTYPE
  6

  9
$DIMLTEX1
  6

  9
$DIMLTEX2
  6

  9
$DIMTXTDIRECTION
 70
     0
  9
$LUNITS
 70
     2
  9
$LUPREC
 70
     4
  9
$SKETCHINC
 40
0.1
  9
$FILLETRAD
 40
0.5
  9
$AUNITS
 70
     0
  9
$AUPREC
 70
     0
  9
$MENU
  1
.
  9
$ELEVATION
 40
0.0
  9
$PELEVATION
 40
0.0
  9
$THICKNESS
 40
0.0
  9
$LIMCHECK
 70
     0
  9
$CHAMFERA
 40
0.5
  9
$CHAMFERB
 40
0.5
  9
$CHAMFERC
 40
1.0
  9
$CHAMFERD
 40
0.0
  9
$SKPOLY
 70
     0
  9
$TDCREATE
 40
2460486.935972222
  9
$TDUCREATE
 40
2460486.602638889
  9
$TDUPDATE
 40
2460486.935972222
  9
$TDUUPDATE
 40
2460486.602638889
  9
$TDINDWG
 40
0.0000000116
  9
$TDUSRTIMER
 40
0.0000000116
  9
$USRTIMER
 70
     1
  9
$ANGBASE
 50
0.0
  9
$ANGDIR
 70
     0
  9
$PDMODE
 70
     0
  9
$PDSIZE
 40
0.0
  9
$PLINEWID
 40
0.0
  9
$SPLFRAME
 70
     0
  9
$SPLINETYPE
 70
     6
  9
$SPLINESEGS
 70
     8
  9
$HANDSEED
  5
62
  9
$SURFTAB1
 70
     6
  9
$SURFTAB2
 70
     6
  9
$SURFTYPE
 70
     6
  9
$SURFU
 70
     6
  9
$SURFV
 70
     6
  9
$UCSBASE
  2

  9
$UCSNAME
  2

  9
$UCSORG
 10
0.0
 20
0.0
 30
0.0
  9
$UCSXDIR
 10
1.0
 20
0.0
 30
0.0
  9
$UCSYDIR
 10
0.0
 20
1.0
 30
0.0
  9
$UCSORTHOREF
  2

  9
$UCSORTHOVIEW
 70
     0
  9
$UCSORGTOP
 10
0.0
 20
0.0
 30
0.0
  9
$UCSORGBOTTOM
 10
0.0
 20
0.0
 30
0.0
  9
$UCSORGLEFT
 10
0.0
 20
0.0
 30
0.0
  9
$UCSORGRIGHT
 10
0.0
 20
0.0
 30
0.0
  9
$UCSORGFRONT
 10
0.0
 20
0.0
 30
0.0
  9
$UCSORGBACK
 10
0.0
 20
0.0
 30
0.0
  9
$PUCSBASE
  2

  9
$PUCSNAME
  2

  9
$PUCSORG
 10
0.0
 20
0.0
 30
0.0
  9
$PUCSXDIR
 10
1.0
 20
0.0
 30
0.0
  9
$PUCSYDIR
 10
0.0
 20
1.0
 30
0.0
  9
$PUCSORTHOREF
  2

  9
$PUCSORTHOVIEW
 70
     0
  9
$PUCSORGTOP
 10
0.0
 20
0.0
 30
0.0
  9
$PUCSORGBOTTOM
 10
0.0
 20
0.0
 30
0.0
  9
$PUCSORGLEFT
 10
0.0
 20
0.0
 30
0.0
  9
$PUCSORGRIGHT
 10
0.0
 20
0.0
 30
0.0
  9
$PUCSORGFRONT
 10
0.0
 20
0.0
 30
0.0
  9
$PUCSORGBACK
 10
0.0
 20
0.0
 30
0.0
  9
$USERI1
 70
     0
  9
$USERI2
 70
     0
  9
$USERI3
 70
     0
  9
$USERI4
 70
     0
  9
$USERI5
 70
     0
  9
$USERR1
 40
0.0
  9
$USERR2
 40
0.0
  9
$USERR3
 40
0.0
  9
$USERR4
 40
0.0
  9
$USERR5
 40
0.0
  9
$WORLDVIEW
 70
     1
  9
$SHADEDGE
 70
     3
  9
$SHADEDIF
 70
    70
  9
$TILEMODE
 70
     1
  9
$MAXACTVP
 70
    64
  9
$PINSBASE
 10
0.0
 20
0.0
 30
0.0
  9
$PLIMCHECK
 70
     0
  9
$PEXTMIN
 10
1.000000000000000E+20
 20
1.000000000000000E+20
 30
1.000000000000000E+20
  9
$PEXTMAX
 10
-1.000000000000000E+20
 20
-1.000000000000000E+20
 30
-1.000000000000000E+20
  9
$PLIMMIN
 10
0.0
 20
0.0
  9
$PLIMMAX
 10
12.0
 20
9.0
  9
$UNITMODE
 70
     0
  9
$VISRETAIN
 70
     1
  9
$PLINEGEN
 70
     0
  9
$PSLTSCALE
 70
     1
  9
$TREEDEPTH
 70
  3020
  9
$CMLSTYLE
  2
Standard
  9
$CMLJUST
 70
     0
  9
$CMLSCALE
 40
1.0
  9
$PROXYGRAPHICS
 70
     1
  9
$MEASUREMENT
 70
     0
  9
$CELWEIGHT
370
    -1
  9
$ENDCAPS
280
     0
  9
$JOINSTYLE
280
     0
  9
$LWDISPLAY
290
     1
  9
$INSUNITS
 70
     4
  9
$HYPERLINKBASE
  1

  9
$STYLESHEET
  1

  9
$XEDIT
290
     1
  9
$CEPSNTYPE
380
     0
  9
$PSTYLEMODE
290
     1
  9
$FINGERPRINTGUID
  2
{B4EB22D8-82FA-15AE-2A54-2FE0EE9EAAAE}
  9
$VERSIONGUID
  2
{FAEB1C32-E019-11D5-929B-00C0DF256EC4}
  9
$EXTNAMES
290
     1
  9
$PSVPSCALE
 40
0.0
  9
$OLESTARTUP
290
     0
  9
$SORTENTS
280
   127
  9
$INDEXCTL
280
     0
  9
$HIDETEXT
280
     1
  9
$XCLIPFRAME
280
     2
  9
$HALOGAP
280
     0
  9
$OBSCOLOR
 70
   257
  9
$OBSLTYPE
280
     0
  9
$INTERSECTIONDISPLAY
280
     0
  9
$INTERSECTIONCOLOR
 70
   257
  9
$DIMASSOC
280
     2
  9
$PROJECTNAME
  1

  9
$CAMERADISPLAY
290
     0
  9
$LENSLENGTH
 40
50.0
  9
$CAMERAHEIGHT
 40
0.0
  9
$STEPSPERSEC
 40
2.0
  9
$STEPSIZE
 40
6.0
  9
$3DDWFPREC
 40
2.0
  9
$PSOLWIDTH
 40
0.25
  9
$PSOLHEIGHT
 40
4.0
  9
$LOFTANG1
 40
1.570796326794897
  9
$LOFTANG2
 40
1.570796326794897
  9
$LOFTMAG1
 40
0.0
  9
$LOFTMAG2
 40
0.0
  9
$LOFTPARAM
 70
     7
  9
$LOFTNORMALS
280
     1
  9
$LATITUDE
 40
37.795
  9
$LONGITUDE
 40
-122.394
  9
$NORTHDIRECTION
 40
0.0
  9
$TIMEZONE
 70
 -8000
  9
$LIGHTGLYPHDISPLAY
280
     1
  9
$TILEMODELIGHTSYNCH
280
     1
  9
$CMATERIAL
347
3C
  9
$SOLIDHIST
280
     1
  9
$SHOWHIST
280
     1
  9
$DWFFRAME
280
     2
  9
$DGNFRAME
280
     2
  9
$REALWORLDSCALE
290
     1
  9
$INTERFERECOLOR
 62
   256
  9
$CSHADOW
280
     0
  9
$SHADOWPLANELOCATION
 40
0.0
  0
ENDSEC
  0
SECTION
  2
CLASSES
  0
CLASS
  1
ACDBDICTIONARYWDFLT
  2
AcDbDictionaryWithDefault
  3
ObjectDBX Classes
 90
        0
 91
        4
280
     0
281
     0
  0
CLASS
  1
VISUALSTYLE
  2
AcDbVisualStyle
  3
ObjectDBX Classes
 90
     4095
 91
        4
280
     0
281
     0
  0
CLASS
  1
MATERIAL
  2
AcDbMaterial
  3
ObjectDBX Classes
 90
     1153
 91
        4
280
     0
281
     0
  0
CLASS
  1
SUN
  2
AcDbSun
  3
SCENEOE
 90
     1024
 91
        4
280
     0
281
     0
  0
ENDSEC
  0
SECTION
  2
TABLES
  0
TABLE
  2
VPORT
  5
8
330
0
100
AcDbSymbolTable
 70
     1
  0
VPORT
  5
29
330
8
100
AcDbSymbolTableRecord
100
AcDbViewportTableRecord
  2
*Active
 70
     0
 10
0.0
 20
0.0
 11
1.0
 21
1.0
 12
0.0
 22
0.0
 13
0.0
 23
0.0
 14
0.5
 24
0.5
 15
0.5
 25
0.5
 16
0.0
 26
0.0
 36
1.0
 17
82.6799457099065
 27
-19.95403563439134
 37
0.0
 40
119.4641565723526
 41
0.8540548444038389
 42
50.0
 43
0.0
 44
0.0
 50
0.0
 51
0.0
 71
     0
 72
   100
 73
     1
 74
     3
 75
     0
 76
     0
 77
     0
 78
     0
281
     0
 65
     1
110
0.0
120
0.0
130
0.0
111
1.0
121
0.0
131
0.0
112
0.0
122
1.0
132
0.0
 79
     0
146
0.0
 60
     3
 61
     5
292
     1
282
     1
141
0.0
142
0.0
 63
   250
361
3F
  0
ENDTAB
  0
TABLE
  2
LTYPE
  5
5
330
0
100
AcDbSymbolTable
 70
     1
  0
LTYPE
  5
14
330
5
100
AcDbSymbolTableRecord
100
AcDbLinetypeTableRecord
  2
ByBlock
 70
     0
  3

 72
    65
 73
     0
 40
0.0
  0
LTYPE
  5
15
330
5
100
AcDbSymbolTableRecord
100
AcDbLinetypeTableRecord
  2
ByLayer
 70
     0
  3

 72
    65
 73
     0
 40
0.0
  0
LTYPE
  5
16
330
5
100
AcDbSymbolTableRecord
100
AcDbLinetypeTableRecord
  2
Continuous
 70
     0
  3
Solid line
 72
    65
 73
     0
 40
0.0
  0
ENDTAB
  0
TABLE
  2
LAYER
  5
2
330
0
100
AcDbSymbolTable
 70
     2
  0
LAYER
  5
10
330
2
100
AcDbSymbolTableRecord
100
AcDbLayerTableRecord
  2
0
 70
     0
 62
     7
  6
Continuous
370
    -3
390
F
347
3E
  0
LAYER
  5
40
330
2
100
AcDbSymbolTableRecord
100
AcDbLayerTableRecord
  2
_U+56FE_U+5C42 1
 70
     0
 62
     7
  6
Continuous
370
    -3
390
F
347
3E
  0
ENDTAB
  0
TABLE
  2
STYLE
  5
3
330
0
100
AcDbSymbolTable
 70
     1
  0
STYLE
  5
11
330
3
100
AcDbSymbolTableRecord
100
AcDbTextStyleTableRecord
  2
Standard
 70
     0
 40
0.0
 41
1.0
 50
0.0
 71
     0
 42
0.2
  3
txt
  4

  0
ENDTAB
  0
TABLE
  2
VIEW
  5
6
330
0
100
AcDbSymbolTable
 70
     0
  0
ENDTAB
  0
TABLE
  2
UCS
  5
7
330
0
100
AcDbSymbolTable
 70
     0
  0
ENDTAB
  0
TABLE
  2
APPID
  5
9
330
0
100
AcDbSymbolTable
 70
     1
  0
APPID
  5
12
330
9
100
AcDbSymbolTableRecord
100
AcDbRegAppTableRecord
  2
ACAD
 70
     0
  0
ENDTAB
  0
TABLE
  2
DIMSTYLE
  5
A
330
0
100
AcDbSymbolTable
 70
     1
100
AcDbDimStyleTable
  0
DIMSTYLE
105
27
330
A
100
AcDbSymbolTableRecord
100
AcDbDimStyleTableRecord
  2
Standard
 70
     0
178
     0
340
11
  0
ENDTAB
  0
TABLE
  2
BLOCK_RECORD
  5
1
330
0
100
AcDbSymbolTable
 70
     4
  0
BLOCK_RECORD
  5
1F
330
1
100
AcDbSymbolTableRecord
100
AcDbBlockTableRecord
  2
*Model_Space
340
22
 70
     0
280
     1
281
     0
  0
BLOCK_RECORD
  5
1B
330
1
100
AcDbSymbolTableRecord
100
AcDbBlockTableRecord
  2
*Paper_Space
340
1E
 70
     0
280
     1
281
     0
  0
BLOCK_RECORD
  5
23
330
1
100
AcDbSymbolTableRecord
100
AcDbBlockTableRecord
  2
*Paper_Space0
340
26
 70
     0
280
     1
281
     0
  0
BLOCK_RECORD
  5
41
330
1
100
AcDbSymbolTableRecord
100
AcDbBlockTableRecord
  2
block 2
340
0
102
{BLKREFS
331
42
102
}
 70
     0
280
     1
281
     0
  0
BLOCK_RECORD
  5
48
330
1
100
AcDbSymbolTableRecord
100
AcDbBlockTableRecord
  2
block 3
340
0
102
{BLKREFS
331
49
102
}
 70
     0
280
     1
281
     0
  0
BLOCK_RECORD
  5
4D
330
1
100
AcDbSymbolTableRecord
100
AcDbBlockTableRecord
  2
block 4
340
0
102
{BLKREFS
331
4E
102
}
 70
     0
280
     1
281
     0
  0
ENDTAB
  0
ENDSEC
  0
SECTION
  2
BLOCKS
  0
BLOCK
  5
20
330
1F
100
AcDbEntity
  8
0
100
AcDbBlockBegin
  2
*Model_Space
 70
     0
 10
0.0
 20
0.0
 30
0.0
  3
*Model_Space
  1

  0
ENDBLK
  5
21
330
1F
100
AcDbEntity
  8
0
100
AcDbBlockEnd
  0
BLOCK
  5
1C
330
1B
100
AcDbEntity
 67
     1
  8
0
100
AcDbBlockBegin
  2
*Paper_Space
 70
     0
 10
0.0
 20
0.0
 30
0.0
  3
*Paper_Space
  1

  0
ENDBLK
  5
1D
330
1B
100
AcDbEntity
 67
     1
  8
0
100
AcDbBlockEnd
  0
BLOCK
  5
24
330
23
100
AcDbEntity
  8
0
100
AcDbBlockBegin
  2
*Paper_Space0
 70
     0
 10
0.0
 20
0.0
 30
0.0
  3
*Paper_Space0
  1

  0
ENDBLK
  5
25
330
23
100
AcDbEntity
  8
0
100
AcDbBlockEnd
  0
BLOCK
  5
43
330
41
100
AcDbEntity
  8
0
100
AcDbBlockBegin
  2
block 2
 70
     0
 10
0.0
 20
0.0
 30
0.0
  3
block 2
  1

  0
SPLINE
  5
45
330
41
100
AcDbEntity
  8
_U+56FE_U+5C42 1
 62
    29
370
     5
100
AcDbSpline
210
0.0
220
0.0
230
1.0
 70
    11
 71
     3
 72
    29
 73
    25
 74
     0
 42
0.0000000001
 43
0.0000000001
 12
1.0
 22
0.0
 32
0.0
 13
1.0
 23
0.0
 33
0.0
 40
0.0
 40
0.0
 40
0.0
 40
0.0
 40
1.0
 40
1.0
 40
1.0
 40
2.0
 40
2.0
 40
2.0
 40
3.0
 40
3.0
 40
3.0
 40
4.0
 40
4.0
 40
4.0
 40
5.0
 40
5.0
 40
5.0
 40
6.0
 40
6.0
 40
6.0
 40
7.0
 40
7.0
 40
7.0
 40
8.0
 40
8.0
 40
8.0
 40
8.0
 10
96.4144792184281
 20
9.059137292747126
 30
0.0
 10
91.42149299246587
 20
14.43619938224442
 30
0.0
 10
89.9034675169242
 20
19.88296197841833
 30
0.0
 10
88.34888608418153
 20
18.69304020309762
 30
0.0
 10
87.58412066451153
 20
18.10766654127983
 30
0.0
 10
87.53272487416928
 20
15.23635743127756
 30
0.0
 10
85.6603550394332
 20
15.86048070952292
 30
0.0
 10
82.94873468555407
 20
16.76435416081607
 30
0.0
 10
82.81150924221032
 20
26.4278503152122
 30
0.0
 10
80.09125501816742
 20
23.39796953140807
 30
0.0
 10
77.18146775377369
 20
20.15698255327129
 30
0.0
 10
76.23418645317774
 20
16.54846079524944
 30
0.0
 10
69.8172256685915
 20
10.14735223943173
 30
0.0
 10
64.44546377194068
 20
4.788860549866673
 30
0.0
 10
61.14351521887207
 20
-0.2114992071907633
 30
0.0
 10
61.14351521887207
 20
-8.31646361453632
 30
0.0
 10
61.14351521887207
 20
-20.21070218826398
 30
0.0
 10
70.78569675813141
 20
-29.85290448361789
 30
0.0
 10
82.67993533185843
 20
-29.85290448361789
 30
0.0
 10
94.57419466168098
 20
-29.85290448361789
 30
0.0
 10
104.2163762009403
 20
-20.21070218826398
 30
0.0
 10
104.2163762009403
 20
-8.31646361453632
 30
0.0
 10
104.2163762009403
 20
-0.926835159177333
 30
0.0
 10
101.9231125201863
 20
3.12676296777655
 30
0.0
 10
96.4144792184281
 20
9.059137292747126
 30
0.0
  0
SPLINE
  5
46
330
41
100
AcDbEntity
  8
_U+56FE_U+5C42 1
 62
    29
370
     5
100
AcDbSpline
210
0.0
220
0.0
230
1.0
 70
    11
 71
     3
 72
    17
 73
    13
 74
     0
 42
0.0000000001
 43
0.0000000001
 12
1.0
 22
0.0
 32
0.0
 13
1.0
 23
0.0
 33
0.0
 40
0.0
 40
0.0
 40
0.0
 40
0.0
 40
1.0
 40
1.0
 40
1.0
 40
2.0
 40
2.0
 40
2.0
 40
3.0
 40
3.0
 40
3.0
 40
4.0
 40
4.0
 40
4.0
 40
4.0
 10
78.08393585480026
 20
-5.833550655289403
 30
0.0
 10
78.08393585480026
 20
-7.434636074813314
 30
0.0
 10
76.78599967341289
 20
-8.732572256201967
 30
0.0
 10
75.18491425388802
 20
-8.732572256201967
 30
0.0
 10
73.58382883436315
 20
-8.732572256201967
 30
0.0
 10
72.28589265297514
 20
-7.434636074813314
 30
0.0
 10
72.28589265297514
 20
-5.833550655289403
 30
0.0
 10
72.28589265297514
 20
-4.232465235764529
 30
0.0
 10
73.58382883436315
 20
-2.934529054376197
 30
0.0
 10
75.18491425388802
 20
-2.934529054376197
 30
0.0
 10
76.78599967341289
 20
-2.934529054376197
 30
0.0
 10
78.08393585480026
 20
-4.232465235764529
 30
0.0
 10
78.08393585480026
 20
-5.833550655289403
 30
0.0
  0
SPLINE
  5
47
330
41
100
AcDbEntity
  8
_U+56FE_U+5C42 1
 62
    29
370
     5
100
AcDbSpline
210
0.0
220
0.0
230
1.0
 70
    11
 71
     3
 72
    17
 73
    13
 74
     0
 42
0.0000000001
 43
0.0000000001
 12
1.0
 22
0.0
 32
0.0
 13
1.0
 23
0.0
 33
0.0
 40
0.0
 40
0.0
 40
0.0
 40
0.0
 40
1.0
 40
1.0
 40
1.0
 40
2.0
 40
2.0
 40
2.0
 40
3.0
 40
3.0
 40
3.0
 40
4.0
 40
4.0
 40
4.0
 40
4.0
 10
93.07399876683726
 20
-5.833550655289403
 30
0.0
 10
93.07399876683726
 20
-7.434636074813314
 30
0.0
 10
91.77606258544893
 20
-8.732572256201967
 30
0.0
 10
90.1749771659247
 20
-8.732572256201967
 30
0.0
 10
88.5738917463995
 20
-8.732572256201967
 30
0.0
 10
87.27595556501213
 20
-7.434636074813314
 30
0.0
 10
87.27595556501213
 20
-5.833550655289403
 30
0.0
 10
87.27595556501213
 20
-4.232465235764529
 30
0.0
 10
88.5738917463995
 20
-2.934529054376197
 30
0.0
 10
90.1749771659247
 20
-2.934529054376197
 30
0.0
 10
91.77606258544893
 20
-2.934529054376197
 30
0.0
 10
93.07399876683726
 20
-4.232465235764529
 30
0.0
 10
93.07399876683726
 20
-5.833550655289403
 30
0.0
  0
INSERT
  5
49
330
41
100
AcDbEntity
  8
_U+56FE_U+5C42 1
100
AcDbBlockReference
  2
block 3
 10
0.0
 20
0.0
 30
0.0
  0
ENDBLK
  5
44
330
41
100
AcDbEntity
  8
0
100
AcDbBlockEnd
  0
BLOCK
  5
4A
330
48
100
AcDbEntity
  8
0
100
AcDbBlockBegin
  2
block 3
 70
     0
 10
0.0
 20
0.0
 30
0.0
  3
block 3
  1

  0
SPLINE
  5
4C
330
48
100
AcDbEntity
  8
_U+56FE_U+5C42 1
 62
    29
370
     5
100
AcDbSpline
210
0.0
220
0.0
230
1.0
 70
    11
 71
     3
 72
    29
 73
    25
 74
     0
 42
0.0000000001
 43
0.0000000001
 12
1.0
 22
0.0
 32
0.0
 13
1.0
 23
0.0
 33
0.0
 40
0.0
 40
0.0
 40
0.0
 40
0.0
 40
1.0
 40
1.0
 40
1.0
 40
2.0
 40
2.0
 40
2.0
 40
3.0
 40
3.0
 40
3.0
 40
4.0
 40
4.0
 40
4.0
 40
5.0
 40
5.0
 40
5.0
 40
6.0
 40
6.0
 40
6.0
 40
7.0
 40
7.0
 40
7.0
 40
8.0
 40
8.0
 40
8.0
 40
8.0
 10
82.67996806640394
 20
-18.47927889771528
 30
0.0
 10
79.4866844041438
 20
-18.47927889771528
 30
0.0
 10
76.48468891092939
 20
-17.23573975015862
 30
0.0
 10
74.22675790165209
 20
-14.97780874088164
 30
0.0
 10
73.67232109918274
 20
-14.42337193841165
 30
0.0
 10
73.67232109918274
 20
-13.52438396339864
 30
0.0
 10
74.22675790165209
 20
-12.96994716092929
 30
0.0
 10
74.78136075287928
 20
-12.41567640721777
 30
0.0
 10
75.68001663037663
 20
-12.41567640721777
 30
0.0
 10
76.23461948160349
 20
-12.96994716092929
 30
0.0
 10
77.9562130030176
 20
-14.69170673110123
 30
0.0
 10
80.2451951300139
 20
-15.63984513843877
 30
0.0
 10
82.67996806640394
 20
-15.63984513843877
 30
0.0
 10
85.11457495403583
 20
-15.63984513843877
 30
0.0
 10
87.40372312978998
 20
-14.69170673110123
 30
0.0
 10
89.12531665120345
 20
-12.96994716092929
 30
0.0
 10
89.67991950243126
 20
-12.41567640721777
 30
0.0
 10
90.57857537992797
 20
-12.41567640721777
 30
0.0
 10
91.13317823115547
 20
-12.96994716092929
 30
0.0
 10
91.68761503362451
 20
-13.52438396339864
 30
0.0
 10
91.68761503362451
 20
-14.42337193841165
 30
0.0
 10
91.13317823115547
 20
-14.97780874088164
 30
0.0
 10
88.87524722187786
 20
-17.23573975015862
 30
0.0
 10
85.87308567990594
 20
-18.47927889771528
 30
0.0
 10
82.67996806640394
 20
-18.47927889771528
 30
0.0
  0
ENDBLK
  5
4B
330
48
100
AcDbEntity
  8
0
100
AcDbBlockEnd
  0
BLOCK
  5
4F
330
4D
100
AcDbEntity
  8
0
100
AcDbBlockBegin
  2
block 4
 70
     0
 10
0.0
 20
0.0
 30
0.0
  3
block 4
  1

  0
SPLINE
  5
51
330
4D
100
AcDbEntity
  8
_U+56FE_U+5C42 1
 62
    29
370
     5
100
AcDbSpline
210
0.0
220
0.0
230
1.0
 70
    11
 71
     3
 72
    65
 73
    61
 74
     0
 42
0.0000000001
 43
0.0000000001
 12
1.0
 22
0.0
 32
0.0
 13
1.0
 23
0.0
 33
0.0
 40
0.0
 40
0.0
 40
0.0
 40
0.0
 40
1.0
 40
1.0
 40
1.0
 40
2.0
 40
2.0
 40
2.0
 40
3.0
 40
3.0
 40
3.0
 40
4.0
 40
4.0
 40
4.0
 40
5.0
 40
5.0
 40
5.0
 40
6.0
 40
6.0
 40
6.0
 40
7.0
 40
7.0
 40
7.0
 40
8.0
 40
8.0
 40
8.0
 40
9.0
 40
9.0
 40
9.0
 40
10.0
 40
10.0
 40
10.0
 40
11.0
 40
11.0
 40
11.0
 40
12.0
 40
12.0
 40
12.0
 40
13.0
 40
13.0
 40
13.0
 40
14.0
 40
14.0
 40
14.0
 40
15.0
 40
15.0
 40
15.0
 40
16.0
 40
16.0
 40
16.0
 40
17.0
 40
17.0
 40
17.0
 40
18.0
 40
18.0
 40
18.0
 40
19.0
 40
19.0
 40
19.0
 40
20.0
 40
20.0
 40
20.0
 40
20.0
 10
58.45732759497768
 20
-39.30905625102343
 30
0.0
 10
57.88268566803801
 20
-38.99641383573701
 30
0.0
 10
57.43223943334159
 20
-38.56474337143521
 30
0.0
 10
57.10633340043696
 20
-38.01352809379523
 30
0.0
 10
56.78025511275806
 20
-37.46248507092952
 30
0.0
 10
56.61730209630575
 20
-36.84064533584193
 30
0.0
 10
56.61730209630575
 20
-36.14835339808097
 30
0.0
 10
56.61730209630575
 20
-35.45606146032002
 30
0.0
 10
56.78197766050069
 20
-34.83439398000668
 30
0.0
 10
57.11132878889057
 20
-34.2831787023667
 30
0.0
 10
57.44067991728046
 20
-33.73213567950099
 30
0.0
 10
57.89267644494524
 20
-33.30012070565066
 30
0.0
 10
58.46731837188491
 20
-32.98765054513851
 30
0.0
 10
59.04213255359885
 20
-32.67518038462634
 30
0.0
 10
59.68550413546925
 20
-32.518773049596
 30
0.0
 10
60.39812213659318
 20
-32.518773049596
 30
0.0
 10
60.97603690424384
 20
-32.518773049596
 30
0.0
 10
61.50365327780985
 20
-32.61971434731382
 30
0.0
 10
61.98097125729122
 20
-32.82125243320094
 30
0.0
 10
62.45811698199832
 20
-33.02296277386232
 30
0.0
 10
62.86136540854682
 20
-33.31527912578576
 30
0.0
 10
63.1907165369367
 20
-33.69837374374555
 30
0.0
 10
63.1907165369367
 20
-33.69837374374555
 30
0.0
 10
62.34391206666229
 20
-34.49487981993531
 30
0.0
 10
62.34391206666229
 20
-34.49487981993531
 30
0.0
 10
61.83300440619974
 20
-33.9438367970696
 30
0.0
 10
61.20461898969017
 20
-33.66822915824961
 30
0.0
 10
60.45858356235932
 20
-33.66822915824961
 30
0.0
 10
59.97454764668171
 20
-33.66822915824961
 30
0.0
 10
59.54115463463728
 20
-33.77399358964678
 30
0.0
 10
59.1580600166775
 20
-33.98569470721538
 30
0.0
 10
58.77496539871772
 20
-34.19739582478399
 30
0.0
 10
58.47575885582377
 20
-34.49160697922432
 30
0.0
 10
58.26078489754418
 20
-34.86798366098787
 30
0.0
 10
58.04546642971606
 20
-35.24436034275141
 30
0.0
 10
57.93815170535053
 20
-35.67120767337386
 30
0.0
 10
57.93815170535053
 20
-36.14835339808097
 30
0.0
 10
57.93815170535053
 20
-36.62567137756233
 30
0.0
 10
58.04546642971606
 20
-37.05234645341053
 30
0.0
 10
58.26078489754418
 20
-37.42872313517407
 30
0.0
 10
58.47575885582377
 20
-37.80527207171188
 30
0.0
 10
58.77496539871772
 20
-38.09913871660369
 30
0.0
 10
59.1580600166775
 20
-38.31083983417229
 30
0.0
 10
59.54115463463728
 20
-38.52254095174089
 30
0.0
 10
59.97454764668171
 20
-38.62847763791233
 30
0.0
 10
60.45858356235932
 20
-38.62847763791233
 30
0.0
 10
61.20461898969017
 20
-38.62847763791233
 30
0.0
 10
61.83300440619974
 20
-38.34959715838135
 30
0.0
 10
62.34391206666229
 20
-37.79166394454514
 30
0.0
 10
62.34391206666229
 20
-37.79166394454514
 30
0.0
 10
63.1907165369367
 20
-38.59816079764213
 30
0.0
 10
63.1907165369367
 20
-38.59816079764213
 30
0.0
 10
62.86136540854682
 20
-38.98125541560191
 30
0.0
 10
62.4563944342557
 20
-39.27374402229962
 30
0.0
 10
61.97597586883761
 20
-39.47528210818674
 30
0.0
 10
61.49521279387099
 20
-39.67699244884812
 30
0.0
 10
60.96604612733662
 20
-39.77776149179167
 30
0.0
 10
60.38795910491169
 20
-39.77776149179167
 30
0.0
 10
59.67551335856203
 20
-39.77776149179167
 30
0.0
 10
59.03196952191736
 20
-39.62152641153559
 30
0.0
 10
58.45732759497768
 20
-39.30905625102343
 30
0.0
  0
SPLINE
  5
52
330
4D
100
AcDbEntity
  8
_U+56FE_U+5C42 1
 62
    29
370
     5
100
AcDbSpline
210
0.0
220
0.0
230
1.0
 70
    11
 71
     3
 72
    53
 73
    49
 74
     0
 42
0.0000000001
 43
0.0000000001
 12
1.0
 22
0.0
 32
0.0
 13
1.0
 23
0.0
 33
0.0
 40
0.0
 40
0.0
 40
0.0
 40
0.0
 40
1.0
 40
1.0
 40
1.0
 40
2.0
 40
2.0
 40
2.0
 40
3.0
 40
3.0
 40
3.0
 40
4.0
 40
4.0
 40
4.0
 40
5.0
 40
5.0
 40
5.0
 40
6.0
 40
6.0
 40
6.0
 40
7.0
 40
7.0
 40
7.0
 40
8.0
 40
8.0
 40
8.0
 40
9.0
 40
9.0
 40
9.0
 40
10.0
 40
10.0
 40
10.0
 40
11.0
 40
11.0
 40
11.0
 40
12.0
 40
12.0
 40
12.0
 40
13.0
 40
13.0
 40
13.0
 40
14.0
 40
14.0
 40
14.0
 40
15.0
 40
15.0
 40
15.0
 40
16.0
 40
16.0
 40
16.0
 40
16.0
 10
70.72186752246711
 20
-32.61971434731382
 30
0.0
 10
70.72186752246711
 20
-32.61971434731382
 30
0.0
 10
70.72186752246711
 20
-39.67699244884812
 30
0.0
 10
70.72186752246711
 20
-39.67699244884812
 30
0.0
 10
70.72186752246711
 20
-39.67699244884812
 30
0.0
 10
69.41118094510381
 20
-39.67699244884812
 30
0.0
 10
69.41118094510381
 20
-39.67699244884812
 30
0.0
 10
69.41118094510381
 20
-39.67699244884812
 30
0.0
 10
69.41118094510381
 20
-37.16043899140978
 30
0.0
 10
69.41118094510381
 20
-37.16043899140978
 30
0.0
 10
69.41118094510381
 20
-36.87984071473974
 30
0.0
 10
69.18371109793709
 20
-36.65237086757302
 30
0.0
 10
68.90311282126704
 20
-36.65237086757302
 30
0.0
 10
68.90311282126704
 20
-36.65237086757302
 30
0.0
 10
66.2733915192701
 20
-36.65237086757302
 30
0.0
 10
66.2733915192701
 20
-36.65237086757302
 30
0.0
 10
65.99074738513482
 20
-36.65237086757302
 30
0.0
 10
65.76161904280438
 20
-36.88149920990346
 30
0.0
 10
65.76161904280438
 20
-37.16414334403873
 30
0.0
 10
65.76161904280438
 20
-37.16414334403873
 30
0.0
 10
65.76161904280438
 20
-39.67699244884812
 30
0.0
 10
65.76161904280438
 20
-39.67699244884812
 30
0.0
 10
65.76161904280438
 20
-39.67699244884812
 30
0.0
 10
64.45093246544108
 20
-39.67699244884812
 30
0.0
 10
64.45093246544108
 20
-39.67699244884812
 30
0.0
 10
64.45093246544108
 20
-39.67699244884812
 30
0.0
 10
64.45093246544108
 20
-32.61971434731382
 30
0.0
 10
64.45093246544108
 20
-32.61971434731382
 30
0.0
 10
64.45093246544108
 20
-32.61971434731382
 30
0.0
 10
65.76161904280438
 20
-32.61971434731382
 30
0.0
 10
65.76161904280438
 20
-32.61971434731382
 30
0.0
 10
65.76161904280438
 20
-32.61971434731382
 30
0.0
 10
65.76161904280438
 20
-35.04934978971361
 30
0.0
 10
65.76161904280438
 20
-35.04934978971361
 30
0.0
 10
65.76161904280438
 20
-35.31668546749283
 30
0.0
 10
65.97833742927543
 20
-35.53340385396388
 30
0.0
 10
66.24567310705466
 20
-35.53340385396388
 30
0.0
 10
66.24567310705466
 20
-35.53340385396388
 30
0.0
 10
68.90650485532127
 20
-35.53340385396388
 30
0.0
 10
68.90650485532127
 20
-35.53340385396388
 30
0.0
 10
69.18522976331228
 20
-35.53340385396388
 30
0.0
 10
69.41118094510381
 20
-35.30745267217235
 30
0.0
 10
69.41118094510381
 20
-35.02872776418134
 30
0.0
 10
69.41118094510381
 20
-35.02872776418134
 30
0.0
 10
69.41118094510381
 20
-32.61971434731382
 30
0.0
 10
69.41118094510381
 20
-32.61971434731382
 30
0.0
 10
69.41118094510381
 20
-32.61971434731382
 30
0.0
 10
70.72186752246711
 20
-32.61971434731382
 30
0.0
 10
70.72186752246711
 20
-32.61971434731382
 30
0.0
  0
SPLINE
  5
53
330
4D
100
AcDbEntity
  8
_U+56FE_U+5C42 1
 62
    29
370
     5
100
AcDbSpline
210
0.0
220
0.0
230
1.0
 70
    11
 71
     3
 72
    53
 73
    49
 74
     0
 42
0.0000000001
 43
0.0000000001
 12
1.0
 22
0.0
 32
0.0
 13
1.0
 23
0.0
 33
0.0
 40
0.0
 40
0.0
 40
0.0
 40
0.0
 40
1.0
 40
1.0
 40
1.0
 40
2.0
 40
2.0
 40
2.0
 40
3.0
 40
3.0
 40
3.0
 40
4.0
 40
4.0
 40
4.0
 40
5.0
 40
5.0
 40
5.0
 40
6.0
 40
6.0
 40
6.0
 40
7.0
 40
7.0
 40
7.0
 40
8.0
 40
8.0
 40
8.0
 40
9.0
 40
9.0
 40
9.0
 40
10.0
 40
10.0
 40
10.0
 40
11.0
 40
11.0
 40
11.0
 40
12.0
 40
12.0
 40
12.0
 40
13.0
 40
13.0
 40
13.0
 40
14.0
 40
14.0
 40
14.0
 40
15.0
 40
15.0
 40
15.0
 40
16.0
 40
16.0
 40
16.0
 40
16.0
 10
92.4378546589652
 20
-32.61971434731382
 30
0.0
 10
92.4378546589652
 20
-32.61971434731382
 30
0.0
 10
92.4378546589652
 20
-39.67699244884812
 30
0.0
 10
92.4378546589652
 20
-39.67699244884812
 30
0.0
 10
92.4378546589652
 20
-39.67699244884812
 30
0.0
 10
91.1271680816019
 20
-39.67699244884812
 30
0.0
 10
91.1271680816019
 20
-39.67699244884812
 30
0.0
 10
91.1271680816019
 20
-39.67699244884812
 30
0.0
 10
91.1271680816019
 20
-37.16043899140978
 30
0.0
 10
91.1271680816019
 20
-37.16043899140978
 30
0.0
 10
91.1271680816019
 20
-36.87984071473974
 30
0.0
 10
90.89969823443518
 20
-36.65237086757302
 30
0.0
 10
90.61909995776513
 20
-36.65237086757302
 30
0.0
 10
90.61909995776513
 20
-36.65237086757302
 30
0.0
 10
87.98937865576819
 20
-36.65237086757302
 30
0.0
 10
87.98937865576819
 20
-36.65237086757302
 30
0.0
 10
87.70673452163292
 20
-36.65237086757302
 30
0.0
 10
87.47760617930248
 20
-36.88149920990346
 30
0.0
 10
87.47760617930248
 20
-37.16414334403873
 30
0.0
 10
87.47760617930248
 20
-37.16414334403873
 30
0.0
 10
87.47760617930248
 20
-39.67699244884812
 30
0.0
 10
87.47760617930248
 20
-39.67699244884812
 30
0.0
 10
87.47760617930248
 20
-39.67699244884812
 30
0.0
 10
86.16691960193917
 20
-39.67699244884812
 30
0.0
 10
86.16691960193917
 20
-39.67699244884812
 30
0.0
 10
86.16691960193917
 20
-39.67699244884812
 30
0.0
 10
86.16691960193917
 20
-32.61971434731382
 30
0.0
 10
86.16691960193917
 20
-32.61971434731382
 30
0.0
 10
86.16691960193917
 20
-32.61971434731382
 30
0.0
 10
87.47760617930248
 20
-32.61971434731382
 30
0.0
 10
87.47760617930248
 20
-32.61971434731382
 30
0.0
 10
87.47760617930248
 20
-32.61971434731382
 30
0.0
 10
87.47760617930248
 20
-35.04934978971361
 30
0.0
 10
87.47760617930248
 20
-35.04934978971361
 30
0.0
 10
87.47760617930248
 20
-35.31668546749283
 30
0.0
 10
87.69432456577351
 20
-35.53340385396388
 30
0.0
 10
87.96166024355274
 20
-35.53340385396388
 30
0.0
 10
87.96166024355274
 20
-35.53340385396388
 30
0.0
 10
90.62249199181936
 20
-35.53340385396388
 30
0.0
 10
90.62249199181936
 20
-35.53340385396388
 30
0.0
 10
90.90121689981036
 20
-35.53340385396388
 30
0.0
 10
91.1271680816019
 20
-35.30745267217235
 30
0.0
 10
91.1271680816019
 20
-35.02872776418134
 30
0.0
 10
91.1271680816019
 20
-35.02872776418134
 30
0.0
 10
91.1271680816019
 20
-32.61971434731382
 30
0.0
 10
91.1271680816019
 20
-32.61971434731382
 30
0.0
 10
91.1271680816019
 20
-32.61971434731382
 30
0.0
 10
92.4378546589652
 20
-32.61971434731382
 30
0.0
 10
92.4378546589652
 20
-32.61971434731382
 30
0.0
  0
SPLINE
  5
54
330
4D
100
AcDbEntity
  8
_U+56FE_U+5C42 1
 62
    29
370
     5
100
AcDbSpline
210
0.0
220
0.0
230
1.0
 70
    11
 71
     3
 72
    35
 73
    31
 74
     0
 42
0.0000000001
 43
0.0000000001
 12
1.0
 22
0.0
 32
0.0
 13
1.0
 23
0.0
 33
0.0
 40
0.0
 40
0.0
 40
0.0
 40
0.0
 40
1.0
 40
1.0
 40
1.0
 40
2.0
 40
2.0
 40
2.0
 40
3.0
 40
3.0
 40
3.0
 40
4.0
 40
4.0
 40
4.0
 40
5.0
 40
5.0
 40
5.0
 40
6.0
 40
6.0
 40
6.0
 40
7.0
 40
7.0
 40
7.0
 40
8.0
 40
8.0
 40
8.0
 40
9.0
 40
9.0
 40
9.0
 40
10.0
 40
10.0
 40
10.0
 40
10.0
 10
76.8678176853804
 20
-38.04367267929117
 30
0.0
 10
76.8678176853804
 20
-38.04367267929117
 30
0.0
 10
73.99259975300382
 20
-38.04367267929117
 30
0.0
 10
73.99259975300382
 20
-38.04367267929117
 30
0.0
 10
73.7943629390265
 20
-38.04367267929117
 30
0.0
 10
73.61528020876148
 20
-38.16204251595474
 30
0.0
 10
73.53759269156996
 20
-38.34442256993119
 30
0.0
 10
73.53759269156996
 20
-38.34442256993119
 30
0.0
 10
72.96996458136688
 20
-39.67699244884812
 30
0.0
 10
72.96996458136688
 20
-39.67699244884812
 30
0.0
 10
72.96996458136688
 20
-39.67699244884812
 30
0.0
 10
71.61897038682616
 20
-39.67699244884812
 30
0.0
 10
71.61897038682616
 20
-39.67699244884812
 30
0.0
 10
71.61897038682616
 20
-39.67699244884812
 30
0.0
 10
74.79483165990372
 20
-32.61971434731382
 30
0.0
 10
74.79483165990372
 20
-32.61971434731382
 30
0.0
 10
74.79483165990372
 20
-32.61971434731382
 30
0.0
 10
76.08536442867832
 20
-32.61971434731382
 30
0.0
 10
76.08536442867832
 20
-32.61971434731382
 30
0.0
 10
76.08536442867832
 20
-32.61971434731382
 30
0.0
 10
79.2712164786631
 20
-39.67699244884812
 30
0.0
 10
79.2712164786631
 20
-39.67699244884812
 30
0.0
 10
79.2712164786631
 20
-39.67699244884812
 30
0.0
 10
77.90006847553367
 20
-39.67699244884812
 30
0.0
 10
77.90006847553367
 20
-39.67699244884812
 30
0.0
 10
77.90006847553367
 20
-39.67699244884812
 30
0.0
 10
77.32385273995408
 20
-38.34341236469773
 30
0.0
 10
77.32385273995408
 20
-38.34341236469773
 30
0.0
 10
77.24524142275875
 20
-38.16147618953339
 30
0.0
 10
77.06601080086273
 20
-38.04367267929117
 30
0.0
 10
76.8678176853804
 20
-38.04367267929117
 30
0.0
  0
SPLINE
  5
55
330
4D
100
AcDbEntity
  8
_U+56FE_U+5C42 1
 62
    29
370
     5
100
AcDbSpline
210
0.0
220
0.0
230
1.0
 70
    11
 71
     3
 72
    23
 73
    19
 74
     0
 42
0.0000000001
 43
0.0000000001
 12
1.0
 22
0.0
 32
0.0
 13
1.0
 23
0.0
 33
0.0
 40
0.0
 40
0.0
 40
0.0
 40
0.0
 40
1.0
 40
1.0
 40
1.0
 40
2.0
 40
2.0
 40
2.0
 40
3.0
 40
3.0
 40
3.0
 40
4.0
 40
4.0
 40
4.0
 40
5.0
 40
5.0
 40
5.0
 40
6.0
 40
6.0
 40
6.0
 40
6.0
 10
76.42971322087209
 20
-36.24786104240914
 30
0.0
 10
76.42971322087209
 20
-36.24786104240914
 30
0.0
 10
75.93662122250551
 20
-35.10480154321845
 30
0.0
 10
75.93662122250551
 20
-35.10480154321845
 30
0.0
 10
75.74539028986207
 20
-34.66150022252943
 30
0.0
 10
75.11651442222642
 20
-34.66237459057124
 30
0.0
 10
74.92651692929903
 20
-35.10620595855423
 30
0.0
 10
74.92651692929903
 20
-35.10620595855423
 30
0.0
 10
74.43719045357076
 20
-36.24926545774493
 30
0.0
 10
74.43719045357076
 20
-36.24926545774493
 30
0.0
 10
74.2819189129565
 20
-36.61197750840392
 30
0.0
 10
74.54799489217969
 20
-37.01531167694409
 30
0.0
 10
74.94254436058358
 20
-37.01531167694409
 30
0.0
 10
74.94254436058358
 20
-37.01531167694409
 30
0.0
 10
75.92496283467875
 20
-37.01531167694409
 30
0.0
 10
75.92496283467875
 20
-37.01531167694409
 30
0.0
 10
76.3201697311101
 20
-37.01531167694409
 30
0.0
 10
76.58625316944935
 20
-36.61074357917033
 30
0.0
 10
76.42971322087209
 20
-36.24786104240914
 30
0.0
  0
POLYLINE
  5
56
330
4D
100
AcDbEntity
  8
_U+56FE_U+5C42 1
 62
    29
370
     5
100
AcDb2dPolyline
 66
     1
 10
0.0
 20
0.0
 30
0.0
  0
VERTEX
  5
57
330
56
100
AcDbEntity
  8
_U+56FE_U+5C42 1
 62
    29
370
     5
100
AcDbVertex
100
AcDb2dVertex
 10
80.16849159779642
 20
-32.61971434731382
 30
0.0
  0
VERTEX
  5
58
330
56
100
AcDbEntity
  8
_U+56FE_U+5C42 1
 62
    29
370
     5
100
AcDbVertex
100
AcDb2dVertex
 10
81.47917817515972
 20
-32.61971434731382
 30
0.0
  0
VERTEX
  5
59
330
56
100
AcDbEntity
  8
_U+56FE_U+5C42 1
 62
    29
370
     5
100
AcDbVertex
100
AcDb2dVertex
 10
81.47917817515972
 20
-39.67699244884812
 30
0.0
  0
VERTEX
  5
5A
330
56
100
AcDbEntity
  8
_U+56FE_U+5C42 1
 62
    29
370
     5
100
AcDbVertex
100
AcDb2dVertex
 10
80.16849159779642
 20
-39.67699244884812
 30
0.0
  0
VERTEX
  5
5B
330
56
100
AcDbEntity
  8
_U+56FE_U+5C42 1
 62
    29
370
     5
100
AcDbVertex
100
AcDb2dVertex
 10
80.16849159779642
 20
-32.61971434731382
 30
0.0
  0
SEQEND
  5
5C
330
56
100
AcDbEntity
  8
_U+56FE_U+5C42 1
 62
    29
370
     5
  0
SPLINE
  5
5D
330
4D
100
AcDbEntity
  8
_U+56FE_U+5C42 1
 62
    29
370
     5
100
AcDbSpline
210
0.0
220
0.0
230
1.0
 70
    11
 71
     3
 72
    41
 73
    37
 74
     0
 42
0.0000000001
 43
0.0000000001
 12
1.0
 22
0.0
 32
0.0
 13
1.0
 23
0.0
 33
0.0
 40
0.0
 40
0.0
 40
0.0
 40
0.0
 40
1.0
 40
1.0
 40
1.0
 40
2.0
 40
2.0
 40
2.0
 40
3.0
 40
3.0
 40
3.0
 40
4.0
 40
4.0
 40
4.0
 40
5.0
 40
5.0
 40
5.0
 40
6.0
 40
6.0
 40
6.0
 40
7.0
 40
7.0
 40
7.0
 40
8.0
 40
8.0
 40
8.0
 40
9.0
 40
9.0
 40
9.0
 40
10.0
 40
10.0
 40
10.0
 40
11.0
 40
11.0
 40
11.0
 40
12.0
 40
12.0
 40
12.0
 40
12.0
 10
95.08937239918772
 20
-38.95610621855958
 30
0.0
 10
94.54504731251825
 20
-38.40833603640486
 30
0.0
 10
94.27288476918352
 20
-37.62371553963921
 30
0.0
 10
94.27288476918352
 20
-36.60207247348837
 30
0.0
 10
94.27288476918352
 20
-36.60207247348837
 30
0.0
 10
94.27288476918352
 20
-32.61971434731382
 30
0.0
 10
94.27288476918352
 20
-32.61971434731382
 30
0.0
 10
94.27288476918352
 20
-32.61971434731382
 30
0.0
 10
95.58339909177256
 20
-32.61971434731382
 30
0.0
 10
95.58339909177256
 20
-32.61971434731382
 30
0.0
 10
95.58339909177256
 20
-32.61971434731382
 30
0.0
 10
95.58339909177256
 20
-36.55160182462946
 30
0.0
 10
95.58339909177256
 20
-36.55160182462946
 30
0.0
 10
95.58339909177256
 20
-37.93635795492563
 30
0.0
 10
96.18163992278619
 20
-38.62847763791233
 30
0.0
 10
97.37812158481346
 20
-38.62847763791233
 30
0.0
 10
98.56771305587023
 20
-38.62847763791233
 30
0.0
 10
99.16250879139861
 20
-37.93635795492563
 30
0.0
 10
99.16250879139861
 20
-36.55160182462946
 30
0.0
 10
99.16250879139861
 20
-36.55160182462946
 30
0.0
 10
99.16250879139861
 20
-32.61971434731382
 30
0.0
 10
99.16250879139861
 20
-32.61971434731382
 30
0.0
 10
99.16250879139861
 20
-32.61971434731382
 30
0.0
 10
100.4530415601732
 20
-32.61971434731382
 30
0.0
 10
100.4530415601732
 20
-32.61971434731382
 30
0.0
 10
100.4530415601732
 20
-32.61971434731382
 30
0.0
 10
100.4530415601732
 20
-36.60207247348837
 30
0.0
 10
100.4530415601732
 20
-36.60207247348837
 30
0.0
 10
100.4530415601732
 20
-37.62371553963921
 30
0.0
 10
100.1824293098068
 20
-38.40833603640486
 30
0.0
 10
99.64137706384834
 20
-38.95610621855958
 30
0.0
 10
99.10032481788986
 20
-39.50404865548857
 30
0.0
 10
98.34240381113489
 20
-39.77776149179167
 30
0.0
 10
97.36795855313197
 20
-39.77776149179167
 30
0.0
 10
96.3933410403548
 20
-39.77776149179167
 30
0.0
 10
95.63386974063147
 20
-39.50404865548857
 30
0.0
 10
95.08937239918772
 20
-38.95610621855958
 30
0.0
  0
SPLINE
  5
5E
330
4D
100
AcDbEntity
  8
_U+56FE_U+5C42 1
 62
    29
370
     5
100
AcDbSpline
210
0.0
220
0.0
230
1.0
 70
    11
 71
     3
 72
    41
 73
    37
 74
     0
 42
0.0000000001
 43
0.0000000001
 12
1.0
 22
0.0
 32
0.0
 13
1.0
 23
0.0
 33
0.0
 40
0.0
 40
0.0
 40
0.0
 40
0.0
 40
1.0
 40
1.0
 40
1.0
 40
2.0
 40
2.0
 40
2.0
 40
3.0
 40
3.0
 40
3.0
 40
4.0
 40
4.0
 40
4.0
 40
5.0
 40
5.0
 40
5.0
 40
6.0
 40
6.0
 40
6.0
 40
7.0
 40
7.0
 40
7.0
 40
8.0
 40
8.0
 40
8.0
 40
9.0
 40
9.0
 40
9.0
 40
10.0
 40
10.0
 40
10.0
 40
11.0
 40
11.0
 40
11.0
 40
12.0
 40
12.0
 40
12.0
 40
12.0
 10
103.638893610158
 20
-39.30905625102343
 30
0.0
 10
103.0606343329588
 20
-38.99641383573701
 30
0.0
 10
102.6070875123257
 20
-38.56302082369258
 30
0.0
 10
102.2777363839358
 20
-38.00836045056736
 30
0.0
 10
101.9483852555459
 20
-37.45387233221639
 30
0.0
 10
101.7837096913509
 20
-36.83392739964569
 30
0.0
 10
101.7837096913509
 20
-36.14835339808097
 30
0.0
 10
101.7837096913509
 20
-35.46277939651625
 30
0.0
 10
101.9483852555459
 20
-34.84266220917128
 30
0.0
 10
102.2777363839358
 20
-34.28817409082032
 30
0.0
 10
102.6070875123257
 20
-33.73368597246936
 30
0.0
 10
103.0606343329588
 20
-33.30012070565066
 30
0.0
 10
103.638893610158
 20
-32.98765054513851
 30
0.0
 10
104.2168083778086
 20
-32.67518038462634
 30
0.0
 10
104.8653476029069
 20
-32.518773049596
 30
0.0
 10
105.5846835402271
 20
-32.518773049596
 30
0.0
 10
106.303847222773
 20
-32.518773049596
 30
0.0
 10
106.9523864478713
 20
-32.67518038462634
 30
0.0
 10
107.5301289607477
 20
-32.98765054513851
 30
0.0
 10
108.1082159831726
 20
-33.30012070565066
 30
0.0
 10
108.5622795681285
 20
-33.73213567950099
 30
0.0
 10
108.8916306965184
 20
-34.2831787023667
 30
0.0
 10
109.2209818249083
 20
-34.83439398000668
 30
0.0
 10
109.3856573891032
 20
-35.45606146032002
 30
0.0
 10
109.3856573891032
 20
-36.14835339808097
 30
0.0
 10
109.3856573891032
 20
-36.84064533584193
 30
0.0
 10
109.2209818249083
 20
-37.46248507092952
 30
0.0
 10
108.8916306965184
 20
-38.01352809379523
 30
0.0
 10
108.5622795681285
 20
-38.56474337143521
 30
0.0
 10
108.1082159831726
 20
-38.99641383573701
 30
0.0
 10
107.5301289607477
 20
-39.30905625102343
 30
0.0
 10
106.9523864478713
 20
-39.62152641153559
 30
0.0
 10
106.303847222773
 20
-39.77776149179167
 30
0.0
 10
105.5846835402271
 20
-39.77776149179167
 30
0.0
 10
104.8653476029069
 20
-39.77776149179167
 30
0.0
 10
104.2168083778086
 20
-39.62152641153559
 30
0.0
 10
103.638893610158
 20
-39.30905625102343
 30
0.0
  0
SPLINE
  5
5F
330
4D
100
AcDbEntity
  8
_U+56FE_U+5C42 1
 62
    29
370
     5
100
AcDbSpline
210
0.0
220
0.0
230
1.0
 70
    11
 71
     3
 72
    41
 73
    37
 74
     0
 42
0.0000000001
 43
0.0000000001
 12
1.0
 22
0.0
 32
0.0
 13
1.0
 23
0.0
 33
0.0
 40
0.0
 40
0.0
 40
0.0
 40
0.0
 40
1.0
 40
1.0
 40
1.0
 40
2.0
 40
2.0
 40
2.0
 40
3.0
 40
3.0
 40
3.0
 40
4.0
 40
4.0
 40
4.0
 40
5.0
 40
5.0
 40
5.0
 40
6.0
 40
6.0
 40
6.0
 40
7.0
 40
7.0
 40
7.0
 40
8.0
 40
8.0
 40
8.0
 40
9.0
 40
9.0
 40
9.0
 40
10.0
 40
10.0
 40
10.0
 40
11.0
 40
11.0
 40
11.0
 40
12.0
 40
12.0
 40
12.0
 40
12.0
 10
106.8548902456387
 20
-38.31083983417229
 30
0.0
 10
107.231094672628
 20
-38.09913871660369
 30
0.0
 10
107.5266838652624
 20
-37.80354952396925
 30
0.0
 10
107.7423468426391
 20
-37.42372774672046
 30
0.0
 10
107.9573208009187
 20
-37.04407822424593
 30
0.0
 10
108.0648077800585
 20
-36.61878118659183
 30
0.0
 10
108.0648077800585
 20
-36.14835339808097
 30
0.0
 10
108.0648077800585
 20
-35.6779256095701
 30
0.0
 10
107.9573208009187
 20
-35.25280082669028
 30
0.0
 10
107.7423468426391
 20
-34.87297904944148
 30
0.0
 10
107.5266838652624
 20
-34.49332952696695
 30
0.0
 10
107.231094672628
 20
-34.19739582478399
 30
0.0
 10
106.8548902456387
 20
-33.98569470721538
 30
0.0
 10
106.4785135638752
 20
-33.77399358964678
 30
0.0
 10
106.055111328738
 20
-33.66822915824961
 30
0.0
 10
105.5846835402271
 20
-33.66822915824961
 30
0.0
 10
105.114083496942
 20
-33.66822915824961
 30
0.0
 10
104.6906812618048
 20
-33.77399358964678
 30
0.0
 10
104.3143045800412
 20
-33.98569470721538
 30
0.0
 10
103.9377556435034
 20
-34.19739582478399
 30
0.0
 10
103.642166450869
 20
-34.49332952696695
 30
0.0
 10
103.4271924925894
 20
-34.87297904944148
 30
0.0
 10
103.2118740247613
 20
-35.25280082669028
 30
0.0
 10
103.1045593003957
 20
-35.6779256095701
 30
0.0
 10
103.1045593003957
 20
-36.14835339808097
 30
0.0
 10
103.1045593003957
 20
-36.61878118659183
 30
0.0
 10
103.2118740247613
 20
-37.04407822424593
 30
0.0
 10
103.4271924925894
 20
-37.42372774672046
 30
0.0
 10
103.642166450869
 20
-37.80354952396925
 30
0.0
 10
103.9377556435034
 20
-38.09913871660369
 30
0.0
 10
104.3143045800412
 20
-38.31083983417229
 30
0.0
 10
104.6906812618048
 20
-38.52254095174089
 30
0.0
 10
105.114083496942
 20
-38.62847763791233
 30
0.0
 10
105.5846835402271
 20
-38.62847763791233
 30
0.0
 10
106.055111328738
 20
-38.62847763791233
 30
0.0
 10
106.4785135638752
 20
-38.52254095174089
 30
0.0
 10
106.8548902456387
 20
-38.31083983417229
 30
0.0
  0
ENDBLK
  5
50
330
4D
100
AcDbEntity
  8
0
100
AcDbBlockEnd
  0
ENDSEC
  0
SECTION
  2
ENTITIES
  0
INSERT
  5
42
330
1F
100
AcDbEntity
  8
_U+56FE_U+5C42 1
100
AcDbBlockReference
  2
block 2
 10
0.0
 20
0.0
 30
0.0
  0
INSERT
  5
4E
330
1F
100
AcDbEntity
  8
_U+56FE_U+5C42 1
100
AcDbBlockReference
  2
block 4
 10
0.0
 20
0.0
 30
0.0
  0
ENDSEC
  0
SECTION
  2
OBJECTS
  0
DICTIONARY
  5
C
330
0
100
AcDbDictionary
281
     1
  3
ACAD_GROUP
350
D
  3
ACAD_LAYOUT
350
1A
  3
ACAD_MATERIAL
350
3B
  3
ACAD_MLEADERSTYLE
350
61
  3
ACAD_MLINESTYLE
350
17
  3
ACAD_PLOTSETTINGS
350
19
  3
ACAD_PLOTSTYLENAME
350
E
  3
ACAD_TABLESTYLE
350
60
  3
ACAD_VISUALSTYLE
350
2A
  0
SUN
  5
3F
330
29
100
AcDbSun
 90
        1
290
     0
 63
     7
421
 16777215
 40
1.0
291
     1
 91
  2455826
 92
 54000000
292
     0
 70
     2
 71
   256
280
     1
  0
DICTIONARY
  5
D
102
{ACAD_REACTORS
330
C
102
}
330
C
100
AcDbDictionary
281
     1
  0
DICTIONARY
  5
1A
102
{ACAD_REACTORS
330
C
102
}
330
C
100
AcDbDictionary
281
     1
  3
Layout1
350
1E
  3
Layout2
350
26
  3
Model
350
22
  0
DICTIONARY
  5
3B
102
{ACAD_REACTORS
330
C
102
}
330
C
100
AcDbDictionary
281
     1
  3
ByBlock
350
3D
  3
ByLayer
350
3C
  3
Global
350
3E
  0
DICTIONARY
  5
61
102
{ACAD_REACTORS
330
C
102
}
330
C
100
AcDbDictionary
281
     1
  0
DICTIONARY
  5
17
102
{ACAD_REACTORS
330
C
102
}
330
C
100
AcDbDictionary
281
     1
  3
Standard
350
18
  0
DICTIONARY
  5
19
102
{ACAD_REACTORS
330
C
102
}
330
C
100
AcDbDictionary
281
     1
  0
ACDBDICTIONARYWDFLT
  5
E
102
{ACAD_REACTORS
330
C
102
}
330
C
100
AcDbDictionary
281
     1
  3
Normal
350
F
100
AcDbDictionaryWithDefault
340
F
  0
DICTIONARY
  5
60
102
{ACAD_REACTORS
330
C
102
}
330
C
100
AcDbDictionary
281
     1
  0
DICTIONARY
  5
2A
102
{ACAD_REACTORS
330
C
102
}
330
C
100
AcDbDictionary
281
     1
  3
2dWireframe
350
2F
  3
3D Hidden
350
31
  3
3dWireframe
350
30
  3
Basic
350
32
  3
Brighten
350
36
  3
ColorChange
350
3A
  3
Conceptual
350
34
  3
Dim
350
35
  3
Facepattern
350
39
  3
Flat
350
2B
  3
FlatWithEdges
350
2C
  3
Gouraud
350
2D
  3
GouraudWithEdges
350
2E
  3
Linepattern
350
38
  3
Realistic
350
33
  3
Thicken
350
37
  0
LAYOUT
  5
1E
102
{ACAD_REACTORS
330
1A
102
}
330
1A
100
AcDbPlotSettings
  1

  2
none_device
  4

  6

 40
0.0
 41
0.0
 42
0.0
 43
0.0
 44
0.0
 45
0.0
 46
0.0
 47
0.0
 48
0.0
 49
0.0
140
0.0
141
0.0
142
1.0
143
1.0
 70
   688
 72
     0
 73
     0
 74
     5
  7

 75
    16
 76
     0
 77
     2
 78
   300
147
1.0
148
0.0
149
0.0
100
AcDbLayout
  1
Layout1
 70
     1
 71
     1
 10
0.0
 20
0.0
 11
12.0
 21
9.0
 12
0.0
 22
0.0
 32
0.0
 14
1.000000000000000E+20
 24
1.000000000000000E+20
 34
1.000000000000000E+20
 15
-1.000000000000000E+20
 25
-1.000000000000000E+20
 35
-1.000000000000000E+20
146
0.0
 13
0.0
 23
0.0
 33
0.0
 16
1.0
 26
0.0
 36
0.0
 17
0.0
 27
1.0
 37
0.0
 76
     0
330
1B
  0
LAYOUT
  5
26
102
{ACAD_REACTORS
330
1A
102
}
330
1A
100
AcDbPlotSettings
  1

  2
none_device
  4

  6

 40
0.0
 41
0.0
 42
0.0
 43
0.0
 44
0.0
 45
0.0
 46
0.0
 47
0.0
 48
0.0
 49
0.0
140
0.0
141
0.0
142
1.0
143
1.0
 70
   688
 72
     0
 73
     0
 74
     5
  7

 75
    16
 76
     0
 77
     2
 78
   300
147
1.0
148
0.0
149
0.0
100
AcDbLayout
  1
Layout2
 70
     1
 71
     2
 10
0.0
 20
0.0
 11
0.0
 21
0.0
 12
0.0
 22
0.0
 32
0.0
 14
0.0
 24
0.0
 34
0.0
 15
0.0
 25
0.0
 35
0.0
146
0.0
 13
0.0
 23
0.0
 33
0.0
 16
1.0
 26
0.0
 36
0.0
 17
0.0
 27
1.0
 37
0.0
 76
     0
330
23
  0
LAYOUT
  5
22
102
{ACAD_REACTORS
330
1A
102
}
330
1A
100
AcDbPlotSettings
  1

  2
none_device
  4

  6

 40
0.0
 41
0.0
 42
0.0
 43
0.0
 44
0.0
 45
0.0
 46
0.0
 47
0.0
 48
0.0
 49
0.0
140
0.0
141
0.0
142
1.0
143
1.0
 70
  1712
 72
     0
 73
     0
 74
     0
  7

 75
     0
 76
     0
 77
     2
 78
   300
147
1.0
148
0.0
149
0.0
100
AcDbLayout
  1
Model
 70
     1
 71
     0
 10
0.0
 20
0.0
 11
12.0
 21
9.0
 12
0.0
 22
0.0
 32
0.0
 14
1.000000000000000E+20
 24
1.000000000000000E+20
 34
1.000000000000000E+20
 15
-1.000000000000000E+20
 25
-1.000000000000000E+20
 35
-1.000000000000000E+20
146
0.0
 13
0.0
 23
0.0
 33
0.0
 16
1.0
 26
0.0
 36
0.0
 17
0.0
 27
1.0
 37
0.0
 76
     0
330
1F
331
29
  0
MATERIAL
  5
3D
102
{ACAD_REACTORS
330
3B
102
}
330
3B
100
AcDbMaterial
  1
ByBlock
 72
     1
 94
      127
  0
MATERIAL
  5
3C
102
{ACAD_REACTORS
330
3B
102
}
330
3B
100
AcDbMaterial
  1
ByLayer
 72
     1
 94
      127
  0
MATERIAL
  5
3E
102
{ACAD_REACTORS
330
3B
102
}
330
3B
100
AcDbMaterial
  1
Global
 72
     1
 94
      127
  0
MLINESTYLE
  5
18
102
{ACAD_REACTORS
330
17
102
}
330
17
100
AcDbMlineStyle
  2
Standard
 70
     0
  3

 62
   256
 51
90.0
 52
90.0
 71
     2
 49
0.5
 62
   256
  6
BYLAYER
 49
-0.5
 62
   256
  6
BYLAYER
  0
ACDBPLACEHOLDER
  5
F
102
{ACAD_REACTORS
330
E
102
}
330
E
  0
VISUALSTYLE
  5
2F
102
{ACAD_REACTORS
330
2A
102
}
330
2A
100
AcDbVisualStyle
  2
2dWireframe
 70
     4
177
     2
291
     0
 71
     0
176
     1
 72
     2
176
     1
 73
     0
176
     1
 90
        0
176
     1
 40
-0.6
176
     1
 41
-30.0
176
     1
 62
     5
 63
     7
421
 16777215
176
     1
 74
     1
176
     1
 91
        4
176
     1
 64
     7
176
     1
 65
   257
176
     1
 75
     1
176
     1
175
     1
176
     1
 42
1.0
176
     1
 92
        0
176
     1
 66
   257
176
     1
 43
1.0
176
     1
 76
     1
176
     1
 77
     6
176
     1
 78
     2
176
     1
 67
     7
176
     1
 79
     5
176
     1
170
     0
176
     1
171
     0
176
     1
290
     0
176
     1
 93
        1
176
     1
 44
0.0
176
     1
173
     0
176
     1
  0
VISUALSTYLE
  5
31
102
{ACAD_REACTORS
330
2A
102
}
330
2A
100
AcDbVisualStyle
  2
3D Hidden
 70
     6
177
     2
291
     0
 71
     1
176
     1
 72
     2
176
     1
 73
     2
176
     1
 90
        0
176
     1
 40
-0.6
176
     1
 41
-30.0
176
     1
 62
     5
 63
     7
421
 16777215
176
     1
 74
     2
176
     1
 91
        2
176
     1
 64
     7
176
     1
 65
   257
176
     1
 75
     2
176
     1
175
     1
176
     1
 42
40.0
176
     1
 92
        0
176
     1
 66
   257
176
     1
 43
1.0
176
     1
 76
     1
176
     1
 77
     6
176
     1
 78
     2
176
     1
 67
     7
176
     1
 79
     3
176
     1
170
     0
176
     1
171
     0
176
     1
290
     0
176
     1
 93
        1
176
     1
 44
0.0
176
     1
173
     0
176
     1
  0
VISUALSTYLE
  5
30
102
{ACAD_REACTORS
330
2A
102
}
330
2A
100
AcDbVisualStyle
  2
3dWireframe
 70
     5
177
     2
291
     0
 71
     0
176
     1
 72
     2
176
     1
 73
     0
176
     1
 90
        0
176
     1
 40
-0.6
176
     1
 41
-30.0
176
     1
 62
     5
 63
     7
421
 16777215
176
     1
 74
     1
176
     1
 91
        4
176
     1
 64
     7
176
     1
 65
   257
176
     1
 75
     1
176
     1
175
     1
176
     1
 42
1.0
176
     1
 92
        0
176
     1
 66
   257
176
     1
 43
1.0
176
     1
 76
     1
176
     1
 77
     6
176
     1
 78
     2
176
     1
 67
     7
176
     1
 79
     5
176
     1
170
     0
176
     1
171
     0
176
     1
290
     0
176
     1
 93
        1
176
     1
 44
0.0
176
     1
173
     0
176
     1
  0
VISUALSTYLE
  5
32
102
{ACAD_REACTORS
330
2A
102
}
330
2A
100
AcDbVisualStyle
  2
Basic
 70
     7
177
     2
291
     1
 71
     1
176
     1
 72
     0
176
     1
 73
     1
176
     1
 90
        0
176
     1
 40
-0.6
176
     1
 41
-30.0
176
     1
 62
     5
 63
     7
421
 16777215
176
     1
 74
     0
176
     1
 91
        4
176
     1
 64
     7
176
     1
 65
   257
176
     1
 75
     1
176
     1
175
     1
176
     1
 42
1.0
176
     1
 92
        8
176
     1
 66
     7
176
     1
 43
1.0
176
     1
 76
     1
176
     1
 77
     6
176
     1
 78
     2
176
     1
 67
     7
176
     1
 79
     5
176
     1
170
     0
176
     1
171
     0
176
     1
290
     0
176
     1
 93
        1
176
     1
 44
0.0
176
     1
173
     0
176
     1
  0
VISUALSTYLE
  5
36
102
{ACAD_REACTORS
330
2A
102
}
330
2A
100
AcDbVisualStyle
  2
Brighten
 70
    12
177
     2
291
     1
 71
     2
176
     1
 72
     2
176
     1
 73
     0
176
     1
 90
        0
176
     1
 40
-0.6
176
     1
 41
-30.0
176
     1
 62
     5
 63
     7
421
 16777215
176
     1
 74
     1
176
     1
 91
        4
176
     1
 64
     7
176
     1
 65
   257
176
     1
 75
     1
176
     1
175
     1
176
     1
 42
1.0
176
     1
 92
        8
176
     1
 66
     7
176
     1
 43
1.0
176
     1
 76
     1
176
     1
 77
     6
176
     1
 78
     2
176
     1
 67
     7
176
     1
 79
     5
176
     1
170
     0
176
     1
171
     0
176
     1
290
     0
176
     1
 93
        1
176
     1
 44
50.0
176
     1
173
     0
176
     1
  0
VISUALSTYLE
  5
3A
102
{ACAD_REACTORS
330
2A
102
}
330
2A
100
AcDbVisualStyle
  2
ColorChange
 70
    16
177
     2
291
     1
 71
     2
176
     1
 72
     2
176
     1
 73
     3
176
     1
 90
        0
176
     1
 40
-0.6
176
     1
 41
-30.0
176
     1
 62
     5
 63
     8
421
  8421504
176
     1
 74
     1
176
     1
 91
        4
176
     1
 64
     7
176
     1
 65
   257
176
     1
 75
     1
176
     1
175
     1
176
     1
 42
1.0
176
     1
 92
        8
176
     1
 66
     8
424
  8421504
176
     1
 43
1.0
176
     1
 76
     1
176
     1
 77
     6
176
     1
 78
     2
176
     1
 67
     7
176
     1
 79
     5
176
     1
170
     0
176
     1
171
     0
176
     1
290
     0
176
     1
 93
        1
176
     1
 44
0.0
176
     1
173
     0
176
     1
  0
VISUALSTYLE
  5
34
102
{ACAD_REACTORS
330
2A
102
}
330
2A
100
AcDbVisualStyle
  2
Conceptual
 70
     9
177
     2
291
     0
 71
     3
176
     1
 72
     2
176
     1
 73
     0
176
     1
 90
        0
176
     1
 40
-0.6
176
     1
 41
-30.0
176
     1
 62
     5
 63
     7
421
 16777215
176
     1
 74
     2
176
     1
 91
        2
176
     1
 64
     7
176
     1
 65
   257
176
     1
 75
     1
176
     1
175
     1
176
     1
 42
40.0
176
     1
 92
        8
176
     1
 66
     7
176
     1
 43
1.0
176
     1
 76
     1
176
     1
 77
     6
176
     1
 78
     2
176
     1
 67
     7
176
     1
 79
     3
176
     1
170
     0
176
     1
171
     0
176
     1
290
     0
176
     1
 93
        1
176
     1
 44
0.0
176
     1
173
     0
176
     1
  0
VISUALSTYLE
  5
35
102
{ACAD_REACTORS
330
2A
102
}
330
2A
100
AcDbVisualStyle
  2
Dim
 70
    11
177
     2
291
     1
 71
     2
176
     1
 72
     2
176
     1
 73
     0
176
     1
 90
        0
176
     1
 40
-0.6
176
     1
 41
-30.0
176
     1
 62
     5
 63
     7
421
 16777215
176
     1
 74
     1
176
     1
 91
        4
176
     1
 64
     7
176
     1
 65
   257
176
     1
 75
     1
176
     1
175
     1
176
     1
 42
1.0
176
     1
 92
        8
176
     1
 66
     7
176
     1
 43
1.0
176
     1
 76
     1
176
     1
 77
     6
176
     1
 78
     2
176
     1
 67
     7
176
     1
 79
     5
176
     1
170
     0
176
     1
171
     0
176
     1
290
     0
176
     1
 93
        1
176
     1
 44
-50.0
176
     1
173
     0
176
     1
  0
VISUALSTYLE
  5
39
102
{ACAD_REACTORS
330
2A
102
}
330
2A
100
AcDbVisualStyle
  2
Facepattern
 70
    15
177
     2
291
     1
 71
     2
176
     1
 72
     2
176
     1
 73
     0
176
     1
 90
        0
176
     1
 40
-0.6
176
     1
 41
-30.0
176
     1
 62
     5
 63
     7
421
 16777215
176
     1
 74
     1
176
     1
 91
        4
176
     1
 64
     7
176
     1
 65
   257
176
     1
 75
     1
176
     1
175
     1
176
     1
 42
1.0
176
     1
 92
        8
176
     1
 66
     7
176
     1
 43
1.0
176
     1
 76
     1
176
     1
 77
     6
176
     1
 78
     2
176
     1
 67
     7
176
     1
 79
     5
176
     1
170
     0
176
     1
171
     0
176
     1
290
     0
176
     1
 93
        1
176
     1
 44
0.0
176
     1
173
     0
176
     1
  0
VISUALSTYLE
  5
2B
102
{ACAD_REACTORS
330
2A
102
}
330
2A
100
AcDbVisualStyle
  2
Flat
 70
     0
177
     2
291
     1
 71
     2
176
     1
 72
     1
176
     1
 73
     1
176
     1
 90
        2
176
     1
 40
-0.6
176
     1
 41
30.0
176
     1
 62
     5
 63
     7
421
 16777215
176
     1
 74
     0
176
     1
 91
        4
176
     1
 64
     7
176
     1
 65
   257
176
     1
 75
     1
176
     1
175
     1
176
     1
 42
1.0
176
     1
 92
        8
176
     1
 66
     7
176
     1
 43
1.0
176
     1
 76
     1
176
     1
 77
     6
176
     1
 78
     2
176
     1
 67
     7
176
     1
 79
     5
176
     1
170
     0
176
     1
171
     0
176
     1
290
     0
176
     1
 93
       13
176
     1
 44
0.0
176
     1
173
     0
176
     1
  0
VISUALSTYLE
  5
2C
102
{ACAD_REACTORS
330
2A
102
}
330
2A
100
AcDbVisualStyle
  2
FlatWithEdges
 70
     1
177
     2
291
     1
 71
     2
176
     1
 72
     1
176
     1
 73
     1
176
     1
 90
        2
176
     1
 40
-0.6
176
     1
 41
30.0
176
     1
 62
     5
 63
     7
421
 16777215
176
     1
 74
     1
176
     1
 91
        4
176
     1
 64
     7
176
     1
 65
   257
176
     1
 75
     1
176
     1
175
     1
176
     1
 42
1.0
176
     1
 92
        0
176
     1
 66
   257
176
     1
 43
1.0
176
     1
 76
     1
176
     1
 77
     6
176
     1
 78
     2
176
     1
 67
     7
176
     1
 79
     5
176
     1
170
     0
176
     1
171
     0
176
     1
290
     0
176
     1
 93
       13
176
     1
 44
0.0
176
     1
173
     0
176
     1
  0
VISUALSTYLE
  5
2D
102
{ACAD_REACTORS
330
2A
102
}
330
2A
100
AcDbVisualStyle
  2
Gouraud
 70
     2
177
     2
291
     1
 71
     2
176
     1
 72
     2
176
     1
 73
     1
176
     1
 90
        2
176
     1
 40
-0.6
176
     1
 41
30.0
176
     1
 62
     5
 63
     7
421
 16777215
176
     1
 74
     0
176
     1
 91
        4
176
     1
 64
     7
176
     1
 65
   257
176
     1
 75
     1
176
     1
175
     1
176
     1
 42
1.0
176
     1
 92
        0
176
     1
 66
     7
176
     1
 43
1.0
176
     1
 76
     1
176
     1
 77
     6
176
     1
 78
     2
176
     1
 67
     7
176
     1
 79
     5
176
     1
170
     0
176
     1
171
     0
176
     1
290
     0
176
     1
 93
       13
176
     1
 44
0.0
176
     1
173
     0
176
     1
  0
VISUALSTYLE
  5
2E
102
{ACAD_REACTORS
330
2A
102
}
330
2A
100
AcDbVisualStyle
  2
GouraudWithEdges
 70
     3
177
     2
291
     1
 71
     2
176
     1
 72
     2
176
     1
 73
     1
176
     1
 90
        2
176
     1
 40
-0.6
176
     1
 41
30.0
176
     1
 62
     5
 63
     7
421
 16777215
176
     1
 74
     1
176
     1
 91
        4
176
     1
 64
     7
176
     1
 65
   257
176
     1
 75
     1
176
     1
175
     1
176
     1
 42
1.0
176
     1
 92
        0
176
     1
 66
   257
176
     1
 43
1.0
176
     1
 76
     1
176
     1
 77
     6
176
     1
 78
     2
176
     1
 67
     7
176
     1
 79
     5
176
     1
170
     0
176
     1
171
     0
176
     1
290
     0
176
     1
 93
       13
176
     1
 44
0.0
176
     1
173
     0
176
     1
  0
VISUALSTYLE
  5
38
102
{ACAD_REACTORS
330
2A
102
}
330
2A
100
AcDbVisualStyle
  2
Linepattern
 70
    14
177
     2
291
     1
 71
     2
176
     1
 72
     2
176
     1
 73
     0
176
     1
 90
        0
176
     1
 40
-0.6
176
     1
 41
-30.0
176
     1
 62
     5
 63
     7
421
 16777215
176
     1
 74
     1
176
     1
 91
        4
176
     1
 64
     7
176
     1
 65
   257
176
     1
 75
     7
176
     1
175
     7
176
     1
 42
1.0
176
     1
 92
        8
176
     1
 66
     7
176
     1
 43
1.0
176
     1
 76
     1
176
     1
 77
     6
176
     1
 78
     2
176
     1
 67
     7
176
     1
 79
     5
176
     1
170
     0
176
     1
171
     0
176
     1
290
     0
176
     1
 93
        1
176
     1
 44
0.0
176
     1
173
     0
176
     1
  0
VISUALSTYLE
  5
33
102
{ACAD_REACTORS
330
2A
102
}
330
2A
100
AcDbVisualStyle
  2
Realistic
 70
     8
177
     2
291
     0
 71
     2
176
     1
 72
     2
176
     1
 73
     0
176
     1
 90
        0
176
     1
 40
-0.6
176
     1
 41
-30.0
176
     1
 62
     5
 63
     7
421
 16777215
176
     1
 74
     1
176
     1
 91
        0
176
     1
 64
     7
176
     1
 65
   257
176
     1
 75
     1
176
     1
175
     1
176
     1
 42
1.0
176
     1
 92
        8
176
     1
 66
     8
424
  7895160
176
     1
 43
1.0
176
     1
 76
     1
176
     1
 77
     6
176
     1
 78
     2
176
     1
 67
     7
176
     1
 79
     5
176
     1
170
     0
176
     1
171
     0
176
     1
290
     0
176
     1
 93
       13
176
     1
 44
0.0
176
     1
173
     0
176
     1
  0
VISUALSTYLE
  5
37
102
{ACAD_REACTORS
330
2A
102
}
330
2A
100
AcDbVisualStyle
  2
Thicken
 70
    13
177
     2
291
     1
 71
     2
176
     1
 72
     2
176
     1
 73
     0
176
     1
 90
        0
176
     1
 40
-0.6
176
     1
 41
-30.0
176
     1
 62
     5
 63
     7
421
 16777215
176
     1
 74
     1
176
     1
 91
        4
176
     1
 64
     7
176
     1
 65
   257
176
     1
 75
     1
176
     1
175
     1
176
     1
 42
1.0
176
     1
 92
       12
176
     1
 66
     7
176
     1
 43
1.0
176
     1
 76
     1
176
     1
 77
     6
176
     1
 78
     2
176
     1
 67
     7
176
     1
 79
     5
176
     1
170
     0
176
     1
171
     0
176
     1
290
     0
176
     1
 93
        1
176
     1
 44
0.0
176
     1
173
     0
176
     1
  0
ENDSEC
  0
EOF
