ISO-10303-21;
HEADER;
/* Generated by software containing ST-Developer
 * from STEP Tools, Inc. (www.steptools.com) 
 */
/* OPTION: using custom renumber hook */

FILE_DESCRIPTION(
/* description */ ('STEP AP242',
'CAx-IF Rec.Pracs.---Representation and Presentation of Product Manufa
cturing Information (PMI)---4.0---2014-10-13',
'CAx-IF Rec.Pracs.---3D Tessellated Geometry---0.4---2014-09-14','2;1'),

/* implementation_level */ '2;1');

FILE_NAME(
/* name */ '6688de1413c7c435970f626b',
/* time_stamp */ '2024-07-06T06:03:01Z',
/* author */ (''),
/* organization */ (''),
/* preprocessor_version */ 'ST-DEVELOPER v20',
/* originating_system */ '  ',
/* authorisation */ '  ');

FILE_SCHEMA (('AP242_MANAGED_MODEL_BASED_3D_ENGINEERING_MIM_LF { 1 0 10303 442 1 1 4 }'));
ENDSEC;

DATA;
#10=SHAPE_REPRESENTATION_RELATIONSHIP('','',#321,#11);
#11=ADVANCED_BREP_SHAPE_REPRESENTATION('',(#319),#511);
#12=CIRCLE('',#325,0.05);
#13=CIRCLE('',#326,0.05);
#14=CIRCLE('',#335,0.05);
#15=CIRCLE('',#336,0.05);
#16=CYLINDRICAL_SURFACE('',#324,0.05);
#17=CYLINDRICAL_SURFACE('',#334,0.05);
#18=ORIENTED_EDGE('',*,*,#102,.F.);
#19=ORIENTED_EDGE('',*,*,#103,.F.);
#20=ORIENTED_EDGE('',*,*,#104,.T.);
#21=ORIENTED_EDGE('',*,*,#105,.T.);
#22=ORIENTED_EDGE('',*,*,#106,.F.);
#23=ORIENTED_EDGE('',*,*,#107,.F.);
#24=ORIENTED_EDGE('',*,*,#108,.T.);
#25=ORIENTED_EDGE('',*,*,#103,.T.);
#26=ORIENTED_EDGE('',*,*,#109,.F.);
#27=ORIENTED_EDGE('',*,*,#110,.F.);
#28=ORIENTED_EDGE('',*,*,#111,.T.);
#29=ORIENTED_EDGE('',*,*,#107,.T.);
#30=ORIENTED_EDGE('',*,*,#112,.F.);
#31=ORIENTED_EDGE('',*,*,#113,.F.);
#32=ORIENTED_EDGE('',*,*,#114,.T.);
#33=ORIENTED_EDGE('',*,*,#110,.T.);
#34=ORIENTED_EDGE('',*,*,#115,.F.);
#35=ORIENTED_EDGE('',*,*,#116,.F.);
#36=ORIENTED_EDGE('',*,*,#117,.T.);
#37=ORIENTED_EDGE('',*,*,#113,.T.);
#38=ORIENTED_EDGE('',*,*,#118,.T.);
#39=ORIENTED_EDGE('',*,*,#119,.F.);
#40=ORIENTED_EDGE('',*,*,#120,.F.);
#41=ORIENTED_EDGE('',*,*,#116,.T.);
#42=ORIENTED_EDGE('',*,*,#121,.F.);
#43=ORIENTED_EDGE('',*,*,#122,.F.);
#44=ORIENTED_EDGE('',*,*,#123,.T.);
#45=ORIENTED_EDGE('',*,*,#119,.T.);
#46=ORIENTED_EDGE('',*,*,#124,.F.);
#47=ORIENTED_EDGE('',*,*,#125,.F.);
#48=ORIENTED_EDGE('',*,*,#126,.T.);
#49=ORIENTED_EDGE('',*,*,#122,.T.);
#50=ORIENTED_EDGE('',*,*,#127,.F.);
#51=ORIENTED_EDGE('',*,*,#128,.F.);
#52=ORIENTED_EDGE('',*,*,#129,.T.);
#53=ORIENTED_EDGE('',*,*,#125,.T.);
#54=ORIENTED_EDGE('',*,*,#130,.F.);
#55=ORIENTED_EDGE('',*,*,#131,.F.);
#56=ORIENTED_EDGE('',*,*,#132,.T.);
#57=ORIENTED_EDGE('',*,*,#128,.T.);
#58=ORIENTED_EDGE('',*,*,#133,.F.);
#59=ORIENTED_EDGE('',*,*,#134,.F.);
#60=ORIENTED_EDGE('',*,*,#135,.T.);
#61=ORIENTED_EDGE('',*,*,#131,.T.);
#62=ORIENTED_EDGE('',*,*,#136,.F.);
#63=ORIENTED_EDGE('',*,*,#137,.F.);
#64=ORIENTED_EDGE('',*,*,#138,.T.);
#65=ORIENTED_EDGE('',*,*,#134,.T.);
#66=ORIENTED_EDGE('',*,*,#139,.F.);
#67=ORIENTED_EDGE('',*,*,#140,.F.);
#68=ORIENTED_EDGE('',*,*,#141,.T.);
#69=ORIENTED_EDGE('',*,*,#137,.T.);
#70=ORIENTED_EDGE('',*,*,#142,.T.);
#71=ORIENTED_EDGE('',*,*,#105,.F.);
#72=ORIENTED_EDGE('',*,*,#143,.F.);
#73=ORIENTED_EDGE('',*,*,#140,.T.);
#74=ORIENTED_EDGE('',*,*,#104,.F.);
#75=ORIENTED_EDGE('',*,*,#108,.F.);
#76=ORIENTED_EDGE('',*,*,#111,.F.);
#77=ORIENTED_EDGE('',*,*,#114,.F.);
#78=ORIENTED_EDGE('',*,*,#117,.F.);
#79=ORIENTED_EDGE('',*,*,#120,.T.);
#80=ORIENTED_EDGE('',*,*,#123,.F.);
#81=ORIENTED_EDGE('',*,*,#126,.F.);
#82=ORIENTED_EDGE('',*,*,#129,.F.);
#83=ORIENTED_EDGE('',*,*,#132,.F.);
#84=ORIENTED_EDGE('',*,*,#135,.F.);
#85=ORIENTED_EDGE('',*,*,#138,.F.);
#86=ORIENTED_EDGE('',*,*,#141,.F.);
#87=ORIENTED_EDGE('',*,*,#143,.T.);
#88=ORIENTED_EDGE('',*,*,#102,.T.);
#89=ORIENTED_EDGE('',*,*,#142,.F.);
#90=ORIENTED_EDGE('',*,*,#139,.T.);
#91=ORIENTED_EDGE('',*,*,#136,.T.);
#92=ORIENTED_EDGE('',*,*,#133,.T.);
#93=ORIENTED_EDGE('',*,*,#130,.T.);
#94=ORIENTED_EDGE('',*,*,#127,.T.);
#95=ORIENTED_EDGE('',*,*,#124,.T.);
#96=ORIENTED_EDGE('',*,*,#121,.T.);
#97=ORIENTED_EDGE('',*,*,#118,.F.);
#98=ORIENTED_EDGE('',*,*,#115,.T.);
#99=ORIENTED_EDGE('',*,*,#112,.T.);
#100=ORIENTED_EDGE('',*,*,#109,.T.);
#101=ORIENTED_EDGE('',*,*,#106,.T.);
#102=EDGE_CURVE('',#144,#145,#172,.T.);
#103=EDGE_CURVE('',#146,#144,#173,.T.);
#104=EDGE_CURVE('',#146,#147,#174,.T.);
#105=EDGE_CURVE('',#147,#145,#175,.T.);
#106=EDGE_CURVE('',#148,#144,#12,.T.);
#107=EDGE_CURVE('',#149,#148,#176,.T.);
#108=EDGE_CURVE('',#149,#146,#13,.T.);
#109=EDGE_CURVE('',#150,#148,#177,.T.);
#110=EDGE_CURVE('',#151,#150,#178,.T.);
#111=EDGE_CURVE('',#151,#149,#179,.T.);
#112=EDGE_CURVE('',#152,#150,#180,.T.);
#113=EDGE_CURVE('',#153,#152,#181,.T.);
#114=EDGE_CURVE('',#153,#151,#182,.T.);
#115=EDGE_CURVE('',#154,#152,#183,.T.);
#116=EDGE_CURVE('',#155,#154,#184,.T.);
#117=EDGE_CURVE('',#155,#153,#185,.T.);
#118=EDGE_CURVE('',#154,#156,#186,.T.);
#119=EDGE_CURVE('',#157,#156,#187,.T.);
#120=EDGE_CURVE('',#155,#157,#188,.T.);
#121=EDGE_CURVE('',#158,#156,#189,.T.);
#122=EDGE_CURVE('',#159,#158,#190,.T.);
#123=EDGE_CURVE('',#159,#157,#191,.T.);
#124=EDGE_CURVE('',#160,#158,#192,.T.);
#125=EDGE_CURVE('',#161,#160,#193,.T.);
#126=EDGE_CURVE('',#161,#159,#194,.T.);
#127=EDGE_CURVE('',#162,#160,#195,.T.);
#128=EDGE_CURVE('',#163,#162,#196,.T.);
#129=EDGE_CURVE('',#163,#161,#197,.T.);
#130=EDGE_CURVE('',#164,#162,#14,.T.);
#131=EDGE_CURVE('',#165,#164,#198,.T.);
#132=EDGE_CURVE('',#165,#163,#15,.T.);
#133=EDGE_CURVE('',#166,#164,#199,.T.);
#134=EDGE_CURVE('',#167,#166,#200,.T.);
#135=EDGE_CURVE('',#167,#165,#201,.T.);
#136=EDGE_CURVE('',#168,#166,#202,.T.);
#137=EDGE_CURVE('',#169,#168,#203,.T.);
#138=EDGE_CURVE('',#169,#167,#204,.T.);
#139=EDGE_CURVE('',#170,#168,#205,.T.);
#140=EDGE_CURVE('',#171,#170,#206,.T.);
#141=EDGE_CURVE('',#171,#169,#207,.T.);
#142=EDGE_CURVE('',#170,#145,#208,.T.);
#143=EDGE_CURVE('',#171,#147,#209,.T.);
#144=VERTEX_POINT('',#426);
#145=VERTEX_POINT('',#427);
#146=VERTEX_POINT('',#429);
#147=VERTEX_POINT('',#431);
#148=VERTEX_POINT('',#435);
#149=VERTEX_POINT('',#437);
#150=VERTEX_POINT('',#441);
#151=VERTEX_POINT('',#443);
#152=VERTEX_POINT('',#447);
#153=VERTEX_POINT('',#449);
#154=VERTEX_POINT('',#453);
#155=VERTEX_POINT('',#455);
#156=VERTEX_POINT('',#459);
#157=VERTEX_POINT('',#461);
#158=VERTEX_POINT('',#465);
#159=VERTEX_POINT('',#467);
#160=VERTEX_POINT('',#471);
#161=VERTEX_POINT('',#473);
#162=VERTEX_POINT('',#477);
#163=VERTEX_POINT('',#479);
#164=VERTEX_POINT('',#483);
#165=VERTEX_POINT('',#485);
#166=VERTEX_POINT('',#489);
#167=VERTEX_POINT('',#491);
#168=VERTEX_POINT('',#495);
#169=VERTEX_POINT('',#497);
#170=VERTEX_POINT('',#501);
#171=VERTEX_POINT('',#503);
#172=LINE('',#425,#210);
#173=LINE('',#428,#211);
#174=LINE('',#430,#212);
#175=LINE('',#432,#213);
#176=LINE('',#436,#214);
#177=LINE('',#440,#215);
#178=LINE('',#442,#216);
#179=LINE('',#444,#217);
#180=LINE('',#446,#218);
#181=LINE('',#448,#219);
#182=LINE('',#450,#220);
#183=LINE('',#452,#221);
#184=LINE('',#454,#222);
#185=LINE('',#456,#223);
#186=LINE('',#458,#224);
#187=LINE('',#460,#225);
#188=LINE('',#462,#226);
#189=LINE('',#464,#227);
#190=LINE('',#466,#228);
#191=LINE('',#468,#229);
#192=LINE('',#470,#230);
#193=LINE('',#472,#231);
#194=LINE('',#474,#232);
#195=LINE('',#476,#233);
#196=LINE('',#478,#234);
#197=LINE('',#480,#235);
#198=LINE('',#484,#236);
#199=LINE('',#488,#237);
#200=LINE('',#490,#238);
#201=LINE('',#492,#239);
#202=LINE('',#494,#240);
#203=LINE('',#496,#241);
#204=LINE('',#498,#242);
#205=LINE('',#500,#243);
#206=LINE('',#502,#244);
#207=LINE('',#504,#245);
#208=LINE('',#506,#246);
#209=LINE('',#507,#247);
#210=VECTOR('',#347,1.);
#211=VECTOR('',#348,1.);
#212=VECTOR('',#349,1.);
#213=VECTOR('',#350,1.);
#214=VECTOR('',#355,1.);
#215=VECTOR('',#360,1.);
#216=VECTOR('',#361,1.);
#217=VECTOR('',#362,1.);
#218=VECTOR('',#365,1.);
#219=VECTOR('',#366,1.);
#220=VECTOR('',#367,1.);
#221=VECTOR('',#370,1.);
#222=VECTOR('',#371,1.);
#223=VECTOR('',#372,1.);
#224=VECTOR('',#375,1.);
#225=VECTOR('',#376,1.);
#226=VECTOR('',#377,1.);
#227=VECTOR('',#380,1.);
#228=VECTOR('',#381,1.);
#229=VECTOR('',#382,1.);
#230=VECTOR('',#385,1.);
#231=VECTOR('',#386,1.);
#232=VECTOR('',#387,1.);
#233=VECTOR('',#390,1.);
#234=VECTOR('',#391,1.);
#235=VECTOR('',#392,1.);
#236=VECTOR('',#397,1.);
#237=VECTOR('',#402,1.);
#238=VECTOR('',#403,1.);
#239=VECTOR('',#404,1.);
#240=VECTOR('',#407,1.);
#241=VECTOR('',#408,1.);
#242=VECTOR('',#409,1.);
#243=VECTOR('',#412,1.);
#244=VECTOR('',#413,1.);
#245=VECTOR('',#414,1.);
#246=VECTOR('',#417,1.);
#247=VECTOR('',#418,1.);
#248=EDGE_LOOP('',(#18,#19,#20,#21));
#249=EDGE_LOOP('',(#22,#23,#24,#25));
#250=EDGE_LOOP('',(#26,#27,#28,#29));
#251=EDGE_LOOP('',(#30,#31,#32,#33));
#252=EDGE_LOOP('',(#34,#35,#36,#37));
#253=EDGE_LOOP('',(#38,#39,#40,#41));
#254=EDGE_LOOP('',(#42,#43,#44,#45));
#255=EDGE_LOOP('',(#46,#47,#48,#49));
#256=EDGE_LOOP('',(#50,#51,#52,#53));
#257=EDGE_LOOP('',(#54,#55,#56,#57));
#258=EDGE_LOOP('',(#58,#59,#60,#61));
#259=EDGE_LOOP('',(#62,#63,#64,#65));
#260=EDGE_LOOP('',(#66,#67,#68,#69));
#261=EDGE_LOOP('',(#70,#71,#72,#73));
#262=EDGE_LOOP('',(#74,#75,#76,#77,#78,#79,#80,#81,#82,#83,#84,#85,#86,
#87));
#263=EDGE_LOOP('',(#88,#89,#90,#91,#92,#93,#94,#95,#96,#97,#98,#99,#100,
#101));
#264=FACE_BOUND('',#248,.T.);
#265=FACE_BOUND('',#249,.T.);
#266=FACE_BOUND('',#250,.T.);
#267=FACE_BOUND('',#251,.T.);
#268=FACE_BOUND('',#252,.T.);
#269=FACE_BOUND('',#253,.T.);
#270=FACE_BOUND('',#254,.T.);
#271=FACE_BOUND('',#255,.T.);
#272=FACE_BOUND('',#256,.T.);
#273=FACE_BOUND('',#257,.T.);
#274=FACE_BOUND('',#258,.T.);
#275=FACE_BOUND('',#259,.T.);
#276=FACE_BOUND('',#260,.T.);
#277=FACE_BOUND('',#261,.T.);
#278=FACE_BOUND('',#262,.T.);
#279=FACE_BOUND('',#263,.T.);
#280=PLANE('',#323);
#281=PLANE('',#327);
#282=PLANE('',#328);
#283=PLANE('',#329);
#284=PLANE('',#330);
#285=PLANE('',#331);
#286=PLANE('',#332);
#287=PLANE('',#333);
#288=PLANE('',#337);
#289=PLANE('',#338);
#290=PLANE('',#339);
#291=PLANE('',#340);
#292=PLANE('',#341);
#293=PLANE('',#342);
#294=ADVANCED_FACE('',(#264),#280,.T.);
#295=ADVANCED_FACE('',(#265),#16,.T.);
#296=ADVANCED_FACE('',(#266),#281,.T.);
#297=ADVANCED_FACE('',(#267),#282,.T.);
#298=ADVANCED_FACE('',(#268),#283,.T.);
#299=ADVANCED_FACE('',(#269),#284,.F.);
#300=ADVANCED_FACE('',(#270),#285,.T.);
#301=ADVANCED_FACE('',(#271),#286,.T.);
#302=ADVANCED_FACE('',(#272),#287,.T.);
#303=ADVANCED_FACE('',(#273),#17,.T.);
#304=ADVANCED_FACE('',(#274),#288,.T.);
#305=ADVANCED_FACE('',(#275),#289,.T.);
#306=ADVANCED_FACE('',(#276),#290,.T.);
#307=ADVANCED_FACE('',(#277),#291,.F.);
#308=ADVANCED_FACE('',(#278),#292,.T.);
#309=ADVANCED_FACE('',(#279),#293,.F.);
#310=CLOSED_SHELL('',(#294,#295,#296,#297,#298,#299,#300,#301,#302,#303,
#304,#305,#306,#307,#308,#309));
#311=STYLED_ITEM('',(#312),#319);
#312=PRESENTATION_STYLE_ASSIGNMENT((#313));
#313=SURFACE_STYLE_USAGE(.BOTH.,#314);
#314=SURFACE_SIDE_STYLE('',(#315));
#315=SURFACE_STYLE_FILL_AREA(#316);
#316=FILL_AREA_STYLE('',(#317));
#317=FILL_AREA_STYLE_COLOUR('',#318);
#318=COLOUR_RGB('',0.647058823529412,0.647058823529412,0.647058823529412);
#319=MANIFOLD_SOLID_BREP('Part 2',#310);
#320=SHAPE_DEFINITION_REPRESENTATION(#516,#321);
#321=SHAPE_REPRESENTATION('Part 2',(#322),#511);
#322=AXIS2_PLACEMENT_3D('',#423,#343,#344);
#323=AXIS2_PLACEMENT_3D('',#424,#345,#346);
#324=AXIS2_PLACEMENT_3D('',#433,#351,#352);
#325=AXIS2_PLACEMENT_3D('',#434,#353,#354);
#326=AXIS2_PLACEMENT_3D('',#438,#356,#357);
#327=AXIS2_PLACEMENT_3D('',#439,#358,#359);
#328=AXIS2_PLACEMENT_3D('',#445,#363,#364);
#329=AXIS2_PLACEMENT_3D('',#451,#368,#369);
#330=AXIS2_PLACEMENT_3D('',#457,#373,#374);
#331=AXIS2_PLACEMENT_3D('',#463,#378,#379);
#332=AXIS2_PLACEMENT_3D('',#469,#383,#384);
#333=AXIS2_PLACEMENT_3D('',#475,#388,#389);
#334=AXIS2_PLACEMENT_3D('',#481,#393,#394);
#335=AXIS2_PLACEMENT_3D('',#482,#395,#396);
#336=AXIS2_PLACEMENT_3D('',#486,#398,#399);
#337=AXIS2_PLACEMENT_3D('',#487,#400,#401);
#338=AXIS2_PLACEMENT_3D('',#493,#405,#406);
#339=AXIS2_PLACEMENT_3D('',#499,#410,#411);
#340=AXIS2_PLACEMENT_3D('',#505,#415,#416);
#341=AXIS2_PLACEMENT_3D('',#508,#419,#420);
#342=AXIS2_PLACEMENT_3D('',#509,#421,#422);
#343=DIRECTION('',(0.,0.,1.));
#344=DIRECTION('',(1.,0.,0.));
#345=DIRECTION('',(0.,0.,-1.));
#346=DIRECTION('',(-1.,0.,0.));
#347=DIRECTION('',(-1.,0.,0.));
#348=DIRECTION('',(0.,1.,0.));
#349=DIRECTION('',(-1.,0.,0.));
#350=DIRECTION('',(0.,1.,0.));
#351=DIRECTION('',(0.,1.,0.));
#352=DIRECTION('',(0.,0.,1.));
#353=DIRECTION('',(0.,1.,0.));
#354=DIRECTION('',(0.,0.,-1.));
#355=DIRECTION('',(0.,1.,0.));
#356=DIRECTION('',(0.,1.,0.));
#357=DIRECTION('',(0.,0.,-1.));
#358=DIRECTION('',(0.986393923832144,0.,0.164398987305357));
#359=DIRECTION('',(0.164398987305357,0.,-0.986393923832144));
#360=DIRECTION('',(0.164398987305357,0.,-0.986393923832144));
#361=DIRECTION('',(0.,1.,0.));
#362=DIRECTION('',(0.164398987305357,0.,-0.986393923832144));
#363=DIRECTION('',(0.,0.,1.));
#364=DIRECTION('',(1.,0.,0.));
#365=DIRECTION('',(1.,0.,0.));
#366=DIRECTION('',(0.,1.,0.));
#367=DIRECTION('',(1.,0.,0.));
#368=DIRECTION('',(1.,0.,0.));
#369=DIRECTION('',(0.,0.,-1.));
#370=DIRECTION('',(0.,0.,-1.));
#371=DIRECTION('',(0.,1.,0.));
#372=DIRECTION('',(0.,0.,-1.));
#373=DIRECTION('',(-1.38777878078145E-16,0.,-1.));
#374=DIRECTION('',(-1.,0.,1.38777878078145E-16));
#375=DIRECTION('',(-1.,0.,1.38777878078145E-16));
#376=DIRECTION('',(0.,1.,0.));
#377=DIRECTION('',(-1.,0.,1.38777878078145E-16));
#378=DIRECTION('',(-1.,0.,0.));
#379=DIRECTION('',(0.,0.,1.));
#380=DIRECTION('',(0.,0.,1.));
#381=DIRECTION('',(0.,1.,0.));
#382=DIRECTION('',(0.,0.,1.));
#383=DIRECTION('',(5.55111512312578E-16,0.,1.));
#384=DIRECTION('',(1.,0.,-5.55111512312578E-16));
#385=DIRECTION('',(1.,0.,-5.55111512312578E-16));
#386=DIRECTION('',(0.,1.,0.));
#387=DIRECTION('',(1.,0.,-5.55111512312578E-16));
#388=DIRECTION('',(-0.986393923832144,0.,0.164398987305357));
#389=DIRECTION('',(0.164398987305357,0.,0.986393923832144));
#390=DIRECTION('',(0.164398987305357,0.,0.986393923832144));
#391=DIRECTION('',(0.,1.,0.));
#392=DIRECTION('',(0.164398987305357,0.,0.986393923832144));
#393=DIRECTION('',(0.,1.,0.));
#394=DIRECTION('',(0.,0.,1.));
#395=DIRECTION('',(0.,1.,0.));
#396=DIRECTION('',(0.,0.,-1.));
#397=DIRECTION('',(0.,1.,0.));
#398=DIRECTION('',(0.,1.,0.));
#399=DIRECTION('',(0.,0.,-1.));
#400=DIRECTION('',(0.,0.,-1.));
#401=DIRECTION('',(-1.,0.,0.));
#402=DIRECTION('',(-1.,0.,0.));
#403=DIRECTION('',(0.,1.,0.));
#404=DIRECTION('',(-1.,0.,0.));
#405=DIRECTION('',(1.,0.,0.));
#406=DIRECTION('',(0.,0.,-1.));
#407=DIRECTION('',(0.,0.,-1.));
#408=DIRECTION('',(0.,1.,0.));
#409=DIRECTION('',(0.,0.,-1.));
#410=DIRECTION('',(0.,0.,-1.));
#411=DIRECTION('',(-1.,0.,0.));
#412=DIRECTION('',(-1.,0.,0.));
#413=DIRECTION('',(0.,1.,0.));
#414=DIRECTION('',(-1.,0.,0.));
#415=DIRECTION('',(1.,0.,0.));
#416=DIRECTION('',(0.,0.,-1.));
#417=DIRECTION('',(0.,0.,-1.));
#418=DIRECTION('',(0.,0.,-1.));
#419=DIRECTION('',(0.,-1.,0.));
#420=DIRECTION('',(1.,0.,0.));
#421=DIRECTION('',(0.,-1.,0.));
#422=DIRECTION('',(1.,0.,0.));
#423=CARTESIAN_POINT('',(0.,0.,0.));
#424=CARTESIAN_POINT('',(-0.720306292943041,-0.0185,-0.6));
#425=CARTESIAN_POINT('',(-0.720306292943041,0.,-0.6));
#426=CARTESIAN_POINT('',(-0.60444280348595,0.,-0.6));
#427=CARTESIAN_POINT('',(-0.836169782400131,0.,-0.6));
#428=CARTESIAN_POINT('',(-0.60444280348595,-0.0185,-0.6));
#429=CARTESIAN_POINT('',(-0.60444280348595,-0.0185,-0.6));
#430=CARTESIAN_POINT('',(-0.720306292943041,-0.0185,-0.6));
#431=CARTESIAN_POINT('',(-0.836169782400131,-0.0185,-0.6));
#432=CARTESIAN_POINT('',(-0.836169782400131,-0.0185,-0.6));
#433=CARTESIAN_POINT('',(-0.60444280348595,-0.0185,-0.55));
#434=CARTESIAN_POINT('',(-0.60444280348595,0.,-0.55));
#435=CARTESIAN_POINT('',(-0.555123107294343,0.,-0.541780050634732));
#436=CARTESIAN_POINT('',(-0.555123107294343,-0.0185,-0.541780050634732));
#437=CARTESIAN_POINT('',(-0.555123107294343,-0.0185,-0.541780050634732));
#438=CARTESIAN_POINT('',(-0.60444280348595,-0.0185,-0.55));
#439=CARTESIAN_POINT('',(-0.600271444847237,-0.0185,-0.270890025317366));
#440=CARTESIAN_POINT('',(-0.600271444847237,0.,-0.270890025317366));
#441=CARTESIAN_POINT('',(-0.645419782400131,0.,0.));
#442=CARTESIAN_POINT('',(-0.645419782400131,-0.0185,0.));
#443=CARTESIAN_POINT('',(-0.645419782400131,-0.0185,0.));
#444=CARTESIAN_POINT('',(-0.600271444847237,-0.0185,-0.270890025317366));
#445=CARTESIAN_POINT('',(-0.695419782400131,-0.0185,0.));
#446=CARTESIAN_POINT('',(-0.695419782400131,0.,0.));
#447=CARTESIAN_POINT('',(-0.745419782400131,0.,0.));
#448=CARTESIAN_POINT('',(-0.745419782400131,-0.0185,0.));
#449=CARTESIAN_POINT('',(-0.745419782400131,-0.0185,0.));
#450=CARTESIAN_POINT('',(-0.695419782400131,-0.0185,0.));
#451=CARTESIAN_POINT('',(-0.745419782400131,-0.0185,0.00925));
#452=CARTESIAN_POINT('',(-0.745419782400131,0.,0.00925));
#453=CARTESIAN_POINT('',(-0.745419782400131,0.,0.0185));
#454=CARTESIAN_POINT('',(-0.745419782400131,-0.0185,0.0185));
#455=CARTESIAN_POINT('',(-0.745419782400131,-0.0185,0.0185));
#456=CARTESIAN_POINT('',(-0.745419782400131,-0.0185,0.00925));
#457=CARTESIAN_POINT('',(-0.845419782400131,-0.0185,0.0185));
#458=CARTESIAN_POINT('',(-0.845419782400131,0.,0.0185));
#459=CARTESIAN_POINT('',(-0.945419782400131,0.,0.0185));
#460=CARTESIAN_POINT('',(-0.945419782400131,-0.0185,0.0185));
#461=CARTESIAN_POINT('',(-0.945419782400131,-0.0185,0.0185));
#462=CARTESIAN_POINT('',(-0.845419782400131,-0.0185,0.0185));
#463=CARTESIAN_POINT('',(-0.945419782400131,-0.0185,0.00925));
#464=CARTESIAN_POINT('',(-0.945419782400131,0.,0.00925));
#465=CARTESIAN_POINT('',(-0.945419782400131,0.,0.));
#466=CARTESIAN_POINT('',(-0.945419782400131,-0.0185,0.));
#467=CARTESIAN_POINT('',(-0.945419782400131,-0.0185,0.));
#468=CARTESIAN_POINT('',(-0.945419782400131,-0.0185,0.00925));
#469=CARTESIAN_POINT('',(-0.995419782400131,-0.0185,2.77555756156289E-17));
#470=CARTESIAN_POINT('',(-0.995419782400131,0.,2.77555756156289E-17));
#471=CARTESIAN_POINT('',(-1.04541978240013,0.,5.55111512312578E-17));
#472=CARTESIAN_POINT('',(-1.04541978240013,-0.0185,5.55111512312578E-17));
#473=CARTESIAN_POINT('',(-1.04541978240013,-0.0185,5.55111512312578E-17));
#474=CARTESIAN_POINT('',(-0.995419782400131,-0.0185,2.77555756156289E-17));
#475=CARTESIAN_POINT('',(-1.09056811995303,-0.0185,-0.270890025317366));
#476=CARTESIAN_POINT('',(-1.09056811995303,0.,-0.270890025317366));
#477=CARTESIAN_POINT('',(-1.13571645750592,0.,-0.541780050634732));
#478=CARTESIAN_POINT('',(-1.13571645750592,-0.0185,-0.541780050634732));
#479=CARTESIAN_POINT('',(-1.13571645750592,-0.0185,-0.541780050634732));
#480=CARTESIAN_POINT('',(-1.09056811995303,-0.0185,-0.270890025317366));
#481=CARTESIAN_POINT('',(-1.08639676131431,-0.0185,-0.55));
#482=CARTESIAN_POINT('',(-1.08639676131431,0.,-0.55));
#483=CARTESIAN_POINT('',(-1.08639676131431,0.,-0.6));
#484=CARTESIAN_POINT('',(-1.08639676131431,-0.0185,-0.6));
#485=CARTESIAN_POINT('',(-1.08639676131431,-0.0185,-0.6));
#486=CARTESIAN_POINT('',(-1.08639676131431,-0.0185,-0.55));
#487=CARTESIAN_POINT('',(-0.970239017196616,-0.0185,-0.6));
#488=CARTESIAN_POINT('',(-0.970239017196616,0.,-0.6));
#489=CARTESIAN_POINT('',(-0.854081273078919,0.,-0.6));
#490=CARTESIAN_POINT('',(-0.854081273078919,-0.0185,-0.6));
#491=CARTESIAN_POINT('',(-0.854081273078919,-0.0185,-0.6));
#492=CARTESIAN_POINT('',(-0.970239017196616,-0.0185,-0.6));
#493=CARTESIAN_POINT('',(-0.854081273078919,-0.0185,-0.44075));
#494=CARTESIAN_POINT('',(-0.854081273078919,0.,-0.44075));
#495=CARTESIAN_POINT('',(-0.854081273078919,0.,-0.2815));
#496=CARTESIAN_POINT('',(-0.854081273078919,-0.0185,-0.2815));
#497=CARTESIAN_POINT('',(-0.854081273078919,-0.0185,-0.2815));
#498=CARTESIAN_POINT('',(-0.854081273078919,-0.0185,-0.44075));
#499=CARTESIAN_POINT('',(-0.845125527739525,-0.0185,-0.2815));
#500=CARTESIAN_POINT('',(-0.845125527739525,0.,-0.2815));
#501=CARTESIAN_POINT('',(-0.836169782400131,0.,-0.2815));
#502=CARTESIAN_POINT('',(-0.836169782400131,-0.0185,-0.2815));
#503=CARTESIAN_POINT('',(-0.836169782400131,-0.0185,-0.2815));
#504=CARTESIAN_POINT('',(-0.845125527739525,-0.0185,-0.2815));
#505=CARTESIAN_POINT('',(-0.836169782400131,-0.0185,-0.44075));
#506=CARTESIAN_POINT('',(-0.836169782400131,0.,-0.44075));
#507=CARTESIAN_POINT('',(-0.836169782400131,-0.0185,-0.44075));
#508=CARTESIAN_POINT('',(-0.449072271585465,-0.0185,0.0381893084049227));
#509=CARTESIAN_POINT('',(-0.449072271585465,0.,0.0381893084049227));
#510=MECHANICAL_DESIGN_GEOMETRIC_PRESENTATION_REPRESENTATION('',(#311),
#511);
#511=(
GEOMETRIC_REPRESENTATION_CONTEXT(3)
GLOBAL_UNCERTAINTY_ASSIGNED_CONTEXT((#512))
GLOBAL_UNIT_ASSIGNED_CONTEXT((#515,#514,#513))
REPRESENTATION_CONTEXT('Part 2','TOP_LEVEL_ASSEMBLY_PART')
);
#512=UNCERTAINTY_MEASURE_WITH_UNIT(LENGTH_MEASURE(5.E-6),#515,
'DISTANCE_ACCURACY_VALUE','Maximum Tolerance applied to model');
#513=(
NAMED_UNIT(*)
SI_UNIT($,.STERADIAN.)
SOLID_ANGLE_UNIT()
);
#514=(
NAMED_UNIT(*)
PLANE_ANGLE_UNIT()
SI_UNIT($,.RADIAN.)
);
#515=(
LENGTH_UNIT()
NAMED_UNIT(*)
SI_UNIT($,.METRE.)
);
#516=PRODUCT_DEFINITION_SHAPE('','',#517);
#517=PRODUCT_DEFINITION('','',#519,#518);
#518=PRODUCT_DEFINITION_CONTEXT('',#525,'design');
#519=PRODUCT_DEFINITION_FORMATION_WITH_SPECIFIED_SOURCE('','',#521,
 .NOT_KNOWN.);
#520=PRODUCT_RELATED_PRODUCT_CATEGORY('','',(#521));
#521=PRODUCT('Part 2','Part 2','Part 2',(#523));
#522=PRODUCT_CATEGORY('','');
#523=PRODUCT_CONTEXT('',#525,'mechanical');
#524=APPLICATION_PROTOCOL_DEFINITION('international standard',
'ap242_managed_model_based_3d_engineering',2011,#525);
#525=APPLICATION_CONTEXT('managed model based 3d engineering');
ENDSEC;
END-ISO-10303-21;
