  0
SECTION
  2
HEADER
  9
$ACADVER
  1
AC1024
  9
$ACADMAINTVER
 70
     6
  9
$DWGCODEPAGE
  3
UNDEFINED
  9
$INSBASE
 10
0.0
 20
0.0
 30
0.0
  9
$EXTMIN
 10
1.000000000000000E+20
 20
1.000000000000000E+20
 30
1.000000000000000E+20
  9
$EXTMAX
 10
-1.000000000000000E+20
 20
-1.000000000000000E+20
 30
-1.000000000000000E+20
  9
$LIMMIN
 10
0.0
 20
0.0
  9
$LIMMAX
 10
12.0
 20
9.0
  9
$ORTHOMODE
 70
     0
  9
$REGENMODE
 70
     1
  9
$FILLMODE
 70
     1
  9
$QTEXTMODE
 70
     0
  9
$MIRRTEXT
 70
     1
  9
$LTSCALE
 40
1.0
  9
$ATTMODE
 70
     1
  9
$TEXTSIZE
 40
0.2
  9
$TRACEWID
 40
0.05
  9
$TEXTSTYLE
  7
Standard
  9
$CLAYER
  8
0
  9
$CELTYPE
  6
ByLayer
  9
$CECOLOR
 62
   256
  9
$CELTSCALE
 40
1.0
  9
$DISPSILH
 70
     0
  9
$DIMSCALE
 40
1.0
  9
$DIMASZ
 40
0.18
  9
$DIMEXO
 40
0.0625
  9
$DIMDLI
 40
0.38
  9
$DIMRND
 40
0.0
  9
$DIMDLE
 40
0.0
  9
$DIMEXE
 40
0.18
  9
$DIMTP
 40
0.0
  9
$DIMTM
 40
0.0
  9
$DIMTXT
 40
0.18
  9
$DIMCEN
 40
0.09
  9
$DIMTSZ
 40
0.0
  9
$DIMTOL
 70
     0
  9
$DIMLIM
 70
     0
  9
$DIMTIH
 70
     1
  9
$DIMTOH
 70
     1
  9
$DIMSE1
 70
     0
  9
$DIMSE2
 70
     0
  9
$DIMTAD
 70
     0
  9
$DIMZIN
 70
     0
  9
$DIMBLK
  1

  9
$DIMASO
 70
     1
  9
$DIMSHO
 70
     1
  9
$DIMPOST
  1

  9
$DIMAPOST
  1

  9
$DIMALT
 70
     0
  9
$DIMALTD
 70
     2
  9
$DIMALTF
 40
25.4
  9
$DIMLFAC
 40
1.0
  9
$DIMTOFL
 70
     0
  9
$DIMTVP
 40
0.0
  9
$DIMTIX
 70
     0
  9
$DIMSOXD
 70
     0
  9
$DIMSAH
 70
     0
  9
$DIMBLK1
  1

  9
$DIMBLK2
  1

  9
$DIMSTYLE
  2
Standard
  9
$DIMCLRD
 70
     0
  9
$DIMCLRE
 70
     0
  9
$DIMCLRT
 70
     0
  9
$DIMTFAC
 40
1.0
  9
$DIMGAP
 40
0.09
  9
$DIMJUST
 70
     0
  9
$DIMSD1
 70
     0
  9
$DIMSD2
 70
     0
  9
$DIMTOLJ
 70
     1
  9
$DIMTZIN
 70
     0
  9
$DIMALTZ
 70
     0
  9
$DIMALTTZ
 70
     0
  9
$DIMUPT
 70
     0
  9
$DIMDEC
 70
     4
  9
$DIMTDEC
 70
     4
  9
$DIMALTU
 70
     2
  9
$DIMALTTD
 70
     2
  9
$DIMTXSTY
  7
Standard
  9
$DIMAUNIT
 70
     0
  9
$DIMADEC
 70
     0
  9
$DIMALTRND
 40
0.0
  9
$DIMAZIN
 70
     0
  9
$DIMDSEP
 70
    46
  9
$DIMATFIT
 70
     3
  9
$DIMFRAC
 70
     0
  9
$DIMLDRBLK
  1

  9
$DIMLUNIT
 70
     2
  9
$DIMLWD
 70
    -2
  9
$DIMLWE
 70
    -2
  9
$DIMTMOVE
 70
     0
  9
$DIMFXL
 40
1.0
  9
$DIMFXLON
 70
     0
  9
$DIMJOGANG
 40
0.7853981633974483
  9
$DIMTFILL
 70
     0
  9
$DIMTFILLCLR
 70
     0
  9
$DIMARCSYM
 70
     0
  9
$DIMLTYPE
  6

  9
$DIMLTEX1
  6

  9
$DIMLTEX2
  6

  9
$DIMTXTDIRECTION
 70
     0
  9
$LUNITS
 70
     2
  9
$LUPREC
 70
     4
  9
$SKETCHINC
 40
0.1
  9
$FILLETRAD
 40
0.5
  9
$AUNITS
 70
     0
  9
$AUPREC
 70
     0
  9
$MENU
  1
.
  9
$ELEVATION
 40
0.0
  9
$PELEVATION
 40
0.0
  9
$THICKNESS
 40
0.0
  9
$LIMCHECK
 70
     0
  9
$CHAMFERA
 40
0.5
  9
$CHAMFERB
 40
0.5
  9
$CHAMFERC
 40
1.0
  9
$CHAMFERD
 40
0.0
  9
$SKPOLY
 70
     0
  9
$TDCREATE
 40
2460463.9415625
  9
$TDUCREATE
 40
2460463.608229167
  9
$TDUPDATE
 40
2460463.9415625
  9
$TDUUPDATE
 40
2460463.608229167
  9
$TDINDWG
 40
0.0000000116
  9
$TDUSRTIMER
 40
0.0000000116
  9
$USRTIMER
 70
     1
  9
$ANGBASE
 50
0.0
  9
$ANGDIR
 70
     0
  9
$PDMODE
 70
     0
  9
$PDSIZE
 40
0.0
  9
$PLINEWID
 40
0.0
  9
$SPLFRAME
 70
     0
  9
$SPLINETYPE
 70
     6
  9
$SPLINESEGS
 70
     8
  9
$HANDSEED
  5
1CC
  9
$SURFTAB1
 70
     6
  9
$SURFTAB2
 70
     6
  9
$SURFTYPE
 70
     6
  9
$SURFU
 70
     6
  9
$SURFV
 70
     6
  9
$UCSBASE
  2

  9
$UCSNAME
  2

  9
$UCSORG
 10
0.0
 20
0.0
 30
0.0
  9
$UCSXDIR
 10
1.0
 20
0.0
 30
0.0
  9
$UCSYDIR
 10
0.0
 20
1.0
 30
0.0
  9
$UCSORTHOREF
  2

  9
$UCSORTHOVIEW
 70
     0
  9
$UCSORGTOP
 10
0.0
 20
0.0
 30
0.0
  9
$UCSORGBOTTOM
 10
0.0
 20
0.0
 30
0.0
  9
$UCSORGLEFT
 10
0.0
 20
0.0
 30
0.0
  9
$UCSORGRIGHT
 10
0.0
 20
0.0
 30
0.0
  9
$UCSORGFRONT
 10
0.0
 20
0.0
 30
0.0
  9
$UCSORGBACK
 10
0.0
 20
0.0
 30
0.0
  9
$PUCSBASE
  2

  9
$PUCSNAME
  2

  9
$PUCSORG
 10
0.0
 20
0.0
 30
0.0
  9
$PUCSXDIR
 10
1.0
 20
0.0
 30
0.0
  9
$PUCSYDIR
 10
0.0
 20
1.0
 30
0.0
  9
$PUCSORTHOREF
  2

  9
$PUCSORTHOVIEW
 70
     0
  9
$PUCSORGTOP
 10
0.0
 20
0.0
 30
0.0
  9
$PUCSORGBOTTOM
 10
0.0
 20
0.0
 30
0.0
  9
$PUCSORGLEFT
 10
0.0
 20
0.0
 30
0.0
  9
$PUCSORGRIGHT
 10
0.0
 20
0.0
 30
0.0
  9
$PUCSORGFRONT
 10
0.0
 20
0.0
 30
0.0
  9
$PUCSORGBACK
 10
0.0
 20
0.0
 30
0.0
  9
$USERI1
 70
     0
  9
$USERI2
 70
     0
  9
$USERI3
 70
     0
  9
$USERI4
 70
     0
  9
$USERI5
 70
     0
  9
$USERR1
 40
0.0
  9
$USERR2
 40
0.0
  9
$USERR3
 40
0.0
  9
$USERR4
 40
0.0
  9
$USERR5
 40
0.0
  9
$WORLDVIEW
 70
     1
  9
$SHADEDGE
 70
     3
  9
$SHADEDIF
 70
    70
  9
$TILEMODE
 70
     1
  9
$MAXACTVP
 70
    64
  9
$PINSBASE
 10
0.0
 20
0.0
 30
0.0
  9
$PLIMCHECK
 70
     0
  9
$PEXTMIN
 10
1.000000000000000E+20
 20
1.000000000000000E+20
 30
1.000000000000000E+20
  9
$PEXTMAX
 10
-1.000000000000000E+20
 20
-1.000000000000000E+20
 30
-1.000000000000000E+20
  9
$PLIMMIN
 10
0.0
 20
0.0
  9
$PLIMMAX
 10
12.0
 20
9.0
  9
$UNITMODE
 70
     0
  9
$VISRETAIN
 70
     1
  9
$PLINEGEN
 70
     0
  9
$PSLTSCALE
 70
     1
  9
$TREEDEPTH
 70
  3020
  9
$CMLSTYLE
  2
Standard
  9
$CMLJUST
 70
     0
  9
$CMLSCALE
 40
1.0
  9
$PROXYGRAPHICS
 70
     1
  9
$MEASUREMENT
 70
     0
  9
$CELWEIGHT
370
    -1
  9
$ENDCAPS
280
     0
  9
$JOINSTYLE
280
     0
  9
$LWDISPLAY
290
     1
  9
$INSUNITS
 70
     4
  9
$HYPERLINKBASE
  1

  9
$STYLESHEET
  1

  9
$XEDIT
290
     1
  9
$CEPSNTYPE
380
     0
  9
$PSTYLEMODE
290
     1
  9
$FINGERPRINTGUID
  2
{5D391F71-8FF8-E43C-03DD-9CAF428E837B}
  9
$VERSIONGUID
  2
{FAEB1C32-E019-11D5-929B-00C0DF256EC4}
  9
$EXTNAMES
290
     1
  9
$PSVPSCALE
 40
0.0
  9
$OLESTARTUP
290
     0
  9
$SORTENTS
280
   127
  9
$INDEXCTL
280
     0
  9
$HIDETEXT
280
     1
  9
$XCLIPFRAME
280
     2
  9
$HALOGAP
280
     0
  9
$OBSCOLOR
 70
   257
  9
$OBSLTYPE
280
     0
  9
$INTERSECTIONDISPLAY
280
     0
  9
$INTERSECTIONCOLOR
 70
   257
  9
$DIMASSOC
280
     2
  9
$PROJECTNAME
  1

  9
$CAMERADISPLAY
290
     0
  9
$LENSLENGTH
 40
50.0
  9
$CAMERAHEIGHT
 40
0.0
  9
$STEPSPERSEC
 40
2.0
  9
$STEPSIZE
 40
6.0
  9
$3DDWFPREC
 40
2.0
  9
$PSOLWIDTH
 40
0.25
  9
$PSOLHEIGHT
 40
4.0
  9
$LOFTANG1
 40
1.570796326794897
  9
$LOFTANG2
 40
1.570796326794897
  9
$LOFTMAG1
 40
0.0
  9
$LOFTMAG2
 40
0.0
  9
$LOFTPARAM
 70
     7
  9
$LOFTNORMALS
280
     1
  9
$LATITUDE
 40
37.795
  9
$LONGITUDE
 40
-122.394
  9
$NORTHDIRECTION
 40
0.0
  9
$TIMEZONE
 70
 -8000
  9
$LIGHTGLYPHDISPLAY
280
     1
  9
$TILEMODELIGHTSYNCH
280
     1
  9
$CMATERIAL
347
3C
  9
$SOLIDHIST
280
     1
  9
$SHOWHIST
280
     1
  9
$DWFFRAME
280
     2
  9
$DGNFRAME
280
     2
  9
$REALWORLDSCALE
290
     1
  9
$INTERFERECOLOR
 62
   256
  9
$CSHADOW
280
     0
  9
$SHADOWPLANELOCATION
 40
0.0
  0
ENDSEC
  0
SECTION
  2
CLASSES
  0
CLASS
  1
ACDBDICTIONARYWDFLT
  2
AcDbDictionaryWithDefault
  3
ObjectDBX Classes
 90
        0
 91
        4
280
     0
281
     0
  0
CLASS
  1
VISUALSTYLE
  2
AcDbVisualStyle
  3
ObjectDBX Classes
 90
     4095
 91
        4
280
     0
281
     0
  0
CLASS
  1
MATERIAL
  2
AcDbMaterial
  3
ObjectDBX Classes
 90
     1153
 91
        4
280
     0
281
     0
  0
CLASS
  1
SUN
  2
AcDbSun
  3
SCENEOE
 90
     1024
 91
        4
280
     0
281
     0
  0
ENDSEC
  0
SECTION
  2
TABLES
  0
TABLE
  2
VPORT
  5
8
330
0
100
AcDbSymbolTable
 70
     1
  0
VPORT
  5
29
330
8
100
AcDbSymbolTableRecord
100
AcDbViewportTableRecord
  2
*Active
 70
     0
 10
0.0
 20
0.0
 11
1.0
 21
1.0
 12
0.0
 22
0.0
 13
0.0
 23
0.0
 14
0.5
 24
0.5
 15
0.5
 25
0.5
 16
0.0
 26
0.0
 36
1.0
 17
110.0486302667203
 27
-143.0141017980135
 37
0.0
 40
603.7245739593113
 41
0.8218242862161736
 42
50.0
 43
0.0
 44
0.0
 50
0.0
 51
0.0
 71
     0
 72
   100
 73
     1
 74
     3
 75
     0
 76
     0
 77
     0
 78
     0
281
     0
 65
     1
110
0.0
120
0.0
130
0.0
111
1.0
121
0.0
131
0.0
112
0.0
122
1.0
132
0.0
 79
     0
146
0.0
 60
     3
 61
     5
292
     1
282
     1
141
0.0
142
0.0
 63
   250
361
3F
  0
ENDTAB
  0
TABLE
  2
LTYPE
  5
5
330
0
100
AcDbSymbolTable
 70
     1
  0
LTYPE
  5
14
330
5
100
AcDbSymbolTableRecord
100
AcDbLinetypeTableRecord
  2
ByBlock
 70
     0
  3

 72
    65
 73
     0
 40
0.0
  0
LTYPE
  5
15
330
5
100
AcDbSymbolTableRecord
100
AcDbLinetypeTableRecord
  2
ByLayer
 70
     0
  3

 72
    65
 73
     0
 40
0.0
  0
LTYPE
  5
16
330
5
100
AcDbSymbolTableRecord
100
AcDbLinetypeTableRecord
  2
Continuous
 70
     0
  3
Solid line
 72
    65
 73
     0
 40
0.0
  0
ENDTAB
  0
TABLE
  2
LAYER
  5
2
330
0
100
AcDbSymbolTable
 70
     2
  0
LAYER
  5
10
330
2
100
AcDbSymbolTableRecord
100
AcDbLayerTableRecord
  2
0
 70
     0
 62
     7
  6
Continuous
370
    -3
390
F
347
3E
  0
LAYER
  5
40
330
2
100
AcDbSymbolTableRecord
100
AcDbLayerTableRecord
  2
_U+56FE_U+5C42 1
 70
     0
 62
     7
  6
Continuous
370
    -3
390
F
347
3E
  0
ENDTAB
  0
TABLE
  2
STYLE
  5
3
330
0
100
AcDbSymbolTable
 70
     1
  0
STYLE
  5
11
330
3
100
AcDbSymbolTableRecord
100
AcDbTextStyleTableRecord
  2
Standard
 70
     0
 40
0.0
 41
1.0
 50
0.0
 71
     0
 42
0.2
  3
txt
  4

  0
ENDTAB
  0
TABLE
  2
VIEW
  5
6
330
0
100
AcDbSymbolTable
 70
     0
  0
ENDTAB
  0
TABLE
  2
UCS
  5
7
330
0
100
AcDbSymbolTable
 70
     0
  0
ENDTAB
  0
TABLE
  2
APPID
  5
9
330
0
100
AcDbSymbolTable
 70
     1
  0
APPID
  5
12
330
9
100
AcDbSymbolTableRecord
100
AcDbRegAppTableRecord
  2
ACAD
 70
     0
  0
ENDTAB
  0
TABLE
  2
DIMSTYLE
  5
A
330
0
100
AcDbSymbolTable
 70
     1
100
AcDbDimStyleTable
  0
DIMSTYLE
105
27
330
A
100
AcDbSymbolTableRecord
100
AcDbDimStyleTableRecord
  2
Standard
 70
     0
178
     0
340
11
  0
ENDTAB
  0
TABLE
  2
BLOCK_RECORD
  5
1
330
0
100
AcDbSymbolTable
 70
     3
  0
BLOCK_RECORD
  5
1F
330
1
100
AcDbSymbolTableRecord
100
AcDbBlockTableRecord
  2
*Model_Space
340
22
 70
     0
280
     1
281
     0
  0
BLOCK_RECORD
  5
1B
330
1
100
AcDbSymbolTableRecord
100
AcDbBlockTableRecord
  2
*Paper_Space
340
1E
 70
     0
280
     1
281
     0
  0
BLOCK_RECORD
  5
23
330
1
100
AcDbSymbolTableRecord
100
AcDbBlockTableRecord
  2
*Paper_Space0
340
26
 70
     0
280
     1
281
     0
  0
BLOCK_RECORD
  5
41
330
1
100
AcDbSymbolTableRecord
100
AcDbBlockTableRecord
  2
block 2
340
0
102
{BLKREFS
331
42
102
}
 70
     0
280
     1
281
     0
  0
BLOCK_RECORD
  5
1C2
330
1
100
AcDbSymbolTableRecord
100
AcDbBlockTableRecord
  2
block 3
340
0
102
{BLKREFS
331
1C3
102
}
 70
     0
280
     1
281
     0
  0
ENDTAB
  0
ENDSEC
  0
SECTION
  2
BLOCKS
  0
BLOCK
  5
20
330
1F
100
AcDbEntity
  8
0
100
AcDbBlockBegin
  2
*Model_Space
 70
     0
 10
0.0
 20
0.0
 30
0.0
  3
*Model_Space
  1

  0
ENDBLK
  5
21
330
1F
100
AcDbEntity
  8
0
100
AcDbBlockEnd
  0
BLOCK
  5
1C
330
1B
100
AcDbEntity
 67
     1
  8
0
100
AcDbBlockBegin
  2
*Paper_Space
 70
     0
 10
0.0
 20
0.0
 30
0.0
  3
*Paper_Space
  1

  0
ENDBLK
  5
1D
330
1B
100
AcDbEntity
 67
     1
  8
0
100
AcDbBlockEnd
  0
BLOCK
  5
24
330
23
100
AcDbEntity
  8
0
100
AcDbBlockBegin
  2
*Paper_Space0
 70
     0
 10
0.0
 20
0.0
 30
0.0
  3
*Paper_Space0
  1

  0
ENDBLK
  5
25
330
23
100
AcDbEntity
  8
0
100
AcDbBlockEnd
  0
BLOCK
  5
43
330
41
100
AcDbEntity
  8
0
100
AcDbBlockBegin
  2
block 2
 70
     0
 10
0.0
 20
0.0
 30
0.0
  3
block 2
  1

  0
SPLINE
  5
45
330
41
100
AcDbEntity
  8
_U+56FE_U+5C42 1
 62
    29
370
   100
100
AcDbSpline
210
0.0
220
0.0
230
1.0
 70
    11
 71
     3
 72
    29
 73
    25
 74
     0
 42
0.0000000001
 43
0.0000000001
 12
1.0
 22
0.0
 32
0.0
 13
1.0
 23
0.0
 33
0.0
 40
0.0
 40
0.0
 40
0.0
 40
0.0
 40
1.0
 40
1.0
 40
1.0
 40
2.0
 40
2.0
 40
2.0
 40
3.0
 40
3.0
 40
3.0
 40
4.0
 40
4.0
 40
4.0
 40
5.0
 40
5.0
 40
5.0
 40
6.0
 40
6.0
 40
6.0
 40
7.0
 40
7.0
 40
7.0
 40
8.0
 40
8.0
 40
8.0
 40
8.0
 10
250.0486302317202
 20
-296.3230148865301
 30
0.0
 10
250.0486302317202
 20
-296.3230148865301
 30
0.0
 10
-29.95136969827996
 20
-296.3230148865301
 30
0.0
 10
-29.95136969827996
 20
-296.3230148865301
 30
0.0
 10
-57.56560718291598
 20
-296.3230148865301
 30
0.0
 10
-79.95136968578014
 20
-273.9372523836665
 30
0.0
 10
-79.95136968578014
 20
-246.3230148990299
 30
0.0
 10
-79.95136968578014
 20
-246.3230148990299
 30
0.0
 10
-79.95136968578014
 20
33.67698503096936
 30
0.0
 10
-79.95136968578014
 20
33.67698503096936
 30
0.0
 10
-79.95136968578014
 20
61.29122251560603
 30
0.0
 10
-57.56560718291598
 20
83.6769850184689
 30
0.0
 10
-29.95136969827996
 20
83.6769850184689
 30
0.0
 10
-29.95136969827996
 20
83.6769850184689
 30
0.0
 10
250.0486302317202
 20
83.6769850184689
 30
0.0
 10
250.0486302317202
 20
83.6769850184689
 30
0.0
 10
277.6628677163556
 20
83.6769850184689
 30
0.0
 10
300.0486302192204
 20
61.29122251560603
 30
0.0
 10
300.0486302192204
 20
33.67698503096936
 30
0.0
 10
300.0486302192204
 20
33.67698503096936
 30
0.0
 10
300.0486302192204
 20
-246.3230148990299
 30
0.0
 10
300.0486302192204
 20
-246.3230148990299
 30
0.0
 10
300.0486302192204
 20
-273.9372523836665
 30
0.0
 10
277.6628677163556
 20
-296.3230148865301
 30
0.0
 10
250.0486302317202
 20
-296.3230148865301
 30
0.0
  0
SPLINE
  5
46
330
41
100
AcDbEntity
  8
_U+56FE_U+5C42 1
 62
    29
370
   100
100
AcDbSpline
210
0.0
220
0.0
230
1.0
 70
    11
 71
     3
 72
    29
 73
    25
 74
     0
 42
0.0000000001
 43
0.0000000001
 12
1.0
 22
0.0
 32
0.0
 13
1.0
 23
0.0
 33
0.0
 40
0.0
 40
0.0
 40
0.0
 40
0.0
 40
1.0
 40
1.0
 40
1.0
 40
2.0
 40
2.0
 40
2.0
 40
3.0
 40
3.0
 40
3.0
 40
4.0
 40
4.0
 40
4.0
 40
5.0
 40
5.0
 40
5.0
 40
6.0
 40
6.0
 40
6.0
 40
7.0
 40
7.0
 40
7.0
 40
8.0
 40
8.0
 40
8.0
 40
8.0
 10
250.0486302317202
 20
-296.3230148865301
 30
0.0
 10
250.0486302317202
 20
-296.3230148865301
 30
0.0
 10
-29.95136969827996
 20
-296.3230148865301
 30
0.0
 10
-29.95136969827996
 20
-296.3230148865301
 30
0.0
 10
-57.56560718291598
 20
-296.3230148865301
 30
0.0
 10
-79.95136968578014
 20
-273.9372523836665
 30
0.0
 10
-79.95136968578014
 20
-246.3230148990299
 30
0.0
 10
-79.95136968578014
 20
-246.3230148990299
 30
0.0
 10
-79.95136968578014
 20
33.67698503096936
 30
0.0
 10
-79.95136968578014
 20
33.67698503096936
 30
0.0
 10
-79.95136968578014
 20
61.29122251560603
 30
0.0
 10
-57.56560718291598
 20
83.6769850184689
 30
0.0
 10
-29.95136969827996
 20
83.6769850184689
 30
0.0
 10
-29.95136969827996
 20
83.6769850184689
 30
0.0
 10
250.0486302317202
 20
83.6769850184689
 30
0.0
 10
250.0486302317202
 20
83.6769850184689
 30
0.0
 10
277.6628677163556
 20
83.6769850184689
 30
0.0
 10
300.0486302192204
 20
61.29122251560603
 30
0.0
 10
300.0486302192204
 20
33.67698503096936
 30
0.0
 10
300.0486302192204
 20
33.67698503096936
 30
0.0
 10
300.0486302192204
 20
-246.3230148990299
 30
0.0
 10
300.0486302192204
 20
-246.3230148990299
 30
0.0
 10
300.0486302192204
 20
-273.9372523836665
 30
0.0
 10
277.6628677163556
 20
-296.3230148865301
 30
0.0
 10
250.0486302317202
 20
-296.3230148865301
 30
0.0
  0
POLYLINE
  5
47
330
41
100
AcDbEntity
  8
_U+56FE_U+5C42 1
 62
    29
370
   100
100
AcDb2dPolyline
 66
     1
 10
0.0
 20
0.0
 30
0.0
  0
VERTEX
  5
48
330
47
100
AcDbEntity
  8
_U+56FE_U+5C42 1
 62
    29
370
   100
100
AcDbVertex
100
AcDb2dVertex
 10
-75.65136968685516
 20
-6.323014959030534
 30
0.0
  0
VERTEX
  5
49
330
47
100
AcDbEntity
  8
_U+56FE_U+5C42 1
 62
    29
370
   100
100
AcDbVertex
100
AcDb2dVertex
 10
-79.95136968578014
 20
-6.323014959030534
 30
0.0
  0
VERTEX
  5
4A
330
47
100
AcDbEntity
  8
_U+56FE_U+5C42 1
 62
    29
370
   100
100
AcDbVertex
100
AcDb2dVertex
 10
-79.95136968578014
 20
13.67698503597005
 30
0.0
  0
VERTEX
  5
4B
330
47
100
AcDbEntity
  8
_U+56FE_U+5C42 1
 62
    29
370
   100
100
AcDbVertex
100
AcDb2dVertex
 10
-75.65136968685516
 20
13.67698503597005
 30
0.0
  0
VERTEX
  5
4C
330
47
100
AcDbEntity
  8
_U+56FE_U+5C42 1
 62
    29
370
   100
100
AcDbVertex
100
AcDb2dVertex
 10
-75.65136968685516
 20
-6.323014959030534
 30
0.0
  0
SEQEND
  5
4D
330
47
100
AcDbEntity
  8
_U+56FE_U+5C42 1
 62
    29
370
   100
  0
POLYLINE
  5
4E
330
41
100
AcDbEntity
  8
_U+56FE_U+5C42 1
 62
    29
370
   100
100
AcDb2dPolyline
 66
     1
 10
0.0
 20
0.0
 30
0.0
  0
VERTEX
  5
4F
330
4E
100
AcDbEntity
  8
_U+56FE_U+5C42 1
 62
    29
370
   100
100
AcDbVertex
100
AcDb2dVertex
 10
-75.65136968685516
 20
-46.32301494903042
 30
0.0
  0
VERTEX
  5
50
330
4E
100
AcDbEntity
  8
_U+56FE_U+5C42 1
 62
    29
370
   100
100
AcDbVertex
100
AcDb2dVertex
 10
-79.95136968578014
 20
-46.32301494903042
 30
0.0
  0
VERTEX
  5
51
330
4E
100
AcDbEntity
  8
_U+56FE_U+5C42 1
 62
    29
370
   100
100
AcDbVertex
100
AcDb2dVertex
 10
-79.95136968578014
 20
-26.32301495402984
 30
0.0
  0
VERTEX
  5
52
330
4E
100
AcDbEntity
  8
_U+56FE_U+5C42 1
 62
    29
370
   100
100
AcDbVertex
100
AcDb2dVertex
 10
-75.65136968685516
 20
-26.32301495402984
 30
0.0
  0
VERTEX
  5
53
330
4E
100
AcDbEntity
  8
_U+56FE_U+5C42 1
 62
    29
370
   100
100
AcDbVertex
100
AcDb2dVertex
 10
-75.65136968685516
 20
-46.32301494903042
 30
0.0
  0
SEQEND
  5
54
330
4E
100
AcDbEntity
  8
_U+56FE_U+5C42 1
 62
    29
370
   100
  0
POLYLINE
  5
55
330
41
100
AcDbEntity
  8
_U+56FE_U+5C42 1
 62
    29
370
   100
100
AcDb2dPolyline
 66
     1
 10
0.0
 20
0.0
 30
0.0
  0
VERTEX
  5
56
330
55
100
AcDbEntity
  8
_U+56FE_U+5C42 1
 62
    29
370
   100
100
AcDbVertex
100
AcDb2dVertex
 10
-75.65136968685516
 20
-86.32301493903032
 30
0.0
  0
VERTEX
  5
57
330
55
100
AcDbEntity
  8
_U+56FE_U+5C42 1
 62
    29
370
   100
100
AcDbVertex
100
AcDb2dVertex
 10
-79.95136968578014
 20
-86.32301493903032
 30
0.0
  0
VERTEX
  5
58
330
55
100
AcDbEntity
  8
_U+56FE_U+5C42 1
 62
    29
370
   100
100
AcDbVertex
100
AcDb2dVertex
 10
-79.95136968578014
 20
-66.32301494402972
 30
0.0
  0
VERTEX
  5
59
330
55
100
AcDbEntity
  8
_U+56FE_U+5C42 1
 62
    29
370
   100
100
AcDbVertex
100
AcDb2dVertex
 10
-75.65136968685516
 20
-66.32301494402972
 30
0.0
  0
VERTEX
  5
5A
330
55
100
AcDbEntity
  8
_U+56FE_U+5C42 1
 62
    29
370
   100
100
AcDbVertex
100
AcDb2dVertex
 10
-75.65136968685516
 20
-86.32301493903032
 30
0.0
  0
SEQEND
  5
5B
330
55
100
AcDbEntity
  8
_U+56FE_U+5C42 1
 62
    29
370
   100
  0
POLYLINE
  5
5C
330
41
100
AcDbEntity
  8
_U+56FE_U+5C42 1
 62
    29
370
   100
100
AcDb2dPolyline
 66
     1
 10
0.0
 20
0.0
 30
0.0
  0
VERTEX
  5
5D
330
5C
100
AcDbEntity
  8
_U+56FE_U+5C42 1
 62
    29
370
   100
100
AcDbVertex
100
AcDb2dVertex
 10
-71.35136968792953
 20
-61.32301494528022
 30
0.0
  0
VERTEX
  5
5E
330
5C
100
AcDbEntity
  8
_U+56FE_U+5C42 1
 62
    29
370
   100
100
AcDbVertex
100
AcDb2dVertex
 10
-75.65136968685451
 20
-61.32301494528022
 30
0.0
  0
VERTEX
  5
5F
330
5C
100
AcDbEntity
  8
_U+56FE_U+5C42 1
 62
    29
370
   100
100
AcDbVertex
100
AcDb2dVertex
 10
-75.65136968685451
 20
-51.32301494777993
 30
0.0
  0
VERTEX
  5
60
330
5C
100
AcDbEntity
  8
_U+56FE_U+5C42 1
 62
    29
370
   100
100
AcDbVertex
100
AcDb2dVertex
 10
-71.35136968792953
 20
-51.32301494777993
 30
0.0
  0
VERTEX
  5
61
330
5C
100
AcDbEntity
  8
_U+56FE_U+5C42 1
 62
    29
370
   100
100
AcDbVertex
100
AcDb2dVertex
 10
-71.35136968792953
 20
-61.32301494528022
 30
0.0
  0
SEQEND
  5
62
330
5C
100
AcDbEntity
  8
_U+56FE_U+5C42 1
 62
    29
370
   100
  0
POLYLINE
  5
63
330
41
100
AcDbEntity
  8
_U+56FE_U+5C42 1
 62
    29
370
   100
100
AcDb2dPolyline
 66
     1
 10
0.0
 20
0.0
 30
0.0
  0
VERTEX
  5
64
330
63
100
AcDbEntity
  8
_U+56FE_U+5C42 1
 62
    29
370
   100
100
AcDbVertex
100
AcDb2dVertex
 10
-71.35136968792953
 20
-101.3230149352801
 30
0.0
  0
VERTEX
  5
65
330
63
100
AcDbEntity
  8
_U+56FE_U+5C42 1
 62
    29
370
   100
100
AcDbVertex
100
AcDb2dVertex
 10
-75.65136968685451
 20
-101.3230149352801
 30
0.0
  0
VERTEX
  5
66
330
63
100
AcDbEntity
  8
_U+56FE_U+5C42 1
 62
    29
370
   100
100
AcDbVertex
100
AcDb2dVertex
 10
-75.65136968685451
 20
-91.32301493777982
 30
0.0
  0
VERTEX
  5
67
330
63
100
AcDbEntity
  8
_U+56FE_U+5C42 1
 62
    29
370
   100
100
AcDbVertex
100
AcDb2dVertex
 10
-71.35136968792953
 20
-91.32301493777982
 30
0.0
  0
VERTEX
  5
68
330
63
100
AcDbEntity
  8
_U+56FE_U+5C42 1
 62
    29
370
   100
100
AcDbVertex
100
AcDb2dVertex
 10
-71.35136968792953
 20
-101.3230149352801
 30
0.0
  0
SEQEND
  5
69
330
63
100
AcDbEntity
  8
_U+56FE_U+5C42 1
 62
    29
370
   100
  0
POLYLINE
  5
6A
330
41
100
AcDbEntity
  8
_U+56FE_U+5C42 1
 62
    29
370
   100
100
AcDb2dPolyline
 66
     1
 10
0.0
 20
0.0
 30
0.0
  0
VERTEX
  5
6B
330
6A
100
AcDbEntity
  8
_U+56FE_U+5C42 1
 62
    29
370
   100
100
AcDbVertex
100
AcDb2dVertex
 10
-71.35136968792953
 20
18.67698503471956
 30
0.0
  0
VERTEX
  5
6C
330
6A
100
AcDbEntity
  8
_U+56FE_U+5C42 1
 62
    29
370
   100
100
AcDbVertex
100
AcDb2dVertex
 10
-75.65136968685516
 20
18.67698503471956
 30
0.0
  0
VERTEX
  5
6D
330
6A
100
AcDbEntity
  8
_U+56FE_U+5C42 1
 62
    29
370
   100
100
AcDbVertex
100
AcDb2dVertex
 10
-75.65136968685516
 20
28.67698503221985
 30
0.0
  0
VERTEX
  5
6E
330
6A
100
AcDbEntity
  8
_U+56FE_U+5C42 1
 62
    29
370
   100
100
AcDbVertex
100
AcDb2dVertex
 10
-71.35136968792953
 20
28.67698503221985
 30
0.0
  0
VERTEX
  5
6F
330
6A
100
AcDbEntity
  8
_U+56FE_U+5C42 1
 62
    29
370
   100
100
AcDbVertex
100
AcDb2dVertex
 10
-71.35136968792953
 20
18.67698503471956
 30
0.0
  0
SEQEND
  5
70
330
6A
100
AcDbEntity
  8
_U+56FE_U+5C42 1
 62
    29
370
   100
  0
POLYLINE
  5
71
330
41
100
AcDbEntity
  8
_U+56FE_U+5C42 1
 62
    29
370
   100
100
AcDb2dPolyline
 66
     1
 10
0.0
 20
0.0
 30
0.0
  0
VERTEX
  5
72
330
71
100
AcDbEntity
  8
_U+56FE_U+5C42 1
 62
    29
370
   100
100
AcDbVertex
100
AcDb2dVertex
 10
-71.35136968792953
 20
-21.32301495528033
 30
0.0
  0
VERTEX
  5
73
330
71
100
AcDbEntity
  8
_U+56FE_U+5C42 1
 62
    29
370
   100
100
AcDbVertex
100
AcDb2dVertex
 10
-75.65136968685516
 20
-21.32301495528033
 30
0.0
  0
VERTEX
  5
74
330
71
100
AcDbEntity
  8
_U+56FE_U+5C42 1
 62
    29
370
   100
100
AcDbVertex
100
AcDb2dVertex
 10
-75.65136968685516
 20
-11.32301495778004
 30
0.0
  0
VERTEX
  5
75
330
71
100
AcDbEntity
  8
_U+56FE_U+5C42 1
 62
    29
370
   100
100
AcDbVertex
100
AcDb2dVertex
 10
-71.35136968792953
 20
-11.32301495778004
 30
0.0
  0
VERTEX
  5
76
330
71
100
AcDbEntity
  8
_U+56FE_U+5C42 1
 62
    29
370
   100
100
AcDbVertex
100
AcDb2dVertex
 10
-71.35136968792953
 20
-21.32301495528033
 30
0.0
  0
SEQEND
  5
77
330
71
100
AcDbEntity
  8
_U+56FE_U+5C42 1
 62
    29
370
   100
  0
POLYLINE
  5
78
330
41
100
AcDbEntity
  8
_U+56FE_U+5C42 1
 62
    29
370
   100
100
AcDb2dPolyline
 66
     1
 10
0.0
 20
0.0
 30
0.0
  0
VERTEX
  5
79
330
78
100
AcDbEntity
  8
_U+56FE_U+5C42 1
 62
    29
370
   100
100
AcDbVertex
100
AcDb2dVertex
 10
-75.65136968685516
 20
-146.3230149240308
 30
0.0
  0
VERTEX
  5
7A
330
78
100
AcDbEntity
  8
_U+56FE_U+5C42 1
 62
    29
370
   100
100
AcDbVertex
100
AcDb2dVertex
 10
-79.95136968578014
 20
-146.3230149240308
 30
0.0
  0
VERTEX
  5
7B
330
78
100
AcDbEntity
  8
_U+56FE_U+5C42 1
 62
    29
370
   100
100
AcDbVertex
100
AcDb2dVertex
 10
-79.95136968578014
 20
-126.3230149290302
 30
0.0
  0
VERTEX
  5
7C
330
78
100
AcDbEntity
  8
_U+56FE_U+5C42 1
 62
    29
370
   100
100
AcDbVertex
100
AcDb2dVertex
 10
-75.65136968685516
 20
-126.3230149290302
 30
0.0
  0
VERTEX
  5
7D
330
78
100
AcDbEntity
  8
_U+56FE_U+5C42 1
 62
    29
370
   100
100
AcDbVertex
100
AcDb2dVertex
 10
-75.65136968685516
 20
-146.3230149240308
 30
0.0
  0
SEQEND
  5
7E
330
78
100
AcDbEntity
  8
_U+56FE_U+5C42 1
 62
    29
370
   100
  0
POLYLINE
  5
7F
330
41
100
AcDbEntity
  8
_U+56FE_U+5C42 1
 62
    29
370
   100
100
AcDb2dPolyline
 66
     1
 10
0.0
 20
0.0
 30
0.0
  0
VERTEX
  5
80
330
7F
100
AcDbEntity
  8
_U+56FE_U+5C42 1
 62
    29
370
   100
100
AcDbVertex
100
AcDb2dVertex
 10
-75.65136968685516
 20
-186.3230149140307
 30
0.0
  0
VERTEX
  5
81
330
7F
100
AcDbEntity
  8
_U+56FE_U+5C42 1
 62
    29
370
   100
100
AcDbVertex
100
AcDb2dVertex
 10
-79.95136968578014
 20
-186.3230149140307
 30
0.0
  0
VERTEX
  5
82
330
7F
100
AcDbEntity
  8
_U+56FE_U+5C42 1
 62
    29
370
   100
100
AcDbVertex
100
AcDb2dVertex
 10
-79.95136968578014
 20
-166.3230149190301
 30
0.0
  0
VERTEX
  5
83
330
7F
100
AcDbEntity
  8
_U+56FE_U+5C42 1
 62
    29
370
   100
100
AcDbVertex
100
AcDb2dVertex
 10
-75.65136968685516
 20
-166.3230149190301
 30
0.0
  0
VERTEX
  5
84
330
7F
100
AcDbEntity
  8
_U+56FE_U+5C42 1
 62
    29
370
   100
100
AcDbVertex
100
AcDb2dVertex
 10
-75.65136968685516
 20
-186.3230149140307
 30
0.0
  0
SEQEND
  5
85
330
7F
100
AcDbEntity
  8
_U+56FE_U+5C42 1
 62
    29
370
   100
  0
POLYLINE
  5
86
330
41
100
AcDbEntity
  8
_U+56FE_U+5C42 1
 62
    29
370
   100
100
AcDb2dPolyline
 66
     1
 10
0.0
 20
0.0
 30
0.0
  0
VERTEX
  5
87
330
86
100
AcDbEntity
  8
_U+56FE_U+5C42 1
 62
    29
370
   100
100
AcDbVertex
100
AcDb2dVertex
 10
-75.65136968685516
 20
-226.3230149040306
 30
0.0
  0
VERTEX
  5
88
330
86
100
AcDbEntity
  8
_U+56FE_U+5C42 1
 62
    29
370
   100
100
AcDbVertex
100
AcDb2dVertex
 10
-79.95136968578014
 20
-226.3230149040306
 30
0.0
  0
VERTEX
  5
89
330
86
100
AcDbEntity
  8
_U+56FE_U+5C42 1
 62
    29
370
   100
100
AcDbVertex
100
AcDb2dVertex
 10
-79.95136968578014
 20
-206.32301490903
 30
0.0
  0
VERTEX
  5
8A
330
86
100
AcDbEntity
  8
_U+56FE_U+5C42 1
 62
    29
370
   100
100
AcDbVertex
100
AcDb2dVertex
 10
-75.65136968685516
 20
-206.32301490903
 30
0.0
  0
VERTEX
  5
8B
330
86
100
AcDbEntity
  8
_U+56FE_U+5C42 1
 62
    29
370
   100
100
AcDbVertex
100
AcDb2dVertex
 10
-75.65136968685516
 20
-226.3230149040306
 30
0.0
  0
SEQEND
  5
8C
330
86
100
AcDbEntity
  8
_U+56FE_U+5C42 1
 62
    29
370
   100
  0
POLYLINE
  5
8D
330
41
100
AcDbEntity
  8
_U+56FE_U+5C42 1
 62
    29
370
   100
100
AcDb2dPolyline
 66
     1
 10
0.0
 20
0.0
 30
0.0
  0
VERTEX
  5
8E
330
8D
100
AcDbEntity
  8
_U+56FE_U+5C42 1
 62
    29
370
   100
100
AcDbVertex
100
AcDb2dVertex
 10
-71.35136968792953
 20
-201.3230149102805
 30
0.0
  0
VERTEX
  5
8F
330
8D
100
AcDbEntity
  8
_U+56FE_U+5C42 1
 62
    29
370
   100
100
AcDbVertex
100
AcDb2dVertex
 10
-75.65136968685451
 20
-201.3230149102805
 30
0.0
  0
VERTEX
  5
90
330
8D
100
AcDbEntity
  8
_U+56FE_U+5C42 1
 62
    29
370
   100
100
AcDbVertex
100
AcDb2dVertex
 10
-75.65136968685451
 20
-191.3230149127802
 30
0.0
  0
VERTEX
  5
91
330
8D
100
AcDbEntity
  8
_U+56FE_U+5C42 1
 62
    29
370
   100
100
AcDbVertex
100
AcDb2dVertex
 10
-71.35136968792953
 20
-191.3230149127802
 30
0.0
  0
VERTEX
  5
92
330
8D
100
AcDbEntity
  8
_U+56FE_U+5C42 1
 62
    29
370
   100
100
AcDbVertex
100
AcDb2dVertex
 10
-71.35136968792953
 20
-201.3230149102805
 30
0.0
  0
SEQEND
  5
93
330
8D
100
AcDbEntity
  8
_U+56FE_U+5C42 1
 62
    29
370
   100
  0
POLYLINE
  5
94
330
41
100
AcDbEntity
  8
_U+56FE_U+5C42 1
 62
    29
370
   100
100
AcDb2dPolyline
 66
     1
 10
0.0
 20
0.0
 30
0.0
  0
VERTEX
  5
95
330
94
100
AcDbEntity
  8
_U+56FE_U+5C42 1
 62
    29
370
   100
100
AcDbVertex
100
AcDb2dVertex
 10
-71.35136968792953
 20
-241.3230149002804
 30
0.0
  0
VERTEX
  5
96
330
94
100
AcDbEntity
  8
_U+56FE_U+5C42 1
 62
    29
370
   100
100
AcDbVertex
100
AcDb2dVertex
 10
-75.65136968685451
 20
-241.3230149002804
 30
0.0
  0
VERTEX
  5
97
330
94
100
AcDbEntity
  8
_U+56FE_U+5C42 1
 62
    29
370
   100
100
AcDbVertex
100
AcDb2dVertex
 10
-75.65136968685451
 20
-231.3230149027801
 30
0.0
  0
VERTEX
  5
98
330
94
100
AcDbEntity
  8
_U+56FE_U+5C42 1
 62
    29
370
   100
100
AcDbVertex
100
AcDb2dVertex
 10
-71.35136968792953
 20
-231.3230149027801
 30
0.0
  0
VERTEX
  5
99
330
94
100
AcDbEntity
  8
_U+56FE_U+5C42 1
 62
    29
370
   100
100
AcDbVertex
100
AcDb2dVertex
 10
-71.35136968792953
 20
-241.3230149002804
 30
0.0
  0
SEQEND
  5
9A
330
94
100
AcDbEntity
  8
_U+56FE_U+5C42 1
 62
    29
370
   100
  0
POLYLINE
  5
9B
330
41
100
AcDbEntity
  8
_U+56FE_U+5C42 1
 62
    29
370
   100
100
AcDb2dPolyline
 66
     1
 10
0.0
 20
0.0
 30
0.0
  0
VERTEX
  5
9C
330
9B
100
AcDbEntity
  8
_U+56FE_U+5C42 1
 62
    29
370
   100
100
AcDbVertex
100
AcDb2dVertex
 10
-71.35136968792953
 20
-121.3230149302807
 30
0.0
  0
VERTEX
  5
9D
330
9B
100
AcDbEntity
  8
_U+56FE_U+5C42 1
 62
    29
370
   100
100
AcDbVertex
100
AcDb2dVertex
 10
-75.65136968685516
 20
-121.3230149302807
 30
0.0
  0
VERTEX
  5
9E
330
9B
100
AcDbEntity
  8
_U+56FE_U+5C42 1
 62
    29
370
   100
100
AcDbVertex
100
AcDb2dVertex
 10
-75.65136968685516
 20
-111.3230149327804
 30
0.0
  0
VERTEX
  5
9F
330
9B
100
AcDbEntity
  8
_U+56FE_U+5C42 1
 62
    29
370
   100
100
AcDbVertex
100
AcDb2dVertex
 10
-71.35136968792953
 20
-111.3230149327804
 30
0.0
  0
VERTEX
  5
A0
330
9B
100
AcDbEntity
  8
_U+56FE_U+5C42 1
 62
    29
370
   100
100
AcDbVertex
100
AcDb2dVertex
 10
-71.35136968792953
 20
-121.3230149302807
 30
0.0
  0
SEQEND
  5
A1
330
9B
100
AcDbEntity
  8
_U+56FE_U+5C42 1
 62
    29
370
   100
  0
POLYLINE
  5
A2
330
41
100
AcDbEntity
  8
_U+56FE_U+5C42 1
 62
    29
370
   100
100
AcDb2dPolyline
 66
     1
 10
0.0
 20
0.0
 30
0.0
  0
VERTEX
  5
A3
330
A2
100
AcDbEntity
  8
_U+56FE_U+5C42 1
 62
    29
370
   100
100
AcDbVertex
100
AcDb2dVertex
 10
-71.35136968792953
 20
-161.3230149202806
 30
0.0
  0
VERTEX
  5
A4
330
A2
100
AcDbEntity
  8
_U+56FE_U+5C42 1
 62
    29
370
   100
100
AcDbVertex
100
AcDb2dVertex
 10
-75.65136968685516
 20
-161.3230149202806
 30
0.0
  0
VERTEX
  5
A5
330
A2
100
AcDbEntity
  8
_U+56FE_U+5C42 1
 62
    29
370
   100
100
AcDbVertex
100
AcDb2dVertex
 10
-75.65136968685516
 20
-151.3230149227803
 30
0.0
  0
VERTEX
  5
A6
330
A2
100
AcDbEntity
  8
_U+56FE_U+5C42 1
 62
    29
370
   100
100
AcDbVertex
100
AcDb2dVertex
 10
-71.35136968792953
 20
-151.3230149227803
 30
0.0
  0
VERTEX
  5
A7
330
A2
100
AcDbEntity
  8
_U+56FE_U+5C42 1
 62
    29
370
   100
100
AcDbVertex
100
AcDb2dVertex
 10
-71.35136968792953
 20
-161.3230149202806
 30
0.0
  0
SEQEND
  5
A8
330
A2
100
AcDbEntity
  8
_U+56FE_U+5C42 1
 62
    29
370
   100
  0
POLYLINE
  5
A9
330
41
100
AcDbEntity
  8
_U+56FE_U+5C42 1
 62
    29
370
   100
100
AcDb2dPolyline
 66
     1
 10
0.0
 20
0.0
 30
0.0
  0
VERTEX
  5
AA
330
A9
100
AcDbEntity
  8
_U+56FE_U+5C42 1
 62
    29
370
   100
100
AcDbVertex
100
AcDb2dVertex
 10
10.04863029171929
 20
-292.0115372141288
 30
0.0
  0
VERTEX
  5
AB
330
A9
100
AcDbEntity
  8
_U+56FE_U+5C42 1
 62
    29
370
   100
100
AcDbVertex
100
AcDb2dVertex
 10
10.04863029171929
 20
-296.3115372130544
 30
0.0
  0
VERTEX
  5
AC
330
A9
100
AcDbEntity
  8
_U+56FE_U+5C42 1
 62
    29
370
   100
100
AcDbVertex
100
AcDb2dVertex
 10
-9.951369703281294
 20
-296.3115372130544
 30
0.0
  0
VERTEX
  5
AD
330
A9
100
AcDbEntity
  8
_U+56FE_U+5C42 1
 62
    29
370
   100
100
AcDbVertex
100
AcDb2dVertex
 10
-9.951369703281294
 20
-292.0115372141288
 30
0.0
  0
VERTEX
  5
AE
330
A9
100
AcDbEntity
  8
_U+56FE_U+5C42 1
 62
    29
370
   100
100
AcDbVertex
100
AcDb2dVertex
 10
10.04863029171929
 20
-292.0115372141288
 30
0.0
  0
SEQEND
  5
AF
330
A9
100
AcDbEntity
  8
_U+56FE_U+5C42 1
 62
    29
370
   100
  0
POLYLINE
  5
B0
330
41
100
AcDbEntity
  8
_U+56FE_U+5C42 1
 62
    29
370
   100
100
AcDb2dPolyline
 66
     1
 10
0.0
 20
0.0
 30
0.0
  0
VERTEX
  5
B1
330
B0
100
AcDbEntity
  8
_U+56FE_U+5C42 1
 62
    29
370
   100
100
AcDbVertex
100
AcDb2dVertex
 10
50.04863028171918
 20
-292.0115372141288
 30
0.0
  0
VERTEX
  5
B2
330
B0
100
AcDbEntity
  8
_U+56FE_U+5C42 1
 62
    29
370
   100
100
AcDbVertex
100
AcDb2dVertex
 10
50.04863028171918
 20
-296.3115372130544
 30
0.0
  0
VERTEX
  5
B3
330
B0
100
AcDbEntity
  8
_U+56FE_U+5C42 1
 62
    29
370
   100
100
AcDbVertex
100
AcDb2dVertex
 10
30.04863028671859
 20
-296.3115372130544
 30
0.0
  0
VERTEX
  5
B4
330
B0
100
AcDbEntity
  8
_U+56FE_U+5C42 1
 62
    29
370
   100
100
AcDbVertex
100
AcDb2dVertex
 10
30.04863028671859
 20
-292.0115372141288
 30
0.0
  0
VERTEX
  5
B5
330
B0
100
AcDbEntity
  8
_U+56FE_U+5C42 1
 62
    29
370
   100
100
AcDbVertex
100
AcDb2dVertex
 10
50.04863028171918
 20
-292.0115372141288
 30
0.0
  0
SEQEND
  5
B6
330
B0
100
AcDbEntity
  8
_U+56FE_U+5C42 1
 62
    29
370
   100
  0
POLYLINE
  5
B7
330
41
100
AcDbEntity
  8
_U+56FE_U+5C42 1
 62
    29
370
   100
100
AcDb2dPolyline
 66
     1
 10
0.0
 20
0.0
 30
0.0
  0
VERTEX
  5
B8
330
B7
100
AcDbEntity
  8
_U+56FE_U+5C42 1
 62
    29
370
   100
100
AcDbVertex
100
AcDb2dVertex
 10
90.04863027171939
 20
-292.0115372141288
 30
0.0
  0
VERTEX
  5
B9
330
B7
100
AcDbEntity
  8
_U+56FE_U+5C42 1
 62
    29
370
   100
100
AcDbVertex
100
AcDb2dVertex
 10
90.04863027171939
 20
-296.3115372130544
 30
0.0
  0
VERTEX
  5
BA
330
B7
100
AcDbEntity
  8
_U+56FE_U+5C42 1
 62
    29
370
   100
100
AcDbVertex
100
AcDb2dVertex
 10
70.04863027671848
 20
-296.3115372130544
 30
0.0
  0
VERTEX
  5
BB
330
B7
100
AcDbEntity
  8
_U+56FE_U+5C42 1
 62
    29
370
   100
100
AcDbVertex
100
AcDb2dVertex
 10
70.04863027671848
 20
-292.0115372141288
 30
0.0
  0
VERTEX
  5
BC
330
B7
100
AcDbEntity
  8
_U+56FE_U+5C42 1
 62
    29
370
   100
100
AcDbVertex
100
AcDb2dVertex
 10
90.04863027171939
 20
-292.0115372141288
 30
0.0
  0
SEQEND
  5
BD
330
B7
100
AcDbEntity
  8
_U+56FE_U+5C42 1
 62
    29
370
   100
  0
POLYLINE
  5
BE
330
41
100
AcDbEntity
  8
_U+56FE_U+5C42 1
 62
    29
370
   100
100
AcDb2dPolyline
 66
     1
 10
0.0
 20
0.0
 30
0.0
  0
VERTEX
  5
BF
330
BE
100
AcDbEntity
  8
_U+56FE_U+5C42 1
 62
    29
370
   100
100
AcDbVertex
100
AcDb2dVertex
 10
65.04863027796898
 20
-287.7115372152031
 30
0.0
  0
VERTEX
  5
C0
330
BE
100
AcDbEntity
  8
_U+56FE_U+5C42 1
 62
    29
370
   100
100
AcDbVertex
100
AcDb2dVertex
 10
65.04863027796898
 20
-292.0115372141288
 30
0.0
  0
VERTEX
  5
C1
330
BE
100
AcDbEntity
  8
_U+56FE_U+5C42 1
 62
    29
370
   100
100
AcDbVertex
100
AcDb2dVertex
 10
55.04863028046869
 20
-292.0115372141288
 30
0.0
  0
VERTEX
  5
C2
330
BE
100
AcDbEntity
  8
_U+56FE_U+5C42 1
 62
    29
370
   100
100
AcDbVertex
100
AcDb2dVertex
 10
55.04863028046869
 20
-287.7115372152031
 30
0.0
  0
VERTEX
  5
C3
330
BE
100
AcDbEntity
  8
_U+56FE_U+5C42 1
 62
    29
370
   100
100
AcDbVertex
100
AcDb2dVertex
 10
65.04863027796898
 20
-287.7115372152031
 30
0.0
  0
SEQEND
  5
C4
330
BE
100
AcDbEntity
  8
_U+56FE_U+5C42 1
 62
    29
370
   100
  0
POLYLINE
  5
C5
330
41
100
AcDbEntity
  8
_U+56FE_U+5C42 1
 62
    29
370
   100
100
AcDb2dPolyline
 66
     1
 10
0.0
 20
0.0
 30
0.0
  0
VERTEX
  5
C6
330
C5
100
AcDbEntity
  8
_U+56FE_U+5C42 1
 62
    29
370
   100
100
AcDbVertex
100
AcDb2dVertex
 10
-14.9513697020308
 20
-287.7115372152031
 30
0.0
  0
VERTEX
  5
C7
330
C5
100
AcDbEntity
  8
_U+56FE_U+5C42 1
 62
    29
370
   100
100
AcDbVertex
100
AcDb2dVertex
 10
-14.9513697020308
 20
-292.0115372141288
 30
0.0
  0
VERTEX
  5
C8
330
C5
100
AcDbEntity
  8
_U+56FE_U+5C42 1
 62
    29
370
   100
100
AcDbVertex
100
AcDb2dVertex
 10
-24.95136969953109
 20
-292.0115372141288
 30
0.0
  0
VERTEX
  5
C9
330
C5
100
AcDbEntity
  8
_U+56FE_U+5C42 1
 62
    29
370
   100
100
AcDbVertex
100
AcDb2dVertex
 10
-24.95136969953109
 20
-287.7115372152031
 30
0.0
  0
VERTEX
  5
CA
330
C5
100
AcDbEntity
  8
_U+56FE_U+5C42 1
 62
    29
370
   100
100
AcDbVertex
100
AcDb2dVertex
 10
-14.9513697020308
 20
-287.7115372152031
 30
0.0
  0
SEQEND
  5
CB
330
C5
100
AcDbEntity
  8
_U+56FE_U+5C42 1
 62
    29
370
   100
  0
POLYLINE
  5
CC
330
41
100
AcDbEntity
  8
_U+56FE_U+5C42 1
 62
    29
370
   100
100
AcDb2dPolyline
 66
     1
 10
0.0
 20
0.0
 30
0.0
  0
VERTEX
  5
CD
330
CC
100
AcDbEntity
  8
_U+56FE_U+5C42 1
 62
    29
370
   100
100
AcDbVertex
100
AcDb2dVertex
 10
25.04863028796909
 20
-287.7115372152031
 30
0.0
  0
VERTEX
  5
CE
330
CC
100
AcDbEntity
  8
_U+56FE_U+5C42 1
 62
    29
370
   100
100
AcDbVertex
100
AcDb2dVertex
 10
25.04863028796909
 20
-292.0115372141288
 30
0.0
  0
VERTEX
  5
CF
330
CC
100
AcDbEntity
  8
_U+56FE_U+5C42 1
 62
    29
370
   100
100
AcDbVertex
100
AcDb2dVertex
 10
15.0486302904688
 20
-292.0115372141288
 30
0.0
  0
VERTEX
  5
D0
330
CC
100
AcDbEntity
  8
_U+56FE_U+5C42 1
 62
    29
370
   100
100
AcDbVertex
100
AcDb2dVertex
 10
15.0486302904688
 20
-287.7115372152031
 30
0.0
  0
VERTEX
  5
D1
330
CC
100
AcDbEntity
  8
_U+56FE_U+5C42 1
 62
    29
370
   100
100
AcDbVertex
100
AcDb2dVertex
 10
25.04863028796909
 20
-287.7115372152031
 30
0.0
  0
SEQEND
  5
D2
330
CC
100
AcDbEntity
  8
_U+56FE_U+5C42 1
 62
    29
370
   100
  0
POLYLINE
  5
D3
330
41
100
AcDbEntity
  8
_U+56FE_U+5C42 1
 62
    29
370
   100
100
AcDb2dPolyline
 66
     1
 10
0.0
 20
0.0
 30
0.0
  0
VERTEX
  5
D4
330
D3
100
AcDbEntity
  8
_U+56FE_U+5C42 1
 62
    29
370
   100
100
AcDbVertex
100
AcDb2dVertex
 10
150.0486302567199
 20
-292.0115372141288
 30
0.0
  0
VERTEX
  5
D5
330
D3
100
AcDbEntity
  8
_U+56FE_U+5C42 1
 62
    29
370
   100
100
AcDbVertex
100
AcDb2dVertex
 10
150.0486302567199
 20
-296.3115372130544
 30
0.0
  0
VERTEX
  5
D6
330
D3
100
AcDbEntity
  8
_U+56FE_U+5C42 1
 62
    29
370
   100
100
AcDbVertex
100
AcDb2dVertex
 10
130.0486302617193
 20
-296.3115372130544
 30
0.0
  0
VERTEX
  5
D7
330
D3
100
AcDbEntity
  8
_U+56FE_U+5C42 1
 62
    29
370
   100
100
AcDbVertex
100
AcDb2dVertex
 10
130.0486302617193
 20
-292.0115372141288
 30
0.0
  0
VERTEX
  5
D8
330
D3
100
AcDbEntity
  8
_U+56FE_U+5C42 1
 62
    29
370
   100
100
AcDbVertex
100
AcDb2dVertex
 10
150.0486302567199
 20
-292.0115372141288
 30
0.0
  0
SEQEND
  5
D9
330
D3
100
AcDbEntity
  8
_U+56FE_U+5C42 1
 62
    29
370
   100
  0
POLYLINE
  5
DA
330
41
100
AcDbEntity
  8
_U+56FE_U+5C42 1
 62
    29
370
   100
100
AcDb2dPolyline
 66
     1
 10
0.0
 20
0.0
 30
0.0
  0
VERTEX
  5
DB
330
DA
100
AcDbEntity
  8
_U+56FE_U+5C42 1
 62
    29
370
   100
100
AcDbVertex
100
AcDb2dVertex
 10
190.0486302467198
 20
-292.0115372141288
 30
0.0
  0
VERTEX
  5
DC
330
DA
100
AcDbEntity
  8
_U+56FE_U+5C42 1
 62
    29
370
   100
100
AcDbVertex
100
AcDb2dVertex
 10
190.0486302467198
 20
-296.3115372130544
 30
0.0
  0
VERTEX
  5
DD
330
DA
100
AcDbEntity
  8
_U+56FE_U+5C42 1
 62
    29
370
   100
100
AcDbVertex
100
AcDb2dVertex
 10
170.0486302517192
 20
-296.3115372130544
 30
0.0
  0
VERTEX
  5
DE
330
DA
100
AcDbEntity
  8
_U+56FE_U+5C42 1
 62
    29
370
   100
100
AcDbVertex
100
AcDb2dVertex
 10
170.0486302517192
 20
-292.0115372141288
 30
0.0
  0
VERTEX
  5
DF
330
DA
100
AcDbEntity
  8
_U+56FE_U+5C42 1
 62
    29
370
   100
100
AcDbVertex
100
AcDb2dVertex
 10
190.0486302467198
 20
-292.0115372141288
 30
0.0
  0
SEQEND
  5
E0
330
DA
100
AcDbEntity
  8
_U+56FE_U+5C42 1
 62
    29
370
   100
  0
POLYLINE
  5
E1
330
41
100
AcDbEntity
  8
_U+56FE_U+5C42 1
 62
    29
370
   100
100
AcDb2dPolyline
 66
     1
 10
0.0
 20
0.0
 30
0.0
  0
VERTEX
  5
E2
330
E1
100
AcDbEntity
  8
_U+56FE_U+5C42 1
 62
    29
370
   100
100
AcDbVertex
100
AcDb2dVertex
 10
230.0486302367196
 20
-292.0115372141288
 30
0.0
  0
VERTEX
  5
E3
330
E1
100
AcDbEntity
  8
_U+56FE_U+5C42 1
 62
    29
370
   100
100
AcDbVertex
100
AcDb2dVertex
 10
230.0486302367196
 20
-296.3115372130544
 30
0.0
  0
VERTEX
  5
E4
330
E1
100
AcDbEntity
  8
_U+56FE_U+5C42 1
 62
    29
370
   100
100
AcDbVertex
100
AcDb2dVertex
 10
210.0486302417191
 20
-296.3115372130544
 30
0.0
  0
VERTEX
  5
E5
330
E1
100
AcDbEntity
  8
_U+56FE_U+5C42 1
 62
    29
370
   100
100
AcDbVertex
100
AcDb2dVertex
 10
210.0486302417191
 20
-292.0115372141288
 30
0.0
  0
VERTEX
  5
E6
330
E1
100
AcDbEntity
  8
_U+56FE_U+5C42 1
 62
    29
370
   100
100
AcDbVertex
100
AcDb2dVertex
 10
230.0486302367196
 20
-292.0115372141288
 30
0.0
  0
SEQEND
  5
E7
330
E1
100
AcDbEntity
  8
_U+56FE_U+5C42 1
 62
    29
370
   100
  0
POLYLINE
  5
E8
330
41
100
AcDbEntity
  8
_U+56FE_U+5C42 1
 62
    29
370
   100
100
AcDb2dPolyline
 66
     1
 10
0.0
 20
0.0
 30
0.0
  0
VERTEX
  5
E9
330
E8
100
AcDbEntity
  8
_U+56FE_U+5C42 1
 62
    29
370
   100
100
AcDbVertex
100
AcDb2dVertex
 10
205.0486302429696
 20
-287.7115372152031
 30
0.0
  0
VERTEX
  5
EA
330
E8
100
AcDbEntity
  8
_U+56FE_U+5C42 1
 62
    29
370
   100
100
AcDbVertex
100
AcDb2dVertex
 10
205.0486302429696
 20
-292.0115372141288
 30
0.0
  0
VERTEX
  5
EB
330
E8
100
AcDbEntity
  8
_U+56FE_U+5C42 1
 62
    29
370
   100
100
AcDbVertex
100
AcDb2dVertex
 10
195.0486302454693
 20
-292.0115372141288
 30
0.0
  0
VERTEX
  5
EC
330
E8
100
AcDbEntity
  8
_U+56FE_U+5C42 1
 62
    29
370
   100
100
AcDbVertex
100
AcDb2dVertex
 10
195.0486302454693
 20
-287.7115372152031
 30
0.0
  0
VERTEX
  5
ED
330
E8
100
AcDbEntity
  8
_U+56FE_U+5C42 1
 62
    29
370
   100
100
AcDbVertex
100
AcDb2dVertex
 10
205.0486302429696
 20
-287.7115372152031
 30
0.0
  0
SEQEND
  5
EE
330
E8
100
AcDbEntity
  8
_U+56FE_U+5C42 1
 62
    29
370
   100
  0
POLYLINE
  5
EF
330
41
100
AcDbEntity
  8
_U+56FE_U+5C42 1
 62
    29
370
   100
100
AcDb2dPolyline
 66
     1
 10
0.0
 20
0.0
 30
0.0
  0
VERTEX
  5
F0
330
EF
100
AcDbEntity
  8
_U+56FE_U+5C42 1
 62
    29
370
   100
100
AcDbVertex
100
AcDb2dVertex
 10
245.0486302329695
 20
-287.7115372152031
 30
0.0
  0
VERTEX
  5
F1
330
EF
100
AcDbEntity
  8
_U+56FE_U+5C42 1
 62
    29
370
   100
100
AcDbVertex
100
AcDb2dVertex
 10
245.0486302329695
 20
-292.0115372141288
 30
0.0
  0
VERTEX
  5
F2
330
EF
100
AcDbEntity
  8
_U+56FE_U+5C42 1
 62
    29
370
   100
100
AcDbVertex
100
AcDb2dVertex
 10
235.0486302354691
 20
-292.0115372141288
 30
0.0
  0
VERTEX
  5
F3
330
EF
100
AcDbEntity
  8
_U+56FE_U+5C42 1
 62
    29
370
   100
100
AcDbVertex
100
AcDb2dVertex
 10
235.0486302354691
 20
-287.7115372152031
 30
0.0
  0
VERTEX
  5
F4
330
EF
100
AcDbEntity
  8
_U+56FE_U+5C42 1
 62
    29
370
   100
100
AcDbVertex
100
AcDb2dVertex
 10
245.0486302329695
 20
-287.7115372152031
 30
0.0
  0
SEQEND
  5
F5
330
EF
100
AcDbEntity
  8
_U+56FE_U+5C42 1
 62
    29
370
   100
  0
POLYLINE
  5
F6
330
41
100
AcDbEntity
  8
_U+56FE_U+5C42 1
 62
    29
370
   100
100
AcDb2dPolyline
 66
     1
 10
0.0
 20
0.0
 30
0.0
  0
VERTEX
  5
F7
330
F6
100
AcDbEntity
  8
_U+56FE_U+5C42 1
 62
    29
370
   100
100
AcDbVertex
100
AcDb2dVertex
 10
165.0486302529697
 20
-287.7115372152031
 30
0.0
  0
VERTEX
  5
F8
330
F6
100
AcDbEntity
  8
_U+56FE_U+5C42 1
 62
    29
370
   100
100
AcDbVertex
100
AcDb2dVertex
 10
165.0486302529697
 20
-292.0115372141288
 30
0.0
  0
VERTEX
  5
F9
330
F6
100
AcDbEntity
  8
_U+56FE_U+5C42 1
 62
    29
370
   100
100
AcDbVertex
100
AcDb2dVertex
 10
155.0486302554694
 20
-292.0115372141288
 30
0.0
  0
VERTEX
  5
FA
330
F6
100
AcDbEntity
  8
_U+56FE_U+5C42 1
 62
    29
370
   100
100
AcDbVertex
100
AcDb2dVertex
 10
155.0486302554694
 20
-287.7115372152031
 30
0.0
  0
VERTEX
  5
FB
330
F6
100
AcDbEntity
  8
_U+56FE_U+5C42 1
 62
    29
370
   100
100
AcDbVertex
100
AcDb2dVertex
 10
165.0486302529697
 20
-287.7115372152031
 30
0.0
  0
SEQEND
  5
FC
330
F6
100
AcDbEntity
  8
_U+56FE_U+5C42 1
 62
    29
370
   100
  0
POLYLINE
  5
FD
330
41
100
AcDbEntity
  8
_U+56FE_U+5C42 1
 62
    29
370
   100
100
AcDb2dPolyline
 66
     1
 10
0.0
 20
0.0
 30
0.0
  0
VERTEX
  5
FE
330
FD
100
AcDbEntity
  8
_U+56FE_U+5C42 1
 62
    29
370
   100
100
AcDbVertex
100
AcDb2dVertex
 10
210.0486302417191
 20
79.37698501954327
 30
0.0
  0
VERTEX
  5
FF
330
FD
100
AcDbEntity
  8
_U+56FE_U+5C42 1
 62
    29
370
   100
100
AcDbVertex
100
AcDb2dVertex
 10
210.0486302417191
 20
83.6769850184689
 30
0.0
  0
VERTEX
  5
100
330
FD
100
AcDbEntity
  8
_U+56FE_U+5C42 1
 62
    29
370
   100
100
AcDbVertex
100
AcDb2dVertex
 10
230.0486302367196
 20
83.6769850184689
 30
0.0
  0
VERTEX
  5
101
330
FD
100
AcDbEntity
  8
_U+56FE_U+5C42 1
 62
    29
370
   100
100
AcDbVertex
100
AcDb2dVertex
 10
230.0486302367196
 20
79.37698501954327
 30
0.0
  0
VERTEX
  5
102
330
FD
100
AcDbEntity
  8
_U+56FE_U+5C42 1
 62
    29
370
   100
100
AcDbVertex
100
AcDb2dVertex
 10
210.0486302417191
 20
79.37698501954327
 30
0.0
  0
SEQEND
  5
103
330
FD
100
AcDbEntity
  8
_U+56FE_U+5C42 1
 62
    29
370
   100
  0
POLYLINE
  5
104
330
41
100
AcDbEntity
  8
_U+56FE_U+5C42 1
 62
    29
370
   100
100
AcDb2dPolyline
 66
     1
 10
0.0
 20
0.0
 30
0.0
  0
VERTEX
  5
105
330
104
100
AcDbEntity
  8
_U+56FE_U+5C42 1
 62
    29
370
   100
100
AcDbVertex
100
AcDb2dVertex
 10
170.0486302517192
 20
79.37698501954327
 30
0.0
  0
VERTEX
  5
106
330
104
100
AcDbEntity
  8
_U+56FE_U+5C42 1
 62
    29
370
   100
100
AcDbVertex
100
AcDb2dVertex
 10
170.0486302517192
 20
83.6769850184689
 30
0.0
  0
VERTEX
  5
107
330
104
100
AcDbEntity
  8
_U+56FE_U+5C42 1
 62
    29
370
   100
100
AcDbVertex
100
AcDb2dVertex
 10
190.0486302467198
 20
83.6769850184689
 30
0.0
  0
VERTEX
  5
108
330
104
100
AcDbEntity
  8
_U+56FE_U+5C42 1
 62
    29
370
   100
100
AcDbVertex
100
AcDb2dVertex
 10
190.0486302467198
 20
79.37698501954327
 30
0.0
  0
VERTEX
  5
109
330
104
100
AcDbEntity
  8
_U+56FE_U+5C42 1
 62
    29
370
   100
100
AcDbVertex
100
AcDb2dVertex
 10
170.0486302517192
 20
79.37698501954327
 30
0.0
  0
SEQEND
  5
10A
330
104
100
AcDbEntity
  8
_U+56FE_U+5C42 1
 62
    29
370
   100
  0
POLYLINE
  5
10B
330
41
100
AcDbEntity
  8
_U+56FE_U+5C42 1
 62
    29
370
   100
100
AcDb2dPolyline
 66
     1
 10
0.0
 20
0.0
 30
0.0
  0
VERTEX
  5
10C
330
10B
100
AcDbEntity
  8
_U+56FE_U+5C42 1
 62
    29
370
   100
100
AcDbVertex
100
AcDb2dVertex
 10
130.0486302617193
 20
79.37698501954327
 30
0.0
  0
VERTEX
  5
10D
330
10B
100
AcDbEntity
  8
_U+56FE_U+5C42 1
 62
    29
370
   100
100
AcDbVertex
100
AcDb2dVertex
 10
130.0486302617193
 20
83.6769850184689
 30
0.0
  0
VERTEX
  5
10E
330
10B
100
AcDbEntity
  8
_U+56FE_U+5C42 1
 62
    29
370
   100
100
AcDbVertex
100
AcDb2dVertex
 10
150.0486302567199
 20
83.6769850184689
 30
0.0
  0
VERTEX
  5
10F
330
10B
100
AcDbEntity
  8
_U+56FE_U+5C42 1
 62
    29
370
   100
100
AcDbVertex
100
AcDb2dVertex
 10
150.0486302567199
 20
79.37698501954327
 30
0.0
  0
VERTEX
  5
110
330
10B
100
AcDbEntity
  8
_U+56FE_U+5C42 1
 62
    29
370
   100
100
AcDbVertex
100
AcDb2dVertex
 10
130.0486302617193
 20
79.37698501954327
 30
0.0
  0
SEQEND
  5
111
330
10B
100
AcDbEntity
  8
_U+56FE_U+5C42 1
 62
    29
370
   100
  0
POLYLINE
  5
112
330
41
100
AcDbEntity
  8
_U+56FE_U+5C42 1
 62
    29
370
   100
100
AcDb2dPolyline
 66
     1
 10
0.0
 20
0.0
 30
0.0
  0
VERTEX
  5
113
330
112
100
AcDbEntity
  8
_U+56FE_U+5C42 1
 62
    29
370
   100
100
AcDbVertex
100
AcDb2dVertex
 10
155.0486302554694
 20
75.07698502061764
 30
0.0
  0
VERTEX
  5
114
330
112
100
AcDbEntity
  8
_U+56FE_U+5C42 1
 62
    29
370
   100
100
AcDbVertex
100
AcDb2dVertex
 10
155.0486302554694
 20
79.37698501954327
 30
0.0
  0
VERTEX
  5
115
330
112
100
AcDbEntity
  8
_U+56FE_U+5C42 1
 62
    29
370
   100
100
AcDbVertex
100
AcDb2dVertex
 10
165.0486302529697
 20
79.37698501954327
 30
0.0
  0
VERTEX
  5
116
330
112
100
AcDbEntity
  8
_U+56FE_U+5C42 1
 62
    29
370
   100
100
AcDbVertex
100
AcDb2dVertex
 10
165.0486302529697
 20
75.07698502061764
 30
0.0
  0
VERTEX
  5
117
330
112
100
AcDbEntity
  8
_U+56FE_U+5C42 1
 62
    29
370
   100
100
AcDbVertex
100
AcDb2dVertex
 10
155.0486302554694
 20
75.07698502061764
 30
0.0
  0
SEQEND
  5
118
330
112
100
AcDbEntity
  8
_U+56FE_U+5C42 1
 62
    29
370
   100
  0
POLYLINE
  5
119
330
41
100
AcDbEntity
  8
_U+56FE_U+5C42 1
 62
    29
370
   100
100
AcDb2dPolyline
 66
     1
 10
0.0
 20
0.0
 30
0.0
  0
VERTEX
  5
11A
330
119
100
AcDbEntity
  8
_U+56FE_U+5C42 1
 62
    29
370
   100
100
AcDbVertex
100
AcDb2dVertex
 10
115.0486302654695
 20
75.07698502061764
 30
0.0
  0
VERTEX
  5
11B
330
119
100
AcDbEntity
  8
_U+56FE_U+5C42 1
 62
    29
370
   100
100
AcDbVertex
100
AcDb2dVertex
 10
115.0486302654695
 20
79.37698501954327
 30
0.0
  0
VERTEX
  5
11C
330
119
100
AcDbEntity
  8
_U+56FE_U+5C42 1
 62
    29
370
   100
100
AcDbVertex
100
AcDb2dVertex
 10
125.0486302629698
 20
79.37698501954327
 30
0.0
  0
VERTEX
  5
11D
330
119
100
AcDbEntity
  8
_U+56FE_U+5C42 1
 62
    29
370
   100
100
AcDbVertex
100
AcDb2dVertex
 10
125.0486302629698
 20
75.07698502061764
 30
0.0
  0
VERTEX
  5
11E
330
119
100
AcDbEntity
  8
_U+56FE_U+5C42 1
 62
    29
370
   100
100
AcDbVertex
100
AcDb2dVertex
 10
115.0486302654695
 20
75.07698502061764
 30
0.0
  0
SEQEND
  5
11F
330
119
100
AcDbEntity
  8
_U+56FE_U+5C42 1
 62
    29
370
   100
  0
POLYLINE
  5
120
330
41
100
AcDbEntity
  8
_U+56FE_U+5C42 1
 62
    29
370
   100
100
AcDb2dPolyline
 66
     1
 10
0.0
 20
0.0
 30
0.0
  0
VERTEX
  5
121
330
120
100
AcDbEntity
  8
_U+56FE_U+5C42 1
 62
    29
370
   100
100
AcDbVertex
100
AcDb2dVertex
 10
235.0486302354691
 20
75.07698502061764
 30
0.0
  0
VERTEX
  5
122
330
120
100
AcDbEntity
  8
_U+56FE_U+5C42 1
 62
    29
370
   100
100
AcDbVertex
100
AcDb2dVertex
 10
235.0486302354691
 20
79.37698501954327
 30
0.0
  0
VERTEX
  5
123
330
120
100
AcDbEntity
  8
_U+56FE_U+5C42 1
 62
    29
370
   100
100
AcDbVertex
100
AcDb2dVertex
 10
245.0486302329695
 20
79.37698501954327
 30
0.0
  0
VERTEX
  5
124
330
120
100
AcDbEntity
  8
_U+56FE_U+5C42 1
 62
    29
370
   100
100
AcDbVertex
100
AcDb2dVertex
 10
245.0486302329695
 20
75.07698502061764
 30
0.0
  0
VERTEX
  5
125
330
120
100
AcDbEntity
  8
_U+56FE_U+5C42 1
 62
    29
370
   100
100
AcDbVertex
100
AcDb2dVertex
 10
235.0486302354691
 20
75.07698502061764
 30
0.0
  0
SEQEND
  5
126
330
120
100
AcDbEntity
  8
_U+56FE_U+5C42 1
 62
    29
370
   100
  0
POLYLINE
  5
127
330
41
100
AcDbEntity
  8
_U+56FE_U+5C42 1
 62
    29
370
   100
100
AcDb2dPolyline
 66
     1
 10
0.0
 20
0.0
 30
0.0
  0
VERTEX
  5
128
330
127
100
AcDbEntity
  8
_U+56FE_U+5C42 1
 62
    29
370
   100
100
AcDbVertex
100
AcDb2dVertex
 10
195.0486302454693
 20
75.07698502061764
 30
0.0
  0
VERTEX
  5
129
330
127
100
AcDbEntity
  8
_U+56FE_U+5C42 1
 62
    29
370
   100
100
AcDbVertex
100
AcDb2dVertex
 10
195.0486302454693
 20
79.37698501954327
 30
0.0
  0
VERTEX
  5
12A
330
127
100
AcDbEntity
  8
_U+56FE_U+5C42 1
 62
    29
370
   100
100
AcDbVertex
100
AcDb2dVertex
 10
205.0486302429696
 20
79.37698501954327
 30
0.0
  0
VERTEX
  5
12B
330
127
100
AcDbEntity
  8
_U+56FE_U+5C42 1
 62
    29
370
   100
100
AcDbVertex
100
AcDb2dVertex
 10
205.0486302429696
 20
75.07698502061764
 30
0.0
  0
VERTEX
  5
12C
330
127
100
AcDbEntity
  8
_U+56FE_U+5C42 1
 62
    29
370
   100
100
AcDbVertex
100
AcDb2dVertex
 10
195.0486302454693
 20
75.07698502061764
 30
0.0
  0
SEQEND
  5
12D
330
127
100
AcDbEntity
  8
_U+56FE_U+5C42 1
 62
    29
370
   100
  0
POLYLINE
  5
12E
330
41
100
AcDbEntity
  8
_U+56FE_U+5C42 1
 62
    29
370
   100
100
AcDb2dPolyline
 66
     1
 10
0.0
 20
0.0
 30
0.0
  0
VERTEX
  5
12F
330
12E
100
AcDbEntity
  8
_U+56FE_U+5C42 1
 62
    29
370
   100
100
AcDbVertex
100
AcDb2dVertex
 10
70.04863027671912
 20
79.37698501954327
 30
0.0
  0
VERTEX
  5
130
330
12E
100
AcDbEntity
  8
_U+56FE_U+5C42 1
 62
    29
370
   100
100
AcDbVertex
100
AcDb2dVertex
 10
70.04863027671912
 20
83.6769850184689
 30
0.0
  0
VERTEX
  5
131
330
12E
100
AcDbEntity
  8
_U+56FE_U+5C42 1
 62
    29
370
   100
100
AcDbVertex
100
AcDb2dVertex
 10
90.04863027171939
 20
83.6769850184689
 30
0.0
  0
VERTEX
  5
132
330
12E
100
AcDbEntity
  8
_U+56FE_U+5C42 1
 62
    29
370
   100
100
AcDbVertex
100
AcDb2dVertex
 10
90.04863027171939
 20
79.37698501954327
 30
0.0
  0
VERTEX
  5
133
330
12E
100
AcDbEntity
  8
_U+56FE_U+5C42 1
 62
    29
370
   100
100
AcDbVertex
100
AcDb2dVertex
 10
70.04863027671912
 20
79.37698501954327
 30
0.0
  0
SEQEND
  5
134
330
12E
100
AcDbEntity
  8
_U+56FE_U+5C42 1
 62
    29
370
   100
  0
POLYLINE
  5
135
330
41
100
AcDbEntity
  8
_U+56FE_U+5C42 1
 62
    29
370
   100
100
AcDb2dPolyline
 66
     1
 10
0.0
 20
0.0
 30
0.0
  0
VERTEX
  5
136
330
135
100
AcDbEntity
  8
_U+56FE_U+5C42 1
 62
    29
370
   100
100
AcDbVertex
100
AcDb2dVertex
 10
30.04863028671924
 20
79.37698501954327
 30
0.0
  0
VERTEX
  5
137
330
135
100
AcDbEntity
  8
_U+56FE_U+5C42 1
 62
    29
370
   100
100
AcDbVertex
100
AcDb2dVertex
 10
30.04863028671924
 20
83.6769850184689
 30
0.0
  0
VERTEX
  5
138
330
135
100
AcDbEntity
  8
_U+56FE_U+5C42 1
 62
    29
370
   100
100
AcDbVertex
100
AcDb2dVertex
 10
50.04863028171982
 20
83.6769850184689
 30
0.0
  0
VERTEX
  5
139
330
135
100
AcDbEntity
  8
_U+56FE_U+5C42 1
 62
    29
370
   100
100
AcDbVertex
100
AcDb2dVertex
 10
50.04863028171982
 20
79.37698501954327
 30
0.0
  0
VERTEX
  5
13A
330
135
100
AcDbEntity
  8
_U+56FE_U+5C42 1
 62
    29
370
   100
100
AcDbVertex
100
AcDb2dVertex
 10
30.04863028671924
 20
79.37698501954327
 30
0.0
  0
SEQEND
  5
13B
330
135
100
AcDbEntity
  8
_U+56FE_U+5C42 1
 62
    29
370
   100
  0
POLYLINE
  5
13C
330
41
100
AcDbEntity
  8
_U+56FE_U+5C42 1
 62
    29
370
   100
100
AcDb2dPolyline
 66
     1
 10
0.0
 20
0.0
 30
0.0
  0
VERTEX
  5
13D
330
13C
100
AcDbEntity
  8
_U+56FE_U+5C42 1
 62
    29
370
   100
100
AcDbVertex
100
AcDb2dVertex
 10
-9.951369703280653
 20
79.37698501954327
 30
0.0
  0
VERTEX
  5
13E
330
13C
100
AcDbEntity
  8
_U+56FE_U+5C42 1
 62
    29
370
   100
100
AcDbVertex
100
AcDb2dVertex
 10
-9.951369703280653
 20
83.6769850184689
 30
0.0
  0
VERTEX
  5
13F
330
13C
100
AcDbEntity
  8
_U+56FE_U+5C42 1
 62
    29
370
   100
100
AcDbVertex
100
AcDb2dVertex
 10
10.04863029171993
 20
83.6769850184689
 30
0.0
  0
VERTEX
  5
140
330
13C
100
AcDbEntity
  8
_U+56FE_U+5C42 1
 62
    29
370
   100
100
AcDbVertex
100
AcDb2dVertex
 10
10.04863029171993
 20
79.37698501954327
 30
0.0
  0
VERTEX
  5
141
330
13C
100
AcDbEntity
  8
_U+56FE_U+5C42 1
 62
    29
370
   100
100
AcDbVertex
100
AcDb2dVertex
 10
-9.951369703280653
 20
79.37698501954327
 30
0.0
  0
SEQEND
  5
142
330
13C
100
AcDbEntity
  8
_U+56FE_U+5C42 1
 62
    29
370
   100
  0
POLYLINE
  5
143
330
41
100
AcDbEntity
  8
_U+56FE_U+5C42 1
 62
    29
370
   100
100
AcDb2dPolyline
 66
     1
 10
0.0
 20
0.0
 30
0.0
  0
VERTEX
  5
144
330
143
100
AcDbEntity
  8
_U+56FE_U+5C42 1
 62
    29
370
   100
100
AcDbVertex
100
AcDb2dVertex
 10
15.04863029046944
 20
75.07698502061764
 30
0.0
  0
VERTEX
  5
145
330
143
100
AcDbEntity
  8
_U+56FE_U+5C42 1
 62
    29
370
   100
100
AcDbVertex
100
AcDb2dVertex
 10
15.04863029046944
 20
79.37698501954327
 30
0.0
  0
VERTEX
  5
146
330
143
100
AcDbEntity
  8
_U+56FE_U+5C42 1
 62
    29
370
   100
100
AcDbVertex
100
AcDb2dVertex
 10
25.04863028796973
 20
79.37698501954327
 30
0.0
  0
VERTEX
  5
147
330
143
100
AcDbEntity
  8
_U+56FE_U+5C42 1
 62
    29
370
   100
100
AcDbVertex
100
AcDb2dVertex
 10
25.04863028796973
 20
75.07698502061764
 30
0.0
  0
VERTEX
  5
148
330
143
100
AcDbEntity
  8
_U+56FE_U+5C42 1
 62
    29
370
   100
100
AcDbVertex
100
AcDb2dVertex
 10
15.04863029046944
 20
75.07698502061764
 30
0.0
  0
SEQEND
  5
149
330
143
100
AcDbEntity
  8
_U+56FE_U+5C42 1
 62
    29
370
   100
  0
POLYLINE
  5
14A
330
41
100
AcDbEntity
  8
_U+56FE_U+5C42 1
 62
    29
370
   100
100
AcDb2dPolyline
 66
     1
 10
0.0
 20
0.0
 30
0.0
  0
VERTEX
  5
14B
330
14A
100
AcDbEntity
  8
_U+56FE_U+5C42 1
 62
    29
370
   100
100
AcDbVertex
100
AcDb2dVertex
 10
-24.95136969953045
 20
75.07698502061764
 30
0.0
  0
VERTEX
  5
14C
330
14A
100
AcDbEntity
  8
_U+56FE_U+5C42 1
 62
    29
370
   100
100
AcDbVertex
100
AcDb2dVertex
 10
-24.95136969953045
 20
79.37698501954327
 30
0.0
  0
VERTEX
  5
14D
330
14A
100
AcDbEntity
  8
_U+56FE_U+5C42 1
 62
    29
370
   100
100
AcDbVertex
100
AcDb2dVertex
 10
-14.95136970203016
 20
79.37698501954327
 30
0.0
  0
VERTEX
  5
14E
330
14A
100
AcDbEntity
  8
_U+56FE_U+5C42 1
 62
    29
370
   100
100
AcDbVertex
100
AcDb2dVertex
 10
-14.95136970203016
 20
75.07698502061764
 30
0.0
  0
VERTEX
  5
14F
330
14A
100
AcDbEntity
  8
_U+56FE_U+5C42 1
 62
    29
370
   100
100
AcDbVertex
100
AcDb2dVertex
 10
-24.95136969953045
 20
75.07698502061764
 30
0.0
  0
SEQEND
  5
150
330
14A
100
AcDbEntity
  8
_U+56FE_U+5C42 1
 62
    29
370
   100
  0
POLYLINE
  5
151
330
41
100
AcDbEntity
  8
_U+56FE_U+5C42 1
 62
    29
370
   100
100
AcDb2dPolyline
 66
     1
 10
0.0
 20
0.0
 30
0.0
  0
VERTEX
  5
152
330
151
100
AcDbEntity
  8
_U+56FE_U+5C42 1
 62
    29
370
   100
100
AcDbVertex
100
AcDb2dVertex
 10
95.0486302704689
 20
75.07698502061764
 30
0.0
  0
VERTEX
  5
153
330
151
100
AcDbEntity
  8
_U+56FE_U+5C42 1
 62
    29
370
   100
100
AcDbVertex
100
AcDb2dVertex
 10
95.0486302704689
 20
79.37698501954327
 30
0.0
  0
VERTEX
  5
154
330
151
100
AcDbEntity
  8
_U+56FE_U+5C42 1
 62
    29
370
   100
100
AcDbVertex
100
AcDb2dVertex
 10
105.0486302679692
 20
79.37698501954327
 30
0.0
  0
VERTEX
  5
155
330
151
100
AcDbEntity
  8
_U+56FE_U+5C42 1
 62
    29
370
   100
100
AcDbVertex
100
AcDb2dVertex
 10
105.0486302679692
 20
75.07698502061764
 30
0.0
  0
VERTEX
  5
156
330
151
100
AcDbEntity
  8
_U+56FE_U+5C42 1
 62
    29
370
   100
100
AcDbVertex
100
AcDb2dVertex
 10
95.0486302704689
 20
75.07698502061764
 30
0.0
  0
SEQEND
  5
157
330
151
100
AcDbEntity
  8
_U+56FE_U+5C42 1
 62
    29
370
   100
  0
POLYLINE
  5
158
330
41
100
AcDbEntity
  8
_U+56FE_U+5C42 1
 62
    29
370
   100
100
AcDb2dPolyline
 66
     1
 10
0.0
 20
0.0
 30
0.0
  0
VERTEX
  5
159
330
158
100
AcDbEntity
  8
_U+56FE_U+5C42 1
 62
    29
370
   100
100
AcDbVertex
100
AcDb2dVertex
 10
55.04863028046933
 20
75.07698502061764
 30
0.0
  0
VERTEX
  5
15A
330
158
100
AcDbEntity
  8
_U+56FE_U+5C42 1
 62
    29
370
   100
100
AcDbVertex
100
AcDb2dVertex
 10
55.04863028046933
 20
79.37698501954327
 30
0.0
  0
VERTEX
  5
15B
330
158
100
AcDbEntity
  8
_U+56FE_U+5C42 1
 62
    29
370
   100
100
AcDbVertex
100
AcDb2dVertex
 10
65.04863027796962
 20
79.37698501954327
 30
0.0
  0
VERTEX
  5
15C
330
158
100
AcDbEntity
  8
_U+56FE_U+5C42 1
 62
    29
370
   100
100
AcDbVertex
100
AcDb2dVertex
 10
65.04863027796962
 20
75.07698502061764
 30
0.0
  0
VERTEX
  5
15D
330
158
100
AcDbEntity
  8
_U+56FE_U+5C42 1
 62
    29
370
   100
100
AcDbVertex
100
AcDb2dVertex
 10
55.04863028046933
 20
75.07698502061764
 30
0.0
  0
SEQEND
  5
15E
330
158
100
AcDbEntity
  8
_U+56FE_U+5C42 1
 62
    29
370
   100
  0
POLYLINE
  5
15F
330
41
100
AcDbEntity
  8
_U+56FE_U+5C42 1
 62
    29
370
   100
100
AcDb2dPolyline
 66
     1
 10
0.0
 20
0.0
 30
0.0
  0
VERTEX
  5
160
330
15F
100
AcDbEntity
  8
_U+56FE_U+5C42 1
 62
    29
370
   100
100
AcDbVertex
100
AcDb2dVertex
 10
295.7486302202948
 20
-206.32301490903
 30
0.0
  0
VERTEX
  5
161
330
15F
100
AcDbEntity
  8
_U+56FE_U+5C42 1
 62
    29
370
   100
100
AcDbVertex
100
AcDb2dVertex
 10
300.0486302192204
 20
-206.32301490903
 30
0.0
  0
VERTEX
  5
162
330
15F
100
AcDbEntity
  8
_U+56FE_U+5C42 1
 62
    29
370
   100
100
AcDbVertex
100
AcDb2dVertex
 10
300.0486302192204
 20
-226.3230149040306
 30
0.0
  0
VERTEX
  5
163
330
15F
100
AcDbEntity
  8
_U+56FE_U+5C42 1
 62
    29
370
   100
100
AcDbVertex
100
AcDb2dVertex
 10
295.7486302202948
 20
-226.3230149040306
 30
0.0
  0
VERTEX
  5
164
330
15F
100
AcDbEntity
  8
_U+56FE_U+5C42 1
 62
    29
370
   100
100
AcDbVertex
100
AcDb2dVertex
 10
295.7486302202948
 20
-206.32301490903
 30
0.0
  0
SEQEND
  5
165
330
15F
100
AcDbEntity
  8
_U+56FE_U+5C42 1
 62
    29
370
   100
  0
POLYLINE
  5
166
330
41
100
AcDbEntity
  8
_U+56FE_U+5C42 1
 62
    29
370
   100
100
AcDb2dPolyline
 66
     1
 10
0.0
 20
0.0
 30
0.0
  0
VERTEX
  5
167
330
166
100
AcDbEntity
  8
_U+56FE_U+5C42 1
 62
    29
370
   100
100
AcDbVertex
100
AcDb2dVertex
 10
295.7486302202948
 20
-166.3230149190301
 30
0.0
  0
VERTEX
  5
168
330
166
100
AcDbEntity
  8
_U+56FE_U+5C42 1
 62
    29
370
   100
100
AcDbVertex
100
AcDb2dVertex
 10
300.0486302192204
 20
-166.3230149190301
 30
0.0
  0
VERTEX
  5
169
330
166
100
AcDbEntity
  8
_U+56FE_U+5C42 1
 62
    29
370
   100
100
AcDbVertex
100
AcDb2dVertex
 10
300.0486302192204
 20
-186.3230149140307
 30
0.0
  0
VERTEX
  5
16A
330
166
100
AcDbEntity
  8
_U+56FE_U+5C42 1
 62
    29
370
   100
100
AcDbVertex
100
AcDb2dVertex
 10
295.7486302202948
 20
-186.3230149140307
 30
0.0
  0
VERTEX
  5
16B
330
166
100
AcDbEntity
  8
_U+56FE_U+5C42 1
 62
    29
370
   100
100
AcDbVertex
100
AcDb2dVertex
 10
295.7486302202948
 20
-166.3230149190301
 30
0.0
  0
SEQEND
  5
16C
330
166
100
AcDbEntity
  8
_U+56FE_U+5C42 1
 62
    29
370
   100
  0
POLYLINE
  5
16D
330
41
100
AcDbEntity
  8
_U+56FE_U+5C42 1
 62
    29
370
   100
100
AcDb2dPolyline
 66
     1
 10
0.0
 20
0.0
 30
0.0
  0
VERTEX
  5
16E
330
16D
100
AcDbEntity
  8
_U+56FE_U+5C42 1
 62
    29
370
   100
100
AcDbVertex
100
AcDb2dVertex
 10
295.7486302202948
 20
-126.3230149290302
 30
0.0
  0
VERTEX
  5
16F
330
16D
100
AcDbEntity
  8
_U+56FE_U+5C42 1
 62
    29
370
   100
100
AcDbVertex
100
AcDb2dVertex
 10
300.0486302192204
 20
-126.3230149290302
 30
0.0
  0
VERTEX
  5
170
330
16D
100
AcDbEntity
  8
_U+56FE_U+5C42 1
 62
    29
370
   100
100
AcDbVertex
100
AcDb2dVertex
 10
300.0486302192204
 20
-146.3230149240308
 30
0.0
  0
VERTEX
  5
171
330
16D
100
AcDbEntity
  8
_U+56FE_U+5C42 1
 62
    29
370
   100
100
AcDbVertex
100
AcDb2dVertex
 10
295.7486302202948
 20
-146.3230149240308
 30
0.0
  0
VERTEX
  5
172
330
16D
100
AcDbEntity
  8
_U+56FE_U+5C42 1
 62
    29
370
   100
100
AcDbVertex
100
AcDb2dVertex
 10
295.7486302202948
 20
-126.3230149290302
 30
0.0
  0
SEQEND
  5
173
330
16D
100
AcDbEntity
  8
_U+56FE_U+5C42 1
 62
    29
370
   100
  0
POLYLINE
  5
174
330
41
100
AcDbEntity
  8
_U+56FE_U+5C42 1
 62
    29
370
   100
100
AcDb2dPolyline
 66
     1
 10
0.0
 20
0.0
 30
0.0
  0
VERTEX
  5
175
330
174
100
AcDbEntity
  8
_U+56FE_U+5C42 1
 62
    29
370
   100
100
AcDbVertex
100
AcDb2dVertex
 10
291.4486302213692
 20
-151.3230149227803
 30
0.0
  0
VERTEX
  5
176
330
174
100
AcDbEntity
  8
_U+56FE_U+5C42 1
 62
    29
370
   100
100
AcDbVertex
100
AcDb2dVertex
 10
295.7486302202948
 20
-151.3230149227803
 30
0.0
  0
VERTEX
  5
177
330
174
100
AcDbEntity
  8
_U+56FE_U+5C42 1
 62
    29
370
   100
100
AcDbVertex
100
AcDb2dVertex
 10
295.7486302202948
 20
-161.3230149202806
 30
0.0
  0
VERTEX
  5
178
330
174
100
AcDbEntity
  8
_U+56FE_U+5C42 1
 62
    29
370
   100
100
AcDbVertex
100
AcDb2dVertex
 10
291.4486302213692
 20
-161.3230149202806
 30
0.0
  0
VERTEX
  5
179
330
174
100
AcDbEntity
  8
_U+56FE_U+5C42 1
 62
    29
370
   100
100
AcDbVertex
100
AcDb2dVertex
 10
291.4486302213692
 20
-151.3230149227803
 30
0.0
  0
SEQEND
  5
17A
330
174
100
AcDbEntity
  8
_U+56FE_U+5C42 1
 62
    29
370
   100
  0
POLYLINE
  5
17B
330
41
100
AcDbEntity
  8
_U+56FE_U+5C42 1
 62
    29
370
   100
100
AcDb2dPolyline
 66
     1
 10
0.0
 20
0.0
 30
0.0
  0
VERTEX
  5
17C
330
17B
100
AcDbEntity
  8
_U+56FE_U+5C42 1
 62
    29
370
   100
100
AcDbVertex
100
AcDb2dVertex
 10
291.4486302213692
 20
-111.3230149327804
 30
0.0
  0
VERTEX
  5
17D
330
17B
100
AcDbEntity
  8
_U+56FE_U+5C42 1
 62
    29
370
   100
100
AcDbVertex
100
AcDb2dVertex
 10
295.7486302202948
 20
-111.3230149327804
 30
0.0
  0
VERTEX
  5
17E
330
17B
100
AcDbEntity
  8
_U+56FE_U+5C42 1
 62
    29
370
   100
100
AcDbVertex
100
AcDb2dVertex
 10
295.7486302202948
 20
-121.3230149302807
 30
0.0
  0
VERTEX
  5
17F
330
17B
100
AcDbEntity
  8
_U+56FE_U+5C42 1
 62
    29
370
   100
100
AcDbVertex
100
AcDb2dVertex
 10
291.4486302213692
 20
-121.3230149302807
 30
0.0
  0
VERTEX
  5
180
330
17B
100
AcDbEntity
  8
_U+56FE_U+5C42 1
 62
    29
370
   100
100
AcDbVertex
100
AcDb2dVertex
 10
291.4486302213692
 20
-111.3230149327804
 30
0.0
  0
SEQEND
  5
181
330
17B
100
AcDbEntity
  8
_U+56FE_U+5C42 1
 62
    29
370
   100
  0
POLYLINE
  5
182
330
41
100
AcDbEntity
  8
_U+56FE_U+5C42 1
 62
    29
370
   100
100
AcDb2dPolyline
 66
     1
 10
0.0
 20
0.0
 30
0.0
  0
VERTEX
  5
183
330
182
100
AcDbEntity
  8
_U+56FE_U+5C42 1
 62
    29
370
   100
100
AcDbVertex
100
AcDb2dVertex
 10
291.4486302213692
 20
-231.3230149027801
 30
0.0
  0
VERTEX
  5
184
330
182
100
AcDbEntity
  8
_U+56FE_U+5C42 1
 62
    29
370
   100
100
AcDbVertex
100
AcDb2dVertex
 10
295.7486302202948
 20
-231.3230149027801
 30
0.0
  0
VERTEX
  5
185
330
182
100
AcDbEntity
  8
_U+56FE_U+5C42 1
 62
    29
370
   100
100
AcDbVertex
100
AcDb2dVertex
 10
295.7486302202948
 20
-241.3230149002804
 30
0.0
  0
VERTEX
  5
186
330
182
100
AcDbEntity
  8
_U+56FE_U+5C42 1
 62
    29
370
   100
100
AcDbVertex
100
AcDb2dVertex
 10
291.4486302213692
 20
-241.3230149002804
 30
0.0
  0
VERTEX
  5
187
330
182
100
AcDbEntity
  8
_U+56FE_U+5C42 1
 62
    29
370
   100
100
AcDbVertex
100
AcDb2dVertex
 10
291.4486302213692
 20
-231.3230149027801
 30
0.0
  0
SEQEND
  5
188
330
182
100
AcDbEntity
  8
_U+56FE_U+5C42 1
 62
    29
370
   100
  0
POLYLINE
  5
189
330
41
100
AcDbEntity
  8
_U+56FE_U+5C42 1
 62
    29
370
   100
100
AcDb2dPolyline
 66
     1
 10
0.0
 20
0.0
 30
0.0
  0
VERTEX
  5
18A
330
189
100
AcDbEntity
  8
_U+56FE_U+5C42 1
 62
    29
370
   100
100
AcDbVertex
100
AcDb2dVertex
 10
291.4486302213692
 20
-191.3230149127802
 30
0.0
  0
VERTEX
  5
18B
330
189
100
AcDbEntity
  8
_U+56FE_U+5C42 1
 62
    29
370
   100
100
AcDbVertex
100
AcDb2dVertex
 10
295.7486302202948
 20
-191.3230149127802
 30
0.0
  0
VERTEX
  5
18C
330
189
100
AcDbEntity
  8
_U+56FE_U+5C42 1
 62
    29
370
   100
100
AcDbVertex
100
AcDb2dVertex
 10
295.7486302202948
 20
-201.3230149102805
 30
0.0
  0
VERTEX
  5
18D
330
189
100
AcDbEntity
  8
_U+56FE_U+5C42 1
 62
    29
370
   100
100
AcDbVertex
100
AcDb2dVertex
 10
291.4486302213692
 20
-201.3230149102805
 30
0.0
  0
VERTEX
  5
18E
330
189
100
AcDbEntity
  8
_U+56FE_U+5C42 1
 62
    29
370
   100
100
AcDbVertex
100
AcDb2dVertex
 10
291.4486302213692
 20
-191.3230149127802
 30
0.0
  0
SEQEND
  5
18F
330
189
100
AcDbEntity
  8
_U+56FE_U+5C42 1
 62
    29
370
   100
  0
POLYLINE
  5
190
330
41
100
AcDbEntity
  8
_U+56FE_U+5C42 1
 62
    29
370
   100
100
AcDb2dPolyline
 66
     1
 10
0.0
 20
0.0
 30
0.0
  0
VERTEX
  5
191
330
190
100
AcDbEntity
  8
_U+56FE_U+5C42 1
 62
    29
370
   100
100
AcDbVertex
100
AcDb2dVertex
 10
295.7486302202948
 20
-66.32301494402972
 30
0.0
  0
VERTEX
  5
192
330
190
100
AcDbEntity
  8
_U+56FE_U+5C42 1
 62
    29
370
   100
100
AcDbVertex
100
AcDb2dVertex
 10
300.0486302192204
 20
-66.32301494402972
 30
0.0
  0
VERTEX
  5
193
330
190
100
AcDbEntity
  8
_U+56FE_U+5C42 1
 62
    29
370
   100
100
AcDbVertex
100
AcDb2dVertex
 10
300.0486302192204
 20
-86.32301493903032
 30
0.0
  0
VERTEX
  5
194
330
190
100
AcDbEntity
  8
_U+56FE_U+5C42 1
 62
    29
370
   100
100
AcDbVertex
100
AcDb2dVertex
 10
295.7486302202948
 20
-86.32301493903032
 30
0.0
  0
VERTEX
  5
195
330
190
100
AcDbEntity
  8
_U+56FE_U+5C42 1
 62
    29
370
   100
100
AcDbVertex
100
AcDb2dVertex
 10
295.7486302202948
 20
-66.32301494402972
 30
0.0
  0
SEQEND
  5
196
330
190
100
AcDbEntity
  8
_U+56FE_U+5C42 1
 62
    29
370
   100
  0
POLYLINE
  5
197
330
41
100
AcDbEntity
  8
_U+56FE_U+5C42 1
 62
    29
370
   100
100
AcDb2dPolyline
 66
     1
 10
0.0
 20
0.0
 30
0.0
  0
VERTEX
  5
198
330
197
100
AcDbEntity
  8
_U+56FE_U+5C42 1
 62
    29
370
   100
100
AcDbVertex
100
AcDb2dVertex
 10
295.7486302202948
 20
-26.32301495402984
 30
0.0
  0
VERTEX
  5
199
330
197
100
AcDbEntity
  8
_U+56FE_U+5C42 1
 62
    29
370
   100
100
AcDbVertex
100
AcDb2dVertex
 10
300.0486302192204
 20
-26.32301495402984
 30
0.0
  0
VERTEX
  5
19A
330
197
100
AcDbEntity
  8
_U+56FE_U+5C42 1
 62
    29
370
   100
100
AcDbVertex
100
AcDb2dVertex
 10
300.0486302192204
 20
-46.32301494903042
 30
0.0
  0
VERTEX
  5
19B
330
197
100
AcDbEntity
  8
_U+56FE_U+5C42 1
 62
    29
370
   100
100
AcDbVertex
100
AcDb2dVertex
 10
295.7486302202948
 20
-46.32301494903042
 30
0.0
  0
VERTEX
  5
19C
330
197
100
AcDbEntity
  8
_U+56FE_U+5C42 1
 62
    29
370
   100
100
AcDbVertex
100
AcDb2dVertex
 10
295.7486302202948
 20
-26.32301495402984
 30
0.0
  0
SEQEND
  5
19D
330
197
100
AcDbEntity
  8
_U+56FE_U+5C42 1
 62
    29
370
   100
  0
POLYLINE
  5
19E
330
41
100
AcDbEntity
  8
_U+56FE_U+5C42 1
 62
    29
370
   100
100
AcDb2dPolyline
 66
     1
 10
0.0
 20
0.0
 30
0.0
  0
VERTEX
  5
19F
330
19E
100
AcDbEntity
  8
_U+56FE_U+5C42 1
 62
    29
370
   100
100
AcDbVertex
100
AcDb2dVertex
 10
295.7486302202948
 20
13.67698503597005
 30
0.0
  0
VERTEX
  5
1A0
330
19E
100
AcDbEntity
  8
_U+56FE_U+5C42 1
 62
    29
370
   100
100
AcDbVertex
100
AcDb2dVertex
 10
300.0486302192204
 20
13.67698503597005
 30
0.0
  0
VERTEX
  5
1A1
330
19E
100
AcDbEntity
  8
_U+56FE_U+5C42 1
 62
    29
370
   100
100
AcDbVertex
100
AcDb2dVertex
 10
300.0486302192204
 20
-6.323014959030534
 30
0.0
  0
VERTEX
  5
1A2
330
19E
100
AcDbEntity
  8
_U+56FE_U+5C42 1
 62
    29
370
   100
100
AcDbVertex
100
AcDb2dVertex
 10
295.7486302202948
 20
-6.323014959030534
 30
0.0
  0
VERTEX
  5
1A3
330
19E
100
AcDbEntity
  8
_U+56FE_U+5C42 1
 62
    29
370
   100
100
AcDbVertex
100
AcDb2dVertex
 10
295.7486302202948
 20
13.67698503597005
 30
0.0
  0
SEQEND
  5
1A4
330
19E
100
AcDbEntity
  8
_U+56FE_U+5C42 1
 62
    29
370
   100
  0
POLYLINE
  5
1A5
330
41
100
AcDbEntity
  8
_U+56FE_U+5C42 1
 62
    29
370
   100
100
AcDb2dPolyline
 66
     1
 10
0.0
 20
0.0
 30
0.0
  0
VERTEX
  5
1A6
330
1A5
100
AcDbEntity
  8
_U+56FE_U+5C42 1
 62
    29
370
   100
100
AcDbVertex
100
AcDb2dVertex
 10
291.4486302213692
 20
-11.32301495778004
 30
0.0
  0
VERTEX
  5
1A7
330
1A5
100
AcDbEntity
  8
_U+56FE_U+5C42 1
 62
    29
370
   100
100
AcDbVertex
100
AcDb2dVertex
 10
295.7486302202948
 20
-11.32301495778004
 30
0.0
  0
VERTEX
  5
1A8
330
1A5
100
AcDbEntity
  8
_U+56FE_U+5C42 1
 62
    29
370
   100
100
AcDbVertex
100
AcDb2dVertex
 10
295.7486302202948
 20
-21.32301495528033
 30
0.0
  0
VERTEX
  5
1A9
330
1A5
100
AcDbEntity
  8
_U+56FE_U+5C42 1
 62
    29
370
   100
100
AcDbVertex
100
AcDb2dVertex
 10
291.4486302213692
 20
-21.32301495528033
 30
0.0
  0
VERTEX
  5
1AA
330
1A5
100
AcDbEntity
  8
_U+56FE_U+5C42 1
 62
    29
370
   100
100
AcDbVertex
100
AcDb2dVertex
 10
291.4486302213692
 20
-11.32301495778004
 30
0.0
  0
SEQEND
  5
1AB
330
1A5
100
AcDbEntity
  8
_U+56FE_U+5C42 1
 62
    29
370
   100
  0
POLYLINE
  5
1AC
330
41
100
AcDbEntity
  8
_U+56FE_U+5C42 1
 62
    29
370
   100
100
AcDb2dPolyline
 66
     1
 10
0.0
 20
0.0
 30
0.0
  0
VERTEX
  5
1AD
330
1AC
100
AcDbEntity
  8
_U+56FE_U+5C42 1
 62
    29
370
   100
100
AcDbVertex
100
AcDb2dVertex
 10
291.4486302213692
 20
28.67698503221985
 30
0.0
  0
VERTEX
  5
1AE
330
1AC
100
AcDbEntity
  8
_U+56FE_U+5C42 1
 62
    29
370
   100
100
AcDbVertex
100
AcDb2dVertex
 10
295.7486302202948
 20
28.67698503221985
 30
0.0
  0
VERTEX
  5
1AF
330
1AC
100
AcDbEntity
  8
_U+56FE_U+5C42 1
 62
    29
370
   100
100
AcDbVertex
100
AcDb2dVertex
 10
295.7486302202948
 20
18.67698503471956
 30
0.0
  0
VERTEX
  5
1B0
330
1AC
100
AcDbEntity
  8
_U+56FE_U+5C42 1
 62
    29
370
   100
100
AcDbVertex
100
AcDb2dVertex
 10
291.4486302213692
 20
18.67698503471956
 30
0.0
  0
VERTEX
  5
1B1
330
1AC
100
AcDbEntity
  8
_U+56FE_U+5C42 1
 62
    29
370
   100
100
AcDbVertex
100
AcDb2dVertex
 10
291.4486302213692
 20
28.67698503221985
 30
0.0
  0
SEQEND
  5
1B2
330
1AC
100
AcDbEntity
  8
_U+56FE_U+5C42 1
 62
    29
370
   100
  0
POLYLINE
  5
1B3
330
41
100
AcDbEntity
  8
_U+56FE_U+5C42 1
 62
    29
370
   100
100
AcDb2dPolyline
 66
     1
 10
0.0
 20
0.0
 30
0.0
  0
VERTEX
  5
1B4
330
1B3
100
AcDbEntity
  8
_U+56FE_U+5C42 1
 62
    29
370
   100
100
AcDbVertex
100
AcDb2dVertex
 10
291.4486302213692
 20
-91.32301493777982
 30
0.0
  0
VERTEX
  5
1B5
330
1B3
100
AcDbEntity
  8
_U+56FE_U+5C42 1
 62
    29
370
   100
100
AcDbVertex
100
AcDb2dVertex
 10
295.7486302202948
 20
-91.32301493777982
 30
0.0
  0
VERTEX
  5
1B6
330
1B3
100
AcDbEntity
  8
_U+56FE_U+5C42 1
 62
    29
370
   100
100
AcDbVertex
100
AcDb2dVertex
 10
295.7486302202948
 20
-101.3230149352801
 30
0.0
  0
VERTEX
  5
1B7
330
1B3
100
AcDbEntity
  8
_U+56FE_U+5C42 1
 62
    29
370
   100
100
AcDbVertex
100
AcDb2dVertex
 10
291.4486302213692
 20
-101.3230149352801
 30
0.0
  0
VERTEX
  5
1B8
330
1B3
100
AcDbEntity
  8
_U+56FE_U+5C42 1
 62
    29
370
   100
100
AcDbVertex
100
AcDb2dVertex
 10
291.4486302213692
 20
-91.32301493777982
 30
0.0
  0
SEQEND
  5
1B9
330
1B3
100
AcDbEntity
  8
_U+56FE_U+5C42 1
 62
    29
370
   100
  0
POLYLINE
  5
1BA
330
41
100
AcDbEntity
  8
_U+56FE_U+5C42 1
 62
    29
370
   100
100
AcDb2dPolyline
 66
     1
 10
0.0
 20
0.0
 30
0.0
  0
VERTEX
  5
1BB
330
1BA
100
AcDbEntity
  8
_U+56FE_U+5C42 1
 62
    29
370
   100
100
AcDbVertex
100
AcDb2dVertex
 10
291.4486302213692
 20
-51.32301494777993
 30
0.0
  0
VERTEX
  5
1BC
330
1BA
100
AcDbEntity
  8
_U+56FE_U+5C42 1
 62
    29
370
   100
100
AcDbVertex
100
AcDb2dVertex
 10
295.7486302202948
 20
-51.32301494777993
 30
0.0
  0
VERTEX
  5
1BD
330
1BA
100
AcDbEntity
  8
_U+56FE_U+5C42 1
 62
    29
370
   100
100
AcDbVertex
100
AcDb2dVertex
 10
295.7486302202948
 20
-61.32301494528022
 30
0.0
  0
VERTEX
  5
1BE
330
1BA
100
AcDbEntity
  8
_U+56FE_U+5C42 1
 62
    29
370
   100
100
AcDbVertex
100
AcDb2dVertex
 10
291.4486302213692
 20
-61.32301494528022
 30
0.0
  0
VERTEX
  5
1BF
330
1BA
100
AcDbEntity
  8
_U+56FE_U+5C42 1
 62
    29
370
   100
100
AcDbVertex
100
AcDb2dVertex
 10
291.4486302213692
 20
-51.32301494777993
 30
0.0
  0
SEQEND
  5
1C0
330
1BA
100
AcDbEntity
  8
_U+56FE_U+5C42 1
 62
    29
370
   100
  0
SPLINE
  5
1C1
330
41
100
AcDbEntity
  8
_U+56FE_U+5C42 1
 62
    29
370
   158
100
AcDbSpline
210
0.0
220
0.0
230
1.0
 70
    11
 71
     3
 72
    29
 73
    25
 74
     0
 42
0.0000000001
 43
0.0000000001
 12
1.0
 22
0.0
 32
0.0
 13
1.0
 23
0.0
 33
0.0
 40
0.0
 40
0.0
 40
0.0
 40
0.0
 40
1.0
 40
1.0
 40
1.0
 40
2.0
 40
2.0
 40
2.0
 40
3.0
 40
3.0
 40
3.0
 40
4.0
 40
4.0
 40
4.0
 40
5.0
 40
5.0
 40
5.0
 40
6.0
 40
6.0
 40
6.0
 40
7.0
 40
7.0
 40
7.0
 40
8.0
 40
8.0
 40
8.0
 40
8.0
 10
137.468200966807
 20
-279.1779434784524
 30
0.0
 10
137.468200966807
 20
-279.1779434784524
 30
0.0
 10
82.49625168852242
 20
-279.1779434814491
 30
0.0
 10
82.49625168852242
 20
-279.1779434814491
 30
0.0
 10
75.58494632657104
 20
-279.1779434818264
 30
0.0
 10
69.98222633699505
 20
-273.5752234851346
 30
0.0
 10
69.98222634614761
 20
-266.6639181231845
 30
0.0
 10
69.98222634614761
 20
-266.6639181231845
 30
0.0
 10
69.98222634614761
 20
-266.6638930738144
 30
0.0
 10
69.98222634614761
 20
-266.6638930738144
 30
0.0
 10
69.98222635530081
 20
-259.7525877226449
 30
0.0
 10
75.58494634126016
 20
-254.1498677443968
 30
0.0
 10
82.49625169243038
 20
-254.1498677447574
 30
0.0
 10
82.49625169243038
 20
-254.1498677447574
 30
0.0
 10
137.4682009805907
 20
-254.1498677476207
 30
0.0
 10
137.4682009805907
 20
-254.1498677476207
 30
0.0
 10
144.3795063381131
 20
-254.1498677479801
 30
0.0
 10
149.982226325866
 20
-259.752587737205
 30
0.0
 10
149.9822263244106
 20
-266.6638930947274
 30
0.0
 10
149.9822263244106
 20
-266.6638930947274
 30
0.0
 10
149.9822263244106
 20
-266.6639181228021
 30
0.0
 10
149.9822263244106
 20
-266.6639181228021
 30
0.0
 10
149.9822263229553
 20
-273.5752234858842
 30
0.0
 10
144.3795063298878
 20
-279.1779434780764
 30
0.0
 10
137.468200966807
 20
-279.1779434784524
 30
0.0
  0
ENDBLK
  5
44
330
41
100
AcDbEntity
  8
0
100
AcDbBlockEnd
  0
BLOCK
  5
1C4
330
1C2
100
AcDbEntity
  8
0
100
AcDbBlockBegin
  2
block 3
 70
     0
 10
0.0
 20
0.0
 30
0.0
  3
block 3
  1

  0
SPLINE
  5
1C6
330
1C2
100
AcDbEntity
  8
_U+56FE_U+5C42 1
 62
    29
370
   100
100
AcDbSpline
210
0.0
220
0.0
230
1.0
 70
    11
 71
     3
 72
    17
 73
    13
 74
     0
 42
0.0000000001
 43
0.0000000001
 12
1.0
 22
0.0
 32
0.0
 13
1.0
 23
0.0
 33
0.0
 40
0.0
 40
0.0
 40
0.0
 40
0.0
 40
1.0
 40
1.0
 40
1.0
 40
2.0
 40
2.0
 40
2.0
 40
3.0
 40
3.0
 40
3.0
 40
4.0
 40
4.0
 40
4.0
 40
4.0
 10
75.04863027547056
 20
-69.82301494315554
 30
0.0
 10
75.04863027547056
 20
-70.65144206764818
 30
0.0
 10
74.37705740033886
 20
-71.32301494278052
 30
0.0
 10
73.54863027584558
 20
-71.32301494278052
 30
0.0
 10
72.7202031513523
 20
-71.32301494278052
 30
0.0
 10
72.04863027622059
 20
-70.65144206764818
 30
0.0
 10
72.04863027622059
 20
-69.82301494315554
 30
0.0
 10
72.04863027622059
 20
-68.9945878186629
 30
0.0
 10
72.7202031513523
 20
-68.32301494353055
 30
0.0
 10
73.54863027584558
 20
-68.32301494353055
 30
0.0
 10
74.37705740033886
 20
-68.32301494353055
 30
0.0
 10
75.04863027547056
 20
-68.9945878186629
 30
0.0
 10
75.04863027547056
 20
-69.82301494315554
 30
0.0
  0
SPLINE
  5
1C7
330
1C2
100
AcDbEntity
  8
_U+56FE_U+5C42 1
 62
    29
370
   100
100
AcDbSpline
210
0.0
220
0.0
230
1.0
 70
    11
 71
     3
 72
    17
 73
    13
 74
     0
 42
0.0000000001
 43
0.0000000001
 12
1.0
 22
0.0
 32
0.0
 13
1.0
 23
0.0
 33
0.0
 40
0.0
 40
0.0
 40
0.0
 40
0.0
 40
1.0
 40
1.0
 40
1.0
 40
2.0
 40
2.0
 40
2.0
 40
3.0
 40
3.0
 40
3.0
 40
4.0
 40
4.0
 40
4.0
 40
4.0
 10
148.0486302572203
 20
-69.82301494315554
 30
0.0
 10
148.0486302572203
 20
-70.65144206764818
 30
0.0
 10
147.377057382088
 20
-71.32301494278052
 30
0.0
 10
146.5486302575953
 20
-71.32301494278052
 30
0.0
 10
145.7202031331014
 20
-71.32301494278052
 30
0.0
 10
145.0486302579704
 20
-70.65144206764818
 30
0.0
 10
145.0486302579704
 20
-69.82301494315554
 30
0.0
 10
145.0486302579704
 20
-68.9945878186629
 30
0.0
 10
145.7202031331014
 20
-68.32301494353055
 30
0.0
 10
146.5486302575953
 20
-68.32301494353055
 30
0.0
 10
147.377057382088
 20
-68.32301494353055
 30
0.0
 10
148.0486302572203
 20
-68.9945878186629
 30
0.0
 10
148.0486302572203
 20
-69.82301494315554
 30
0.0
  0
SPLINE
  5
1C8
330
1C2
100
AcDbEntity
  8
_U+56FE_U+5C42 1
 62
    29
370
   100
100
AcDbSpline
210
0.0
220
0.0
230
1.0
 70
    11
 71
     3
 72
    17
 73
    13
 74
     0
 42
0.0000000001
 43
0.0000000001
 12
1.0
 22
0.0
 32
0.0
 13
1.0
 23
0.0
 33
0.0
 40
0.0
 40
0.0
 40
0.0
 40
0.0
 40
1.0
 40
1.0
 40
1.0
 40
2.0
 40
2.0
 40
2.0
 40
3.0
 40
3.0
 40
3.0
 40
4.0
 40
4.0
 40
4.0
 40
4.0
 10
75.04863027547056
 20
-142.823014924905
 30
0.0
 10
75.04863027547056
 20
-143.6514420493976
 30
0.0
 10
74.37705740033886
 20
-144.32301492453
 30
0.0
 10
73.54863027584558
 20
-144.32301492453
 30
0.0
 10
72.7202031513523
 20
-144.32301492453
 30
0.0
 10
72.04863027622059
 20
-143.6514420493976
 30
0.0
 10
72.04863027622059
 20
-142.823014924905
 30
0.0
 10
72.04863027622059
 20
-141.9945878004123
 30
0.0
 10
72.7202031513523
 20
-141.32301492528
 30
0.0
 10
73.54863027584558
 20
-141.32301492528
 30
0.0
 10
74.37705740033886
 20
-141.32301492528
 30
0.0
 10
75.04863027547056
 20
-141.9945878004123
 30
0.0
 10
75.04863027547056
 20
-142.823014924905
 30
0.0
  0
SPLINE
  5
1C9
330
1C2
100
AcDbEntity
  8
_U+56FE_U+5C42 1
 62
    29
370
   100
100
AcDbSpline
210
0.0
220
0.0
230
1.0
 70
    11
 71
     3
 72
    17
 73
    13
 74
     0
 42
0.0000000001
 43
0.0000000001
 12
1.0
 22
0.0
 32
0.0
 13
1.0
 23
0.0
 33
0.0
 40
0.0
 40
0.0
 40
0.0
 40
0.0
 40
1.0
 40
1.0
 40
1.0
 40
2.0
 40
2.0
 40
2.0
 40
3.0
 40
3.0
 40
3.0
 40
4.0
 40
4.0
 40
4.0
 40
4.0
 10
148.0486302572203
 20
-142.823014924905
 30
0.0
 10
148.0486302572203
 20
-143.6514420493976
 30
0.0
 10
147.377057382088
 20
-144.32301492453
 30
0.0
 10
146.5486302575953
 20
-144.32301492453
 30
0.0
 10
145.7202031331014
 20
-144.32301492453
 30
0.0
 10
145.0486302579704
 20
-143.6514420493976
 30
0.0
 10
145.0486302579704
 20
-142.823014924905
 30
0.0
 10
145.0486302579704
 20
-141.9945878004123
 30
0.0
 10
145.7202031331014
 20
-141.32301492528
 30
0.0
 10
146.5486302575953
 20
-141.32301492528
 30
0.0
 10
147.377057382088
 20
-141.32301492528
 30
0.0
 10
148.0486302572203
 20
-141.9945878004123
 30
0.0
 10
148.0486302572203
 20
-142.823014924905
 30
0.0
  0
ENDBLK
  5
1C5
330
1C2
100
AcDbEntity
  8
0
100
AcDbBlockEnd
  0
ENDSEC
  0
SECTION
  2
ENTITIES
  0
INSERT
  5
42
330
1F
100
AcDbEntity
  8
_U+56FE_U+5C42 1
100
AcDbBlockReference
  2
block 2
 10
0.0
 20
0.0
 30
0.0
  0
INSERT
  5
1C3
330
1F
100
AcDbEntity
  8
_U+56FE_U+5C42 1
100
AcDbBlockReference
  2
block 3
 10
0.0
 20
0.0
 30
0.0
  0
ENDSEC
  0
SECTION
  2
OBJECTS
  0
DICTIONARY
  5
C
330
0
100
AcDbDictionary
281
     1
  3
ACAD_GROUP
350
D
  3
ACAD_LAYOUT
350
1A
  3
ACAD_MATERIAL
350
3B
  3
ACAD_MLEADERSTYLE
350
1CB
  3
ACAD_MLINESTYLE
350
17
  3
ACAD_PLOTSETTINGS
350
19
  3
ACAD_PLOTSTYLENAME
350
E
  3
ACAD_TABLESTYLE
350
1CA
  3
ACAD_VISUALSTYLE
350
2A
  0
SUN
  5
3F
330
29
100
AcDbSun
 90
        1
290
     0
 63
     7
421
 16777215
 40
1.0
291
     1
 91
  2455826
 92
 54000000
292
     0
 70
     2
 71
   256
280
     1
  0
DICTIONARY
  5
D
102
{ACAD_REACTORS
330
C
102
}
330
C
100
AcDbDictionary
281
     1
  0
DICTIONARY
  5
1A
102
{ACAD_REACTORS
330
C
102
}
330
C
100
AcDbDictionary
281
     1
  3
Layout1
350
1E
  3
Layout2
350
26
  3
Model
350
22
  0
DICTIONARY
  5
3B
102
{ACAD_REACTORS
330
C
102
}
330
C
100
AcDbDictionary
281
     1
  3
ByBlock
350
3D
  3
ByLayer
350
3C
  3
Global
350
3E
  0
DICTIONARY
  5
1CB
102
{ACAD_REACTORS
330
C
102
}
330
C
100
AcDbDictionary
281
     1
  0
DICTIONARY
  5
17
102
{ACAD_REACTORS
330
C
102
}
330
C
100
AcDbDictionary
281
     1
  3
Standard
350
18
  0
DICTIONARY
  5
19
102
{ACAD_REACTORS
330
C
102
}
330
C
100
AcDbDictionary
281
     1
  0
ACDBDICTIONARYWDFLT
  5
E
102
{ACAD_REACTORS
330
C
102
}
330
C
100
AcDbDictionary
281
     1
  3
Normal
350
F
100
AcDbDictionaryWithDefault
340
F
  0
DICTIONARY
  5
1CA
102
{ACAD_REACTORS
330
C
102
}
330
C
100
AcDbDictionary
281
     1
  0
DICTIONARY
  5
2A
102
{ACAD_REACTORS
330
C
102
}
330
C
100
AcDbDictionary
281
     1
  3
2dWireframe
350
2F
  3
3D Hidden
350
31
  3
3dWireframe
350
30
  3
Basic
350
32
  3
Brighten
350
36
  3
ColorChange
350
3A
  3
Conceptual
350
34
  3
Dim
350
35
  3
Facepattern
350
39
  3
Flat
350
2B
  3
FlatWithEdges
350
2C
  3
Gouraud
350
2D
  3
GouraudWithEdges
350
2E
  3
Linepattern
350
38
  3
Realistic
350
33
  3
Thicken
350
37
  0
LAYOUT
  5
1E
102
{ACAD_REACTORS
330
1A
102
}
330
1A
100
AcDbPlotSettings
  1

  2
none_device
  4

  6

 40
0.0
 41
0.0
 42
0.0
 43
0.0
 44
0.0
 45
0.0
 46
0.0
 47
0.0
 48
0.0
 49
0.0
140
0.0
141
0.0
142
1.0
143
1.0
 70
   688
 72
     0
 73
     0
 74
     5
  7

 75
    16
 76
     0
 77
     2
 78
   300
147
1.0
148
0.0
149
0.0
100
AcDbLayout
  1
Layout1
 70
     1
 71
     1
 10
0.0
 20
0.0
 11
12.0
 21
9.0
 12
0.0
 22
0.0
 32
0.0
 14
1.000000000000000E+20
 24
1.000000000000000E+20
 34
1.000000000000000E+20
 15
-1.000000000000000E+20
 25
-1.000000000000000E+20
 35
-1.000000000000000E+20
146
0.0
 13
0.0
 23
0.0
 33
0.0
 16
1.0
 26
0.0
 36
0.0
 17
0.0
 27
1.0
 37
0.0
 76
     0
330
1B
  0
LAYOUT
  5
26
102
{ACAD_REACTORS
330
1A
102
}
330
1A
100
AcDbPlotSettings
  1

  2
none_device
  4

  6

 40
0.0
 41
0.0
 42
0.0
 43
0.0
 44
0.0
 45
0.0
 46
0.0
 47
0.0
 48
0.0
 49
0.0
140
0.0
141
0.0
142
1.0
143
1.0
 70
   688
 72
     0
 73
     0
 74
     5
  7

 75
    16
 76
     0
 77
     2
 78
   300
147
1.0
148
0.0
149
0.0
100
AcDbLayout
  1
Layout2
 70
     1
 71
     2
 10
0.0
 20
0.0
 11
0.0
 21
0.0
 12
0.0
 22
0.0
 32
0.0
 14
0.0
 24
0.0
 34
0.0
 15
0.0
 25
0.0
 35
0.0
146
0.0
 13
0.0
 23
0.0
 33
0.0
 16
1.0
 26
0.0
 36
0.0
 17
0.0
 27
1.0
 37
0.0
 76
     0
330
23
  0
LAYOUT
  5
22
102
{ACAD_REACTORS
330
1A
102
}
330
1A
100
AcDbPlotSettings
  1

  2
none_device
  4

  6

 40
0.0
 41
0.0
 42
0.0
 43
0.0
 44
0.0
 45
0.0
 46
0.0
 47
0.0
 48
0.0
 49
0.0
140
0.0
141
0.0
142
1.0
143
1.0
 70
  1712
 72
     0
 73
     0
 74
     0
  7

 75
     0
 76
     0
 77
     2
 78
   300
147
1.0
148
0.0
149
0.0
100
AcDbLayout
  1
Model
 70
     1
 71
     0
 10
0.0
 20
0.0
 11
12.0
 21
9.0
 12
0.0
 22
0.0
 32
0.0
 14
1.000000000000000E+20
 24
1.000000000000000E+20
 34
1.000000000000000E+20
 15
-1.000000000000000E+20
 25
-1.000000000000000E+20
 35
-1.000000000000000E+20
146
0.0
 13
0.0
 23
0.0
 33
0.0
 16
1.0
 26
0.0
 36
0.0
 17
0.0
 27
1.0
 37
0.0
 76
     0
330
1F
331
29
  0
MATERIAL
  5
3D
102
{ACAD_REACTORS
330
3B
102
}
330
3B
100
AcDbMaterial
  1
ByBlock
 72
     1
 94
      127
  0
MATERIAL
  5
3C
102
{ACAD_REACTORS
330
3B
102
}
330
3B
100
AcDbMaterial
  1
ByLayer
 72
     1
 94
      127
  0
MATERIAL
  5
3E
102
{ACAD_REACTORS
330
3B
102
}
330
3B
100
AcDbMaterial
  1
Global
 72
     1
 94
      127
  0
MLINESTYLE
  5
18
102
{ACAD_REACTORS
330
17
102
}
330
17
100
AcDbMlineStyle
  2
Standard
 70
     0
  3

 62
   256
 51
90.0
 52
90.0
 71
     2
 49
0.5
 62
   256
  6
BYLAYER
 49
-0.5
 62
   256
  6
BYLAYER
  0
ACDBPLACEHOLDER
  5
F
102
{ACAD_REACTORS
330
E
102
}
330
E
  0
VISUALSTYLE
  5
2F
102
{ACAD_REACTORS
330
2A
102
}
330
2A
100
AcDbVisualStyle
  2
2dWireframe
 70
     4
177
     2
291
     0
 71
     0
176
     1
 72
     2
176
     1
 73
     0
176
     1
 90
        0
176
     1
 40
-0.6
176
     1
 41
-30.0
176
     1
 62
     5
 63
     7
421
 16777215
176
     1
 74
     1
176
     1
 91
        4
176
     1
 64
     7
176
     1
 65
   257
176
     1
 75
     1
176
     1
175
     1
176
     1
 42
1.0
176
     1
 92
        0
176
     1
 66
   257
176
     1
 43
1.0
176
     1
 76
     1
176
     1
 77
     6
176
     1
 78
     2
176
     1
 67
     7
176
     1
 79
     5
176
     1
170
     0
176
     1
171
     0
176
     1
290
     0
176
     1
 93
        1
176
     1
 44
0.0
176
     1
173
     0
176
     1
  0
VISUALSTYLE
  5
31
102
{ACAD_REACTORS
330
2A
102
}
330
2A
100
AcDbVisualStyle
  2
3D Hidden
 70
     6
177
     2
291
     0
 71
     1
176
     1
 72
     2
176
     1
 73
     2
176
     1
 90
        0
176
     1
 40
-0.6
176
     1
 41
-30.0
176
     1
 62
     5
 63
     7
421
 16777215
176
     1
 74
     2
176
     1
 91
        2
176
     1
 64
     7
176
     1
 65
   257
176
     1
 75
     2
176
     1
175
     1
176
     1
 42
40.0
176
     1
 92
        0
176
     1
 66
   257
176
     1
 43
1.0
176
     1
 76
     1
176
     1
 77
     6
176
     1
 78
     2
176
     1
 67
     7
176
     1
 79
     3
176
     1
170
     0
176
     1
171
     0
176
     1
290
     0
176
     1
 93
        1
176
     1
 44
0.0
176
     1
173
     0
176
     1
  0
VISUALSTYLE
  5
30
102
{ACAD_REACTORS
330
2A
102
}
330
2A
100
AcDbVisualStyle
  2
3dWireframe
 70
     5
177
     2
291
     0
 71
     0
176
     1
 72
     2
176
     1
 73
     0
176
     1
 90
        0
176
     1
 40
-0.6
176
     1
 41
-30.0
176
     1
 62
     5
 63
     7
421
 16777215
176
     1
 74
     1
176
     1
 91
        4
176
     1
 64
     7
176
     1
 65
   257
176
     1
 75
     1
176
     1
175
     1
176
     1
 42
1.0
176
     1
 92
        0
176
     1
 66
   257
176
     1
 43
1.0
176
     1
 76
     1
176
     1
 77
     6
176
     1
 78
     2
176
     1
 67
     7
176
     1
 79
     5
176
     1
170
     0
176
     1
171
     0
176
     1
290
     0
176
     1
 93
        1
176
     1
 44
0.0
176
     1
173
     0
176
     1
  0
VISUALSTYLE
  5
32
102
{ACAD_REACTORS
330
2A
102
}
330
2A
100
AcDbVisualStyle
  2
Basic
 70
     7
177
     2
291
     1
 71
     1
176
     1
 72
     0
176
     1
 73
     1
176
     1
 90
        0
176
     1
 40
-0.6
176
     1
 41
-30.0
176
     1
 62
     5
 63
     7
421
 16777215
176
     1
 74
     0
176
     1
 91
        4
176
     1
 64
     7
176
     1
 65
   257
176
     1
 75
     1
176
     1
175
     1
176
     1
 42
1.0
176
     1
 92
        8
176
     1
 66
     7
176
     1
 43
1.0
176
     1
 76
     1
176
     1
 77
     6
176
     1
 78
     2
176
     1
 67
     7
176
     1
 79
     5
176
     1
170
     0
176
     1
171
     0
176
     1
290
     0
176
     1
 93
        1
176
     1
 44
0.0
176
     1
173
     0
176
     1
  0
VISUALSTYLE
  5
36
102
{ACAD_REACTORS
330
2A
102
}
330
2A
100
AcDbVisualStyle
  2
Brighten
 70
    12
177
     2
291
     1
 71
     2
176
     1
 72
     2
176
     1
 73
     0
176
     1
 90
        0
176
     1
 40
-0.6
176
     1
 41
-30.0
176
     1
 62
     5
 63
     7
421
 16777215
176
     1
 74
     1
176
     1
 91
        4
176
     1
 64
     7
176
     1
 65
   257
176
     1
 75
     1
176
     1
175
     1
176
     1
 42
1.0
176
     1
 92
        8
176
     1
 66
     7
176
     1
 43
1.0
176
     1
 76
     1
176
     1
 77
     6
176
     1
 78
     2
176
     1
 67
     7
176
     1
 79
     5
176
     1
170
     0
176
     1
171
     0
176
     1
290
     0
176
     1
 93
        1
176
     1
 44
50.0
176
     1
173
     0
176
     1
  0
VISUALSTYLE
  5
3A
102
{ACAD_REACTORS
330
2A
102
}
330
2A
100
AcDbVisualStyle
  2
ColorChange
 70
    16
177
     2
291
     1
 71
     2
176
     1
 72
     2
176
     1
 73
     3
176
     1
 90
        0
176
     1
 40
-0.6
176
     1
 41
-30.0
176
     1
 62
     5
 63
     8
421
  8421504
176
     1
 74
     1
176
     1
 91
        4
176
     1
 64
     7
176
     1
 65
   257
176
     1
 75
     1
176
     1
175
     1
176
     1
 42
1.0
176
     1
 92
        8
176
     1
 66
     8
424
  8421504
176
     1
 43
1.0
176
     1
 76
     1
176
     1
 77
     6
176
     1
 78
     2
176
     1
 67
     7
176
     1
 79
     5
176
     1
170
     0
176
     1
171
     0
176
     1
290
     0
176
     1
 93
        1
176
     1
 44
0.0
176
     1
173
     0
176
     1
  0
VISUALSTYLE
  5
34
102
{ACAD_REACTORS
330
2A
102
}
330
2A
100
AcDbVisualStyle
  2
Conceptual
 70
     9
177
     2
291
     0
 71
     3
176
     1
 72
     2
176
     1
 73
     0
176
     1
 90
        0
176
     1
 40
-0.6
176
     1
 41
-30.0
176
     1
 62
     5
 63
     7
421
 16777215
176
     1
 74
     2
176
     1
 91
        2
176
     1
 64
     7
176
     1
 65
   257
176
     1
 75
     1
176
     1
175
     1
176
     1
 42
40.0
176
     1
 92
        8
176
     1
 66
     7
176
     1
 43
1.0
176
     1
 76
     1
176
     1
 77
     6
176
     1
 78
     2
176
     1
 67
     7
176
     1
 79
     3
176
     1
170
     0
176
     1
171
     0
176
     1
290
     0
176
     1
 93
        1
176
     1
 44
0.0
176
     1
173
     0
176
     1
  0
VISUALSTYLE
  5
35
102
{ACAD_REACTORS
330
2A
102
}
330
2A
100
AcDbVisualStyle
  2
Dim
 70
    11
177
     2
291
     1
 71
     2
176
     1
 72
     2
176
     1
 73
     0
176
     1
 90
        0
176
     1
 40
-0.6
176
     1
 41
-30.0
176
     1
 62
     5
 63
     7
421
 16777215
176
     1
 74
     1
176
     1
 91
        4
176
     1
 64
     7
176
     1
 65
   257
176
     1
 75
     1
176
     1
175
     1
176
     1
 42
1.0
176
     1
 92
        8
176
     1
 66
     7
176
     1
 43
1.0
176
     1
 76
     1
176
     1
 77
     6
176
     1
 78
     2
176
     1
 67
     7
176
     1
 79
     5
176
     1
170
     0
176
     1
171
     0
176
     1
290
     0
176
     1
 93
        1
176
     1
 44
-50.0
176
     1
173
     0
176
     1
  0
VISUALSTYLE
  5
39
102
{ACAD_REACTORS
330
2A
102
}
330
2A
100
AcDbVisualStyle
  2
Facepattern
 70
    15
177
     2
291
     1
 71
     2
176
     1
 72
     2
176
     1
 73
     0
176
     1
 90
        0
176
     1
 40
-0.6
176
     1
 41
-30.0
176
     1
 62
     5
 63
     7
421
 16777215
176
     1
 74
     1
176
     1
 91
        4
176
     1
 64
     7
176
     1
 65
   257
176
     1
 75
     1
176
     1
175
     1
176
     1
 42
1.0
176
     1
 92
        8
176
     1
 66
     7
176
     1
 43
1.0
176
     1
 76
     1
176
     1
 77
     6
176
     1
 78
     2
176
     1
 67
     7
176
     1
 79
     5
176
     1
170
     0
176
     1
171
     0
176
     1
290
     0
176
     1
 93
        1
176
     1
 44
0.0
176
     1
173
     0
176
     1
  0
VISUALSTYLE
  5
2B
102
{ACAD_REACTORS
330
2A
102
}
330
2A
100
AcDbVisualStyle
  2
Flat
 70
     0
177
     2
291
     1
 71
     2
176
     1
 72
     1
176
     1
 73
     1
176
     1
 90
        2
176
     1
 40
-0.6
176
     1
 41
30.0
176
     1
 62
     5
 63
     7
421
 16777215
176
     1
 74
     0
176
     1
 91
        4
176
     1
 64
     7
176
     1
 65
   257
176
     1
 75
     1
176
     1
175
     1
176
     1
 42
1.0
176
     1
 92
        8
176
     1
 66
     7
176
     1
 43
1.0
176
     1
 76
     1
176
     1
 77
     6
176
     1
 78
     2
176
     1
 67
     7
176
     1
 79
     5
176
     1
170
     0
176
     1
171
     0
176
     1
290
     0
176
     1
 93
       13
176
     1
 44
0.0
176
     1
173
     0
176
     1
  0
VISUALSTYLE
  5
2C
102
{ACAD_REACTORS
330
2A
102
}
330
2A
100
AcDbVisualStyle
  2
FlatWithEdges
 70
     1
177
     2
291
     1
 71
     2
176
     1
 72
     1
176
     1
 73
     1
176
     1
 90
        2
176
     1
 40
-0.6
176
     1
 41
30.0
176
     1
 62
     5
 63
     7
421
 16777215
176
     1
 74
     1
176
     1
 91
        4
176
     1
 64
     7
176
     1
 65
   257
176
     1
 75
     1
176
     1
175
     1
176
     1
 42
1.0
176
     1
 92
        0
176
     1
 66
   257
176
     1
 43
1.0
176
     1
 76
     1
176
     1
 77
     6
176
     1
 78
     2
176
     1
 67
     7
176
     1
 79
     5
176
     1
170
     0
176
     1
171
     0
176
     1
290
     0
176
     1
 93
       13
176
     1
 44
0.0
176
     1
173
     0
176
     1
  0
VISUALSTYLE
  5
2D
102
{ACAD_REACTORS
330
2A
102
}
330
2A
100
AcDbVisualStyle
  2
Gouraud
 70
     2
177
     2
291
     1
 71
     2
176
     1
 72
     2
176
     1
 73
     1
176
     1
 90
        2
176
     1
 40
-0.6
176
     1
 41
30.0
176
     1
 62
     5
 63
     7
421
 16777215
176
     1
 74
     0
176
     1
 91
        4
176
     1
 64
     7
176
     1
 65
   257
176
     1
 75
     1
176
     1
175
     1
176
     1
 42
1.0
176
     1
 92
        0
176
     1
 66
     7
176
     1
 43
1.0
176
     1
 76
     1
176
     1
 77
     6
176
     1
 78
     2
176
     1
 67
     7
176
     1
 79
     5
176
     1
170
     0
176
     1
171
     0
176
     1
290
     0
176
     1
 93
       13
176
     1
 44
0.0
176
     1
173
     0
176
     1
  0
VISUALSTYLE
  5
2E
102
{ACAD_REACTORS
330
2A
102
}
330
2A
100
AcDbVisualStyle
  2
GouraudWithEdges
 70
     3
177
     2
291
     1
 71
     2
176
     1
 72
     2
176
     1
 73
     1
176
     1
 90
        2
176
     1
 40
-0.6
176
     1
 41
30.0
176
     1
 62
     5
 63
     7
421
 16777215
176
     1
 74
     1
176
     1
 91
        4
176
     1
 64
     7
176
     1
 65
   257
176
     1
 75
     1
176
     1
175
     1
176
     1
 42
1.0
176
     1
 92
        0
176
     1
 66
   257
176
     1
 43
1.0
176
     1
 76
     1
176
     1
 77
     6
176
     1
 78
     2
176
     1
 67
     7
176
     1
 79
     5
176
     1
170
     0
176
     1
171
     0
176
     1
290
     0
176
     1
 93
       13
176
     1
 44
0.0
176
     1
173
     0
176
     1
  0
VISUALSTYLE
  5
38
102
{ACAD_REACTORS
330
2A
102
}
330
2A
100
AcDbVisualStyle
  2
Linepattern
 70
    14
177
     2
291
     1
 71
     2
176
     1
 72
     2
176
     1
 73
     0
176
     1
 90
        0
176
     1
 40
-0.6
176
     1
 41
-30.0
176
     1
 62
     5
 63
     7
421
 16777215
176
     1
 74
     1
176
     1
 91
        4
176
     1
 64
     7
176
     1
 65
   257
176
     1
 75
     7
176
     1
175
     7
176
     1
 42
1.0
176
     1
 92
        8
176
     1
 66
     7
176
     1
 43
1.0
176
     1
 76
     1
176
     1
 77
     6
176
     1
 78
     2
176
     1
 67
     7
176
     1
 79
     5
176
     1
170
     0
176
     1
171
     0
176
     1
290
     0
176
     1
 93
        1
176
     1
 44
0.0
176
     1
173
     0
176
     1
  0
VISUALSTYLE
  5
33
102
{ACAD_REACTORS
330
2A
102
}
330
2A
100
AcDbVisualStyle
  2
Realistic
 70
     8
177
     2
291
     0
 71
     2
176
     1
 72
     2
176
     1
 73
     0
176
     1
 90
        0
176
     1
 40
-0.6
176
     1
 41
-30.0
176
     1
 62
     5
 63
     7
421
 16777215
176
     1
 74
     1
176
     1
 91
        0
176
     1
 64
     7
176
     1
 65
   257
176
     1
 75
     1
176
     1
175
     1
176
     1
 42
1.0
176
     1
 92
        8
176
     1
 66
     8
424
  7895160
176
     1
 43
1.0
176
     1
 76
     1
176
     1
 77
     6
176
     1
 78
     2
176
     1
 67
     7
176
     1
 79
     5
176
     1
170
     0
176
     1
171
     0
176
     1
290
     0
176
     1
 93
       13
176
     1
 44
0.0
176
     1
173
     0
176
     1
  0
VISUALSTYLE
  5
37
102
{ACAD_REACTORS
330
2A
102
}
330
2A
100
AcDbVisualStyle
  2
Thicken
 70
    13
177
     2
291
     1
 71
     2
176
     1
 72
     2
176
     1
 73
     0
176
     1
 90
        0
176
     1
 40
-0.6
176
     1
 41
-30.0
176
     1
 62
     5
 63
     7
421
 16777215
176
     1
 74
     1
176
     1
 91
        4
176
     1
 64
     7
176
     1
 65
   257
176
     1
 75
     1
176
     1
175
     1
176
     1
 42
1.0
176
     1
 92
       12
176
     1
 66
     7
176
     1
 43
1.0
176
     1
 76
     1
176
     1
 77
     6
176
     1
 78
     2
176
     1
 67
     7
176
     1
 79
     5
176
     1
170
     0
176
     1
171
     0
176
     1
290
     0
176
     1
 93
        1
176
     1
 44
0.0
176
     1
173
     0
176
     1
  0
ENDSEC
  0
EOF
