  0
SECTION
  2
HEADER
  9
$ACADVER
  1
AC1027
  9
$ACADMAINTVER
 70
   125
  9
$DWGCODEPAGE
  3
ANSI_1252
  9
$REQUIREDVERSIONS
160
                 0
  9
$INSBASE
 10
0.0
 20
0.0
 30
0.0
  9
$EXTMIN
 10
1.000000000000000E+20
 20
1.000000000000000E+20
 30
1.000000000000000E+20
  9
$EXTMAX
 10
-1.000000000000000E+20
 20
-1.000000000000000E+20
 30
-1.000000000000000E+20
  9
$LIMMIN
 10
0.0
 20
0.0
  9
$LIMMAX
 10
12.0
 20
9.0
  9
$ORTHOMODE
 70
     0
  9
$REGENMODE
 70
     1
  9
$FILLMODE
 70
     1
  9
$QTEXTMODE
 70
     0
  9
$MIRRTEXT
 70
     0
  9
$LTSCALE
 40
1.0
  9
$ATTMODE
 70
     1
  9
$TEXTSIZE
 40
0.2
  9
$TRACEWID
 40
0.05
  9
$TEXTSTYLE
  7
Standard
  9
$CLAYER
  8
0
  9
$CELTYPE
  6
ByLayer
  9
$CECOLOR
 62
   256
  9
$CELTSCALE
 40
1.0
  9
$DISPSILH
 70
     0
  9
$DIMSCALE
 40
1.0
  9
$DIMASZ
 40
0.18
  9
$DIMEXO
 40
0.0625
  9
$DIMDLI
 40
0.38
  9
$DIMRND
 40
0.0
  9
$DIMDLE
 40
0.0
  9
$DIMEXE
 40
0.18
  9
$DIMTP
 40
0.0
  9
$DIMTM
 40
0.0
  9
$DIMTXT
 40
0.18
  9
$DIMCEN
 40
0.09
  9
$DIMTSZ
 40
0.0
  9
$DIMTOL
 70
     0
  9
$DIMLIM
 70
     0
  9
$DIMTIH
 70
     1
  9
$DIMTOH
 70
     1
  9
$DIMSE1
 70
     0
  9
$DIMSE2
 70
     0
  9
$DIMTAD
 70
     0
  9
$DIMZIN
 70
     0
  9
$DIMBLK
  1

  9
$DIMASO
 70
     1
  9
$DIMSHO
 70
     1
  9
$DIMPOST
  1

  9
$DIMAPOST
  1

  9
$DIMALT
 70
     0
  9
$DIMALTD
 70
     2
  9
$DIMALTF
 40
25.4
  9
$DIMLFAC
 40
1.0
  9
$DIMTOFL
 70
     0
  9
$DIMTVP
 40
0.0
  9
$DIMTIX
 70
     0
  9
$DIMSOXD
 70
     0
  9
$DIMSAH
 70
     0
  9
$DIMBLK1
  1

  9
$DIMBLK2
  1

  9
$DIMSTYLE
  2
Standard
  9
$DIMCLRD
 70
     0
  9
$DIMCLRE
 70
     0
  9
$DIMCLRT
 70
     0
  9
$DIMTFAC
 40
1.0
  9
$DIMGAP
 40
0.09
  9
$DIMJUST
 70
     0
  9
$DIMSD1
 70
     0
  9
$DIMSD2
 70
     0
  9
$DIMTOLJ
 70
     1
  9
$DIMTZIN
 70
     0
  9
$DIMALTZ
 70
     0
  9
$DIMALTTZ
 70
     0
  9
$DIMUPT
 70
     0
  9
$DIMDEC
 70
     4
  9
$DIMTDEC
 70
     4
  9
$DIMALTU
 70
     2
  9
$DIMALTTD
 70
     2
  9
$DIMTXSTY
  7
Standard
  9
$DIMAUNIT
 70
     0
  9
$DIMADEC
 70
     0
  9
$DIMALTRND
 40
0.0
  9
$DIMAZIN
 70
     0
  9
$DIMDSEP
 70
    46
  9
$DIMATFIT
 70
     3
  9
$DIMFRAC
 70
     0
  9
$DIMLDRBLK
  1

  9
$DIMLUNIT
 70
     2
  9
$DIMLWD
 70
    -2
  9
$DIMLWE
 70
    -2
  9
$DIMTMOVE
 70
     0
  9
$DIMFXL
 40
1.0
  9
$DIMFXLON
 70
     0
  9
$DIMJOGANG
 40
0.7853981633974483
  9
$DIMTFILL
 70
     0
  9
$DIMTFILLCLR
 70
     0
  9
$DIMARCSYM
 70
     0
  9
$DIMLTYPE
  6

  9
$DIMLTEX1
  6

  9
$DIMLTEX2
  6

  9
$DIMTXTDIRECTION
 70
     0
  9
$LUNITS
 70
     2
  9
$LUPREC
 70
     4
  9
$SKETCHINC
 40
0.1
  9
$FILLETRAD
 40
0.0
  9
$AUNITS
 70
     0
  9
$AUPREC
 70
     0
  9
$MENU
  1
.
  9
$ELEVATION
 40
0.0
  9
$PELEVATION
 40
0.0
  9
$THICKNESS
 40
0.0
  9
$LIMCHECK
 70
     0
  9
$CHAMFERA
 40
0.0
  9
$CHAMFERB
 40
0.0
  9
$CHAMFERC
 40
0.0
  9
$CHAMFERD
 40
0.0
  9
$SKPOLY
 70
     0
  9
$TDCREATE
 40
2460381.564201389
  9
$TDUCREATE
 40
2460381.564201389
  9
$TDUPDATE
 40
2460381.564201389
  9
$TDUUPDATE
 40
2460381.564201389
  9
$TDINDWG
 40
0.0000000000
  9
$TDUSRTIMER
 40
0.0000000000
  9
$USRTIMER
 70
     1
  9
$ANGBASE
 50
0.0
  9
$ANGDIR
 70
     0
  9
$PDMODE
 70
     0
  9
$PDSIZE
 40
0.0
  9
$PLINEWID
 40
0.0
  9
$SPLFRAME
 70
     0
  9
$SPLINETYPE
 70
     6
  9
$SPLINESEGS
 70
     8
  9
$HANDSEED
  5
17B
  9
$SURFTAB1
 70
     6
  9
$SURFTAB2
 70
     6
  9
$SURFTYPE
 70
     6
  9
$SURFU
 70
     6
  9
$SURFV
 70
     6
  9
$UCSBASE
  2

  9
$UCSNAME
  2

  9
$UCSORG
 10
0.0
 20
0.0
 30
0.0
  9
$UCSXDIR
 10
1.0
 20
0.0
 30
0.0
  9
$UCSYDIR
 10
0.0
 20
1.0
 30
0.0
  9
$UCSORTHOREF
  2

  9
$UCSORTHOVIEW
 70
     0
  9
$UCSORGTOP
 10
0.0
 20
0.0
 30
0.0
  9
$UCSORGBOTTOM
 10
0.0
 20
0.0
 30
0.0
  9
$UCSORGLEFT
 10
0.0
 20
0.0
 30
0.0
  9
$UCSORGRIGHT
 10
0.0
 20
0.0
 30
0.0
  9
$UCSORGFRONT
 10
0.0
 20
0.0
 30
0.0
  9
$UCSORGBACK
 10
0.0
 20
0.0
 30
0.0
  9
$PUCSBASE
  2

  9
$PUCSNAME
  2

  9
$PUCSORG
 10
0.0
 20
0.0
 30
0.0
  9
$PUCSXDIR
 10
1.0
 20
0.0
 30
0.0
  9
$PUCSYDIR
 10
0.0
 20
1.0
 30
0.0
  9
$PUCSORTHOREF
  2

  9
$PUCSORTHOVIEW
 70
     0
  9
$PUCSORGTOP
 10
0.0
 20
0.0
 30
0.0
  9
$PUCSORGBOTTOM
 10
0.0
 20
0.0
 30
0.0
  9
$PUCSORGLEFT
 10
0.0
 20
0.0
 30
0.0
  9
$PUCSORGRIGHT
 10
0.0
 20
0.0
 30
0.0
  9
$PUCSORGFRONT
 10
0.0
 20
0.0
 30
0.0
  9
$PUCSORGBACK
 10
0.0
 20
0.0
 30
0.0
  9
$USERI1
 70
     0
  9
$USERI2
 70
     0
  9
$USERI3
 70
     0
  9
$USERI4
 70
     0
  9
$USERI5
 70
     0
  9
$USERR1
 40
0.0
  9
$USERR2
 40
0.0
  9
$USERR3
 40
0.0
  9
$USERR4
 40
0.0
  9
$USERR5
 40
0.0
  9
$WORLDVIEW
 70
     1
  9
$SHADEDGE
 70
     3
  9
$SHADEDIF
 70
    70
  9
$TILEMODE
 70
     1
  9
$MAXACTVP
 70
    64
  9
$PINSBASE
 10
0.0
 20
0.0
 30
0.0
  9
$PLIMCHECK
 70
     0
  9
$PEXTMIN
 10
1.000000000000000E+20
 20
1.000000000000000E+20
 30
1.000000000000000E+20
  9
$PEXTMAX
 10
-1.000000000000000E+20
 20
-1.000000000000000E+20
 30
-1.000000000000000E+20
  9
$PLIMMIN
 10
0.0
 20
0.0
  9
$PLIMMAX
 10
12.0
 20
9.0
  9
$UNITMODE
 70
     0
  9
$VISRETAIN
 70
     1
  9
$PLINEGEN
 70
     0
  9
$PSLTSCALE
 70
     1
  9
$TREEDEPTH
 70
  3020
  9
$CMLSTYLE
  2
Standard
  9
$CMLJUST
 70
     0
  9
$CMLSCALE
 40
1.0
  9
$PROXYGRAPHICS
 70
     1
  9
$MEASUREMENT
 70
     0
  9
$CELWEIGHT
370
    -1
  9
$ENDCAPS
280
     0
  9
$JOINSTYLE
280
     0
  9
$LWDISPLAY
290
     0
  9
$INSUNITS
 70
     5
  9
$HYPERLINKBASE
  1

  9
$STYLESHEET
  1

  9
$XEDIT
290
     1
  9
$CEPSNTYPE
380
     0
  9
$PSTYLEMODE
290
     1
  9
$FINGERPRINTGUID
  2
{8D00365D-84B3-3B46-A625-4AFA5CCC599D}
  9
$VERSIONGUID
  2
{4ACD0B23-2A1A-5C4C-9559-76582FAA9158}
  9
$EXTNAMES
290
     1
  9
$PSVPSCALE
 40
0.0
  9
$OLESTARTUP
290
     0
  9
$SORTENTS
280
   127
  9
$INDEXCTL
280
     0
  9
$HIDETEXT
280
     1
  9
$XCLIPFRAME
280
     2
  9
$HALOGAP
280
     0
  9
$OBSCOLOR
 70
   257
  9
$OBSLTYPE
280
     0
  9
$INTERSECTIONDISPLAY
280
     0
  9
$INTERSECTIONCOLOR
 70
   257
  9
$DIMASSOC
280
     2
  9
$PROJECTNAME
  1

  9
$CAMERADISPLAY
290
     0
  9
$LENSLENGTH
 40
50.0
  9
$CAMERAHEIGHT
 40
0.0
  9
$STEPSPERSEC
 40
2.0
  9
$STEPSIZE
 40
6.0
  9
$3DDWFPREC
 40
2.0
  9
$PSOLWIDTH
 40
0.25
  9
$PSOLHEIGHT
 40
4.0
  9
$LOFTANG1
 40
1.570796326794896
  9
$LOFTANG2
 40
1.570796326794896
  9
$LOFTMAG1
 40
0.0
  9
$LOFTMAG2
 40
0.0
  9
$LOFTPARAM
 70
     7
  9
$LOFTNORMALS
280
     1
  9
$LATITUDE
 40
37.795
  9
$LONGITUDE
 40
-122.394
  9
$NORTHDIRECTION
 40
0.0
  9
$TIMEZONE
 70
 -8000
  9
$LIGHTGLYPHDISPLAY
280
     1
  9
$TILEMODELIGHTSYNCH
280
     1
  9
$CMATERIAL
347
11
  9
$SOLIDHIST
280
     0
  9
$SHOWHIST
280
     1
  9
$DWFFRAME
280
     2
  9
$DGNFRAME
280
     0
  9
$REALWORLDSCALE
290
     1
  9
$INTERFERECOLOR
 62
     1
  9
$INTERFEREOBJVS
345
33
  9
$INTERFEREVPVS
346
30
  9
$CSHADOW
280
     0
  9
$SHADOWPLANELOCATION
 40
0.0
  0
ENDSEC
  0
SECTION
  2
CLASSES
  0
CLASS
  1
ACDBDICTIONARYWDFLT
  2
AcDbDictionaryWithDefault
  3
ObjectDBX Classes
 90
        0
 91
        1
280
     0
281
     0
  0
CLASS
  1
MATERIAL
  2
AcDbMaterial
  3
ObjectDBX Classes
 90
     1153
 91
        3
280
     0
281
     0
  0
CLASS
  1
VISUALSTYLE
  2
AcDbVisualStyle
  3
ObjectDBX Classes
 90
     4095
 91
       24
280
     0
281
     0
  0
CLASS
  1
SCALE
  2
AcDbScale
  3
ObjectDBX Classes
 90
     1153
 91
       17
280
     0
281
     0
  0
CLASS
  1
TABLESTYLE
  2
AcDbTableStyle
  3
ObjectDBX Classes
 90
     4095
 91
        1
280
     0
281
     0
  0
CLASS
  1
MLEADERSTYLE
  2
AcDbMLeaderStyle
  3
ACDB_MLEADERSTYLE_CLASS
 90
     4095
 91
        1
280
     0
281
     0
  0
CLASS
  1
ACDBSECTIONVIEWSTYLE
  2
AcDbSectionViewStyle
  3
ObjectDBX Classes
 90
     1025
 91
        1
280
     0
281
     0
  0
CLASS
  1
ACDBDETAILVIEWSTYLE
  2
AcDbDetailViewStyle
  3
ObjectDBX Classes
 90
     1025
 91
        1
280
     0
281
     0
  0
CLASS
  1
DICTIONARYVAR
  2
AcDbDictionaryVar
  3
ObjectDBX Classes
 90
        0
 91
        5
280
     0
281
     0
  0
CLASS
  1
CELLSTYLEMAP
  2
AcDbCellStyleMap
  3
ObjectDBX Classes
 90
     1152
 91
        1
280
     0
281
     0
  0
ENDSEC
  0
SECTION
  2
TABLES
  0
TABLE
  2
VPORT
  5
8
330
0
100
AcDbSymbolTable
 70
     1
1001
ACAD
1000
DbSaveVer
1071
      291
  0
VPORT
  5
57
330
8
100
AcDbSymbolTableRecord
100
AcDbViewportTableRecord
  2
*Active
 70
     0
 10
0.0
 20
0.0
 11
1.0
 21
1.0
 12
500.0
 22
500.0
 13
0.0
 23
0.0
 14
1.0
 24
1.0
 15
0.0
 25
0.0
 16
0.0
 26
0.0
 36
1.0
 17
0.0
 27
0.0
 37
0.0
 40
12.0
 41
1.0
 42
50.0
 43
0.0
 44
0.0
 50
0.0
 51
0.0
 71
     0
 72
   100
 73
     1
 74
     1
 75
     0
 76
     0
 77
     0
 78
     0
281
     0
 65
     1
110
0.0
120
0.0
130
0.0
111
1.0
121
0.0
131
0.0
112
0.0
122
1.0
132
0.0
 79
     0
146
0.0
 60
     3
 61
     5
292
     1
282
     1
141
0.0
142
0.0
 63
   250
421
  3355443
  0
ENDTAB
  0
TABLE
  2
LTYPE
  5
5
330
0
100
AcDbSymbolTable
 70
     1
  0
LTYPE
  5
5B
330
5
100
AcDbSymbolTableRecord
100
AcDbLinetypeTableRecord
  2
ByBlock
 70
     0
  3

 72
    65
 73
     0
 40
0.0
  0
LTYPE
  5
5C
330
5
100
AcDbSymbolTableRecord
100
AcDbLinetypeTableRecord
  2
ByLayer
 70
     0
  3

 72
    65
 73
     0
 40
0.0
  0
LTYPE
  5
5D
330
5
100
AcDbSymbolTableRecord
100
AcDbLinetypeTableRecord
  2
Continuous
 70
     0
  3
Solid line
 72
    65
 73
     0
 40
0.0
  0
ENDTAB
  0
TABLE
  2
LAYER
  5
2
330
0
100
AcDbSymbolTable
 70
     2
  0
LAYER
  5
54
330
2
100
AcDbSymbolTableRecord
100
AcDbLayerTableRecord
  2
0
 70
     0
 62
     7
  6
Continuous
370
    -3
390
F
347
21
348
0
  0
LAYER
  5
7A
330
2
100
AcDbSymbolTableRecord
100
AcDbLayerTableRecord
  2
Shelf Testing v7_Sketch1
 70
     0
 62
     7
  6
Continuous
370
    -3
390
F
347
21
348
0
1001
NFusion_SketchTransform
1000
1.000000;0.000000;0.000000;0.000000;0.000000;0.000000;1.000000;0.000000;0.000000;-1.000000;0.000000;0.000000;0.000000;0.000000;0.000000;1.000000
  0
ENDTAB
  0
TABLE
  2
STYLE
  5
3
330
0
100
AcDbSymbolTable
 70
     2
  0
STYLE
  5
55
330
3
100
AcDbSymbolTableRecord
100
AcDbTextStyleTableRecord
  2
Standard
 70
     0
 40
0.0
 41
1.0
 50
0.0
 71
     0
 42
0.2
  3
txt
  4

  0
STYLE
  5
5A
330
3
100
AcDbSymbolTableRecord
100
AcDbTextStyleTableRecord
  2
Annotative
 70
     0
 40
0.0
 41
1.0
 50
0.0
 71
     0
 42
0.2
  3
txt
  4

1001
AcadAnnotative
1000
AnnotativeData
1002
{
1070
     1
1070
     1
1002
}
  0
ENDTAB
  0
TABLE
  2
VIEW
  5
6
330
0
100
AcDbSymbolTable
 70
     0
  0
ENDTAB
  0
TABLE
  2
UCS
  5
7
330
0
100
AcDbSymbolTable
 70
     0
  0
ENDTAB
  0
TABLE
  2
APPID
  5
9
330
0
100
AcDbSymbolTable
 70
     4
  0
APPID
  5
56
330
9
100
AcDbSymbolTableRecord
100
AcDbRegAppTableRecord
  2
ACAD
 70
     0
  0
APPID
  5
5E
330
9
100
AcDbSymbolTableRecord
100
AcDbRegAppTableRecord
  2
AcadAnnotative
 70
     0
  0
APPID
  5
78
330
9
100
AcDbSymbolTableRecord
100
AcDbRegAppTableRecord
  2
EDIT_IN_FUSION_ACAD_ADDIN
 70
     0
  0
APPID
  5
79
330
9
100
AcDbSymbolTableRecord
100
AcDbRegAppTableRecord
  2
NFusion_SketchTransform
 70
     0
  0
ENDTAB
  0
TABLE
  2
DIMSTYLE
  5
A
330
0
100
AcDbSymbolTable
 70
     2
100
AcDbDimStyleTable
 71
     0
  0
DIMSTYLE
105
58
330
A
100
AcDbSymbolTableRecord
100
AcDbDimStyleTableRecord
  2
Standard
 70
     0
340
55
  0
DIMSTYLE
105
59
330
A
100
AcDbSymbolTableRecord
100
AcDbDimStyleTableRecord
  2
Annotative
 70
     0
340
55
1001
AcadAnnotative
1000
AnnotativeData
1002
{
1070
     1
1070
     1
1002
}
  0
ENDTAB
  0
TABLE
  2
BLOCK_RECORD
  5
1
330
0
100
AcDbSymbolTable
 70
     1
  0
BLOCK_RECORD
  5
70
330
1
100
AcDbSymbolTableRecord
100
AcDbBlockTableRecord
  2
*Model_Space
340
73
 70
     0
280
     1
281
     0
  0
BLOCK_RECORD
  5
6C
330
1
100
AcDbSymbolTableRecord
100
AcDbBlockTableRecord
  2
*Paper_Space
340
6F
 70
     0
280
     1
281
     0
  0
BLOCK_RECORD
  5
74
330
1
100
AcDbSymbolTableRecord
100
AcDbBlockTableRecord
  2
*Paper_Space0
340
77
 70
     0
280
     1
281
     0
  0
ENDTAB
  0
ENDSEC
  0
SECTION
  2
BLOCKS
  0
BLOCK
  5
71
330
70
100
AcDbEntity
  8
0
100
AcDbBlockBegin
  2
*Model_Space
 70
     0
 10
0.0
 20
0.0
 30
0.0
  3
*Model_Space
  1

  0
ENDBLK
  5
72
330
70
100
AcDbEntity
  8
0
100
AcDbBlockEnd
  0
BLOCK
  5
6D
330
6C
100
AcDbEntity
 67
     1
  8
0
100
AcDbBlockBegin
  2
*Paper_Space
 70
     0
 10
0.0
 20
0.0
 30
0.0
  3
*Paper_Space
  1

  0
ENDBLK
  5
6E
330
6C
100
AcDbEntity
 67
     1
  8
0
100
AcDbBlockEnd
  0
BLOCK
  5
75
330
74
100
AcDbEntity
 67
     1
  8
0
100
AcDbBlockBegin
  2
*Paper_Space0
 70
     0
 10
0.0
 20
0.0
 30
0.0
  3
*Paper_Space0
  1

  0
ENDBLK
  5
76
330
74
100
AcDbEntity
 67
     1
  8
0
100
AcDbBlockEnd
  0
ENDSEC
  0
SECTION
  2
ENTITIES
  0
POINT
  5
7B
330
70
100
AcDbEntity
  8
Shelf Testing v7_Sketch1
100
AcDbPoint
 10
67.75448253353833
 20
0.0
 30
13.28983438769392
  0
POINT
  5
7C
330
70
100
AcDbEntity
  8
Shelf Testing v7_Sketch1
100
AcDbPoint
 10
80.15500321089126
 20
0.0
 30
18.16772841738287
  0
POINT
  5
7D
330
70
100
AcDbEntity
  8
Shelf Testing v7_Sketch1
100
AcDbPoint
 10
0.0
 20
0.0
 30
-5.0
  0
POINT
  5
7E
330
70
100
AcDbEntity
  8
Shelf Testing v7_Sketch1
100
AcDbPoint
 10
80.15500321089101
 20
0.0
 30
-21.83227158261759
  0
POINT
  5
7F
330
70
100
AcDbEntity
  8
Shelf Testing v7_Sketch1
100
AcDbPoint
 10
115.1550032108928
 20
0.0
 30
-21.83227158260902
  0
POINT
  5
80
330
70
100
AcDbEntity
  8
Shelf Testing v7_Sketch1
100
AcDbPoint
 10
0.0
 20
0.0
 30
0.0
  0
POINT
  5
81
330
70
100
AcDbEntity
  8
Shelf Testing v7_Sketch1
100
AcDbPoint
 10
110.1550032109396
 20
0.0
 30
18.16772841737349
  0
POINT
  5
82
330
70
100
AcDbEntity
  8
Shelf Testing v7_Sketch1
100
AcDbPoint
 10
110.1550032108928
 20
0.0
 30
-21.83227158260939
  0
POINT
  5
83
330
70
100
AcDbEntity
  8
Shelf Testing v7_Sketch1
100
AcDbPoint
 10
72.75448253354757
 20
0.0
 30
13.28983438771075
  0
POINT
  5
84
330
70
100
AcDbEntity
  8
Shelf Testing v7_Sketch1
100
AcDbPoint
 10
37.75448253355062
 20
0.0
 30
13.28983438768314
  0
POINT
  5
85
330
70
100
AcDbEntity
  8
Shelf Testing v7_Sketch1
100
AcDbPoint
 10
42.75448253353392
 20
0.0
 30
13.28983438767753
  0
POINT
  5
86
330
70
100
AcDbEntity
  8
Shelf Testing v7_Sketch1
100
AcDbPoint
 10
46.39877560025989
 20
0.0
 30
-16.710165612292
  0
POINT
  5
87
330
70
100
AcDbEntity
  8
Shelf Testing v7_Sketch1
100
AcDbPoint
 10
67.7544825335638
 20
0.0
 30
-16.71016561226521
  0
POINT
  5
88
330
70
100
AcDbEntity
  8
Shelf Testing v7_Sketch1
100
AcDbPoint
 10
115.1550032108912
 20
0.0
 30
18.16772841736687
  0
POINT
  5
89
330
70
100
AcDbEntity
  8
Shelf Testing v7_Sketch1
100
AcDbPoint
 10
37.7544825335506
 20
0.0
 30
-16.71016561206431
  0
POINT
  5
8A
330
70
100
AcDbEntity
  8
Shelf Testing v7_Sketch1
100
AcDbPoint
 10
85.1550032108911
 20
0.0
 30
18.1677284173833
  0
POINT
  5
8B
330
70
100
AcDbEntity
  8
Shelf Testing v7_Sketch1
100
AcDbPoint
 10
42.75448253355062
 20
0.0
 30
-16.71016561209592
  0
POINT
  5
8C
330
70
100
AcDbEntity
  8
Shelf Testing v7_Sketch1
100
AcDbPoint
 10
85.15500321089003
 20
0.0
 30
-21.83227158261738
  0
POINT
  5
8D
330
70
100
AcDbEntity
  8
Shelf Testing v7_Sketch1
100
AcDbPoint
 10
72.75448253354747
 20
0.0
 30
-16.71016561230256
  0
ARC
  5
8E
330
70
100
AcDbEntity
  8
Shelf Testing v7_Sketch1
100
AcDbCircle
 10
1.20885538153225
 20
-1.512407441161257
 30
0.0
 40
0.4999999999999999
210
0.0
220
1.0
230
0.0
100
AcDbArc
 50
0.0
 51
180.0
  0
LINE
  5
8F
330
70
100
AcDbEntity
  8
Shelf Testing v7_Sketch1
100
AcDbLine
 10
-4.698855381532251
 20
0.0
 30
-3.002407441161257
 11
-4.698855381532251
 21
0.0
 31
-1.512407441161257
  0
ARC
  5
90
330
70
100
AcDbEntity
  8
Shelf Testing v7_Sketch1
100
AcDbCircle
 10
4.198855381532251
 20
-1.502407441161257
 30
0.0
 40
0.5
210
0.0
220
1.0
230
0.0
100
AcDbArc
 50
0.0
 51
180.0
  0
LINE
  5
91
330
70
100
AcDbEntity
  8
Shelf Testing v7_Sketch1
100
AcDbLine
 10
-4.698855381532251
 20
0.0
 30
-8.002407441161256
 11
-4.698855381532251
 21
0.0
 31
-6.522407441161256
  0
LINE
  5
92
330
70
100
AcDbEntity
  8
Shelf Testing v7_Sketch1
100
AcDbLine
 10
-4.698855381532251
 20
0.0
 30
2.466421592698912
 11
-4.698855381532251
 21
0.0
 31
3.966421592698912
  0
LINE
  5
93
330
70
100
AcDbEntity
  8
Shelf Testing v7_Sketch1
100
AcDbLine
 10
-1.71885538153225
 20
0.0
 30
-8.002407441161256
 11
-3.698855381532251
 21
0.0
 31
-8.002407441161256
  0
ARC
  5
94
330
70
100
AcDbEntity
  8
Shelf Testing v7_Sketch1
100
AcDbCircle
 10
4.198855381532251
 20
-8.002407441161256
 30
0.0
 40
0.5
210
0.0
220
1.0
230
0.0
100
AcDbArc
 50
180.0
 51
0.0
  0
LINE
  5
95
330
70
100
AcDbEntity
  8
Shelf Testing v7_Sketch1
100
AcDbLine
 10
-3.698855381532251
 20
0.0
 30
3.966421592698912
 11
-1.69885538153225
 21
0.0
 31
3.966421592698912
  0
ARC
  5
96
330
70
100
AcDbEntity
  8
Shelf Testing v7_Sketch1
100
AcDbCircle
 10
1.20885538153225
 20
-3.002407441161257
 30
0.0
 40
0.5
210
0.0
220
1.0
230
0.0
100
AcDbArc
 50
180.0
 51
0.0
  0
ARC
  5
97
330
70
100
AcDbEntity
  8
Shelf Testing v7_Sketch1
100
AcDbCircle
 10
1.198855381532251
 20
2.466421592698912
 30
0.0
 40
0.5
210
0.0
220
1.0
230
0.0
100
AcDbArc
 50
180.0
 51
0.0
  0
LINE
  5
98
330
70
100
AcDbEntity
  8
Shelf Testing v7_Sketch1
100
AcDbLine
 10
-3.698855381532251
 20
0.0
 30
-1.502407441161257
 11
-1.69885538153225
 21
0.0
 31
-1.502407441161257
  0
LINE
  5
99
330
70
100
AcDbEntity
  8
Shelf Testing v7_Sketch1
100
AcDbLine
 10
-1.698855381532251
 20
0.0
 30
2.466421592698912
 11
-3.698855381532251
 21
0.0
 31
2.466421592698912
  0
ARC
  5
9A
330
70
100
AcDbEntity
  8
Shelf Testing v7_Sketch1
100
AcDbCircle
 10
4.198855381532251
 20
-3.002407441161257
 30
0.0
 40
0.5
210
0.0
220
1.0
230
0.0
100
AcDbArc
 50
180.0
 51
0.0
  0
ARC
  5
9B
330
70
100
AcDbEntity
  8
Shelf Testing v7_Sketch1
100
AcDbCircle
 10
4.198855381532251
 20
2.466421592698912
 30
0.0
 40
0.5
210
0.0
220
1.0
230
0.0
100
AcDbArc
 50
180.0
 51
0.0
  0
LINE
  5
9C
330
70
100
AcDbEntity
  8
Shelf Testing v7_Sketch1
100
AcDbLine
 10
-0.6988553815322512
 20
0.0
 30
3.966421592698912
 11
-0.6988553815322512
 21
0.0
 31
2.466421592698912
  0
ARC
  5
9D
330
70
100
AcDbEntity
  8
Shelf Testing v7_Sketch1
100
AcDbCircle
 10
1.19885538153225
 20
3.966421592698912
 30
0.0
 40
0.4999999999999999
210
0.0
220
1.0
230
0.0
100
AcDbArc
 50
0.0
 51
180.0
  0
LINE
  5
9E
330
70
100
AcDbEntity
  8
Shelf Testing v7_Sketch1
100
AcDbLine
 10
-1.70885538153225
 20
0.0
 30
-3.002407441161257
 11
-3.698855381532251
 21
0.0
 31
-3.002407441161257
  0
ARC
  5
9F
330
70
100
AcDbEntity
  8
Shelf Testing v7_Sketch1
100
AcDbCircle
 10
1.21885538153225
 20
-8.002407441161256
 30
0.0
 40
0.5
210
0.0
220
1.0
230
0.0
100
AcDbArc
 50
180.0
 51
0.0
  0
LINE
  5
A0
330
70
100
AcDbEntity
  8
Shelf Testing v7_Sketch1
100
AcDbLine
 10
-3.698855381532251
 20
0.0
 30
-6.502407441161256
 11
-1.69885538153225
 21
0.0
 31
-6.502407441161256
  0
LINE
  5
A1
330
70
100
AcDbEntity
  8
Shelf Testing v7_Sketch1
100
AcDbLine
 10
-0.708855381532251
 20
0.0
 30
-1.512407441161257
 11
-0.708855381532251
 21
0.0
 31
-3.002407441161257
  0
ARC
  5
A2
330
70
100
AcDbEntity
  8
Shelf Testing v7_Sketch1
100
AcDbCircle
 10
4.198855381532251
 20
3.966421592698912
 30
0.0
 40
0.5
210
0.0
220
1.0
230
0.0
100
AcDbArc
 50
0.0
 51
180.0
  0
LINE
  5
A3
330
70
100
AcDbEntity
  8
Shelf Testing v7_Sketch1
100
AcDbLine
 10
3.623735345086793
 20
0.0
 30
-11.00797446097937
 11
5.623735345086792
 21
0.0
 31
-11.00797446097937
  0
LINE
  5
A4
330
70
100
AcDbEntity
  8
Shelf Testing v7_Sketch1
100
AcDbLine
 10
9.593735345086793
 20
0.0
 30
-11.00797446097937
 11
11.62373534508679
 21
0.0
 31
-11.00797446097937
  0
LINE
  5
A5
330
70
100
AcDbEntity
  8
Shelf Testing v7_Sketch1
100
AcDbLine
 10
11.62373534508679
 20
0.0
 30
-4.027974460979367
 11
3.623735345086792
 21
0.0
 31
-4.027974460979367
  0
LINE
  5
A6
330
70
100
AcDbEntity
  8
Shelf Testing v7_Sketch1
100
AcDbLine
 10
11.62373534508679
 20
0.0
 30
-1.027974460979366
 11
11.62373534508679
 21
0.0
 31
-4.027974460979367
  0
LINE
  5
A7
330
70
100
AcDbEntity
  8
Shelf Testing v7_Sketch1
100
AcDbLine
 10
16.96268170881581
 20
0.0
 30
-2.034600919562862
 11
18.16942032765576
 21
0.0
 31
-2.034600919562862
  0
LINE
  5
A8
330
70
100
AcDbEntity
  8
Shelf Testing v7_Sketch1
100
AcDbLine
 10
3.623735345086793
 20
0.0
 30
-1.027974460979366
 11
5.623735345086792
 21
0.0
 31
-1.027974460979366
  0
LINE
  5
A9
330
70
100
AcDbEntity
  8
Shelf Testing v7_Sketch1
100
AcDbLine
 10
11.62373534508679
 20
0.0
 30
3.962025539020633
 11
11.62373534508679
 21
0.0
 31
0.9620255390206327
  0
LINE
  5
AA
330
70
100
AcDbEntity
  8
Shelf Testing v7_Sketch1
100
AcDbLine
 10
11.62373534508679
 20
0.0
 30
0.9620255390206327
 11
3.623735345086792
 21
0.0
 31
0.9620255390206327
  0
LINE
  5
AB
330
70
100
AcDbEntity
  8
Shelf Testing v7_Sketch1
100
AcDbLine
 10
9.603735345086793
 20
0.0
 30
-6.017974460979367
 11
9.603735345086793
 21
0.0
 31
-5.037974460979366
  0
LINE
  5
AC
330
70
100
AcDbEntity
  8
Shelf Testing v7_Sketch1
100
AcDbLine
 10
9.623735345086792
 20
0.0
 30
4.962025539020633
 11
5.623735345086792
 21
0.0
 31
4.962025539020633
  0
ARC
  5
AD
330
70
100
AcDbEntity
  8
Shelf Testing v7_Sketch1
100
AcDbCircle
 10
-15.66942032765576
 20
-1.284600919562862
 30
0.0
 40
1.494999999999999
210
0.0
220
1.0
230
0.0
100
AcDbArc
 50
329.8893036320668
 51
210.1106963679331
  0
LINE
  5
AE
330
70
100
AcDbEntity
  8
Shelf Testing v7_Sketch1
100
AcDbLine
 10
18.16942032765576
 20
0.0
 30
3.965399080437137
 11
18.16942032765576
 21
0.0
 31
0.9653990804371375
  0
LINE
  5
AF
330
70
100
AcDbEntity
  8
Shelf Testing v7_Sketch1
100
AcDbLine
 10
9.603735345086793
 20
0.0
 30
-5.037974460979366
 11
5.623735345086792
 21
0.0
 31
-5.037974460979366
  0
LINE
  5
B0
330
70
100
AcDbEntity
  8
Shelf Testing v7_Sketch1
100
AcDbLine
 10
-3.698855381532251
 20
0.0
 30
-11.50240744116125
 11
-1.69885538153225
 21
0.0
 31
-11.50240744116125
  0
LINE
  5
B1
330
70
100
AcDbEntity
  8
Shelf Testing v7_Sketch1
100
AcDbLine
 10
3.623735345086793
 20
0.0
 30
3.962025539020633
 11
5.623735345086792
 21
0.0
 31
3.962025539020633
  0
LINE
  5
B2
330
70
100
AcDbEntity
  8
Shelf Testing v7_Sketch1
100
AcDbLine
 10
9.613735345086793
 20
0.0
 30
-0.0379744609793669
 11
5.623735345086792
 21
0.0
 31
-0.0379744609793669
  0
LINE
  5
B3
330
70
100
AcDbEntity
  8
Shelf Testing v7_Sketch1
100
AcDbLine
 10
5.623735345086792
 20
0.0
 30
-10.03797446097936
 11
5.623735345086792
 21
0.0
 31
-11.00797446097937
  0
LINE
  5
B4
330
70
100
AcDbEntity
  8
Shelf Testing v7_Sketch1
100
AcDbLine
 10
13.16942032765576
 20
0.0
 30
-5.034600919562862
 11
13.16942032765576
 21
0.0
 31
-2.034600919562862
  0
LINE
  5
B5
330
70
100
AcDbEntity
  8
Shelf Testing v7_Sketch1
100
AcDbLine
 10
18.16942032765576
 20
0.0
 30
-8.034600919562862
 11
18.16942032765576
 21
0.0
 31
-11.03460091956286
  0
ARC
  5
B6
330
70
100
AcDbEntity
  8
Shelf Testing v7_Sketch1
100
AcDbCircle
 10
-15.66942032765576
 20
-7.284600919562862
 30
0.0
 40
1.49
210
0.0
220
1.0
230
0.0
100
AcDbArc
 50
329.7777389136061
 51
210.2222610863938
  0
LINE
  5
B7
330
70
100
AcDbEntity
  8
Shelf Testing v7_Sketch1
100
AcDbLine
 10
9.613735345086793
 20
0.0
 30
-1.027974460979366
 11
9.613735345086793
 21
0.0
 31
-0.0379744609793669
  0
LINE
  5
B8
330
70
100
AcDbEntity
  8
Shelf Testing v7_Sketch1
100
AcDbLine
 10
-0.7188553815322507
 20
0.0
 30
-6.522407441161256
 11
-0.7188553815322507
 21
0.0
 31
-8.002407441161256
  0
LINE
  5
B9
330
70
100
AcDbEntity
  8
Shelf Testing v7_Sketch1
100
AcDbLine
 10
-4.698855381532251
 20
0.0
 30
-12.98240744116126
 11
-4.698855381532251
 21
0.0
 31
-11.51240744116126
  0
ARC
  5
BA
330
70
100
AcDbEntity
  8
Shelf Testing v7_Sketch1
100
AcDbCircle
 10
4.198855381532251
 20
-6.502407441161256
 30
0.0
 40
0.5
210
0.0
220
1.0
230
0.0
100
AcDbArc
 50
0.0
 51
180.0
  0
ARC
  5
BB
330
70
100
AcDbEntity
  8
Shelf Testing v7_Sketch1
100
AcDbCircle
 10
4.198855381532251
 20
-12.98240744116126
 30
0.0
 40
0.5
210
0.0
220
1.0
230
0.0
100
AcDbArc
 50
180.0
 51
0.0
  0
ARC
  5
BC
330
70
100
AcDbEntity
  8
Shelf Testing v7_Sketch1
100
AcDbCircle
 10
1.22885538153225
 20
-11.51240744116126
 30
0.0
 40
0.4999999999999999
210
0.0
220
1.0
230
0.0
100
AcDbArc
 50
0.0
 51
180.0
  0
LINE
  5
BD
330
70
100
AcDbEntity
  8
Shelf Testing v7_Sketch1
100
AcDbLine
 10
9.623735345086792
 20
0.0
 30
3.962025539020633
 11
9.623735345086792
 21
0.0
 31
4.962025539020633
  0
LINE
  5
BE
330
70
100
AcDbEntity
  8
Shelf Testing v7_Sketch1
100
AcDbLine
 10
9.623735345086792
 20
0.0
 30
3.962025539020633
 11
11.62373534508679
 21
0.0
 31
3.962025539020633
  0
LINE
  5
BF
330
70
100
AcDbEntity
  8
Shelf Testing v7_Sketch1
100
AcDbLine
 10
3.623735345086793
 20
0.0
 30
-9.017974460979367
 11
3.623735345086793
 21
0.0
 31
-6.017974460979367
  0
LINE
  5
C0
330
70
100
AcDbEntity
  8
Shelf Testing v7_Sketch1
100
AcDbLine
 10
13.16942032765576
 20
0.0
 30
0.9653990804371375
 11
13.16942032765576
 21
0.0
 31
3.965399080437137
  0
ARC
  5
C1
330
70
100
AcDbEntity
  8
Shelf Testing v7_Sketch1
100
AcDbCircle
 10
-15.66942032765576
 20
4.715399080437137
 30
0.0
 40
1.499999999999999
210
0.0
220
1.0
230
0.0
100
AcDbArc
 50
330.0
 51
210.0
  0
LINE
  5
C2
330
70
100
AcDbEntity
  8
Shelf Testing v7_Sketch1
100
AcDbLine
 10
11.62373534508679
 20
0.0
 30
-6.017974460979367
 11
11.62373534508679
 21
0.0
 31
-9.017974460979367
  0
LINE
  5
C3
330
70
100
AcDbEntity
  8
Shelf Testing v7_Sketch1
100
AcDbLine
 10
13.16942032765576
 20
0.0
 30
-2.034600919562862
 11
14.37615894649571
 21
0.0
 31
-2.034600919562862
  0
ARC
  5
C4
330
70
100
AcDbEntity
  8
Shelf Testing v7_Sketch1
100
AcDbCircle
 10
1.22885538153225
 20
-12.98240744116126
 30
0.0
 40
0.5
210
0.0
220
1.0
230
0.0
100
AcDbArc
 50
180.0
 51
0.0
  0
LINE
  5
C5
330
70
100
AcDbEntity
  8
Shelf Testing v7_Sketch1
100
AcDbLine
 10
5.623735345086792
 20
0.0
 30
-0.0379744609793669
 11
5.623735345086792
 21
0.0
 31
-1.027974460979366
  0
LINE
  5
C6
330
70
100
AcDbEntity
  8
Shelf Testing v7_Sketch1
100
AcDbLine
 10
9.613735345086793
 20
0.0
 30
-1.027974460979366
 11
11.62373534508679
 21
0.0
 31
-1.027974460979366
  0
LINE
  5
C7
330
70
100
AcDbEntity
  8
Shelf Testing v7_Sketch1
100
AcDbLine
 10
11.62373534508679
 20
0.0
 30
-9.017974460979367
 11
3.623735345086792
 21
0.0
 31
-9.017974460979367
  0
LINE
  5
C8
330
70
100
AcDbEntity
  8
Shelf Testing v7_Sketch1
100
AcDbLine
 10
5.623735345086792
 20
0.0
 30
4.962025539020633
 11
5.623735345086792
 21
0.0
 31
3.962025539020633
  0
LINE
  5
C9
330
70
100
AcDbEntity
  8
Shelf Testing v7_Sketch1
100
AcDbLine
 10
11.62373534508679
 20
0.0
 30
-14.00797446097937
 11
3.623735345086792
 21
0.0
 31
-14.00797446097937
  0
LINE
  5
CA
330
70
100
AcDbEntity
  8
Shelf Testing v7_Sketch1
100
AcDbLine
 10
18.16942032765576
 20
0.0
 30
0.9653990804371375
 11
13.16942032765576
 21
0.0
 31
0.9653990804371375
  0
ARC
  5
CB
330
70
100
AcDbEntity
  8
Shelf Testing v7_Sketch1
100
AcDbCircle
 10
1.21885538153225
 20
-6.522407441161256
 30
0.0
 40
0.4999999999999999
210
0.0
220
1.0
230
0.0
100
AcDbArc
 50
0.0
 51
180.0
  0
LINE
  5
CC
330
70
100
AcDbEntity
  8
Shelf Testing v7_Sketch1
100
AcDbLine
 10
3.623735345086793
 20
0.0
 30
-6.017974460979367
 11
5.623735345086792
 21
0.0
 31
-6.017974460979367
  0
LINE
  5
CD
330
70
100
AcDbEntity
  8
Shelf Testing v7_Sketch1
100
AcDbLine
 10
5.623735345086792
 20
0.0
 30
-5.037974460979366
 11
5.623735345086792
 21
0.0
 31
-6.017974460979367
  0
LINE
  5
CE
330
70
100
AcDbEntity
  8
Shelf Testing v7_Sketch1
100
AcDbLine
 10
13.16942032765576
 20
0.0
 30
-11.03460091956286
 11
13.16942032765576
 21
0.0
 31
-8.034600919562862
  0
LINE
  5
CF
330
70
100
AcDbEntity
  8
Shelf Testing v7_Sketch1
100
AcDbLine
 10
18.16942032765576
 20
0.0
 30
-11.03460091956286
 11
13.16942032765576
 21
0.0
 31
-11.03460091956286
  0
LINE
  5
D0
330
70
100
AcDbEntity
  8
Shelf Testing v7_Sketch1
100
AcDbLine
 10
16.95689848281024
 20
0.0
 30
-8.034600919562862
 11
18.16942032765576
 21
0.0
 31
-8.034600919562862
  0
LINE
  5
D1
330
70
100
AcDbEntity
  8
Shelf Testing v7_Sketch1
100
AcDbLine
 10
13.16942032765576
 20
0.0
 30
3.965399080437137
 11
14.3703822219791
 21
0.0
 31
3.965399080437137
  0
LINE
  5
D2
330
70
100
AcDbEntity
  8
Shelf Testing v7_Sketch1
100
AcDbLine
 10
18.16942032765576
 20
0.0
 30
-2.034600919562862
 11
18.16942032765576
 21
0.0
 31
-5.034600919562862
  0
LINE
  5
D3
330
70
100
AcDbEntity
  8
Shelf Testing v7_Sketch1
100
AcDbLine
 10
11.62373534508679
 20
0.0
 30
-11.00797446097937
 11
11.62373534508679
 21
0.0
 31
-14.00797446097937
  0
LINE
  5
D4
330
70
100
AcDbEntity
  8
Shelf Testing v7_Sketch1
100
AcDbLine
 10
18.16942032765576
 20
0.0
 30
-5.034600919562862
 11
13.16942032765576
 21
0.0
 31
-5.034600919562862
  0
LINE
  5
D5
330
70
100
AcDbEntity
  8
Shelf Testing v7_Sketch1
100
AcDbLine
 10
-0.728855381532251
 20
0.0
 30
-11.51240744116126
 11
-0.728855381532251
 21
0.0
 31
-12.98240744116126
  0
LINE
  5
D6
330
70
100
AcDbEntity
  8
Shelf Testing v7_Sketch1
100
AcDbLine
 10
13.16942032765576
 20
0.0
 30
-8.034600919562862
 11
14.38194217250127
 21
0.0
 31
-8.034600919562862
  0
LINE
  5
D7
330
70
100
AcDbEntity
  8
Shelf Testing v7_Sketch1
100
AcDbLine
 10
3.623735345086793
 20
0.0
 30
-14.00797446097937
 11
3.623735345086793
 21
0.0
 31
-11.00797446097937
  0
LINE
  5
D8
330
70
100
AcDbEntity
  8
Shelf Testing v7_Sketch1
100
AcDbLine
 10
16.96845843333242
 20
0.0
 30
3.965399080437137
 11
18.16942032765576
 21
0.0
 31
3.965399080437137
  0
LINE
  5
D9
330
70
100
AcDbEntity
  8
Shelf Testing v7_Sketch1
100
AcDbLine
 10
9.593735345086793
 20
0.0
 30
-11.00797446097937
 11
9.593735345086793
 21
0.0
 31
-10.03797446097936
  0
LINE
  5
DA
330
70
100
AcDbEntity
  8
Shelf Testing v7_Sketch1
100
AcDbLine
 10
18.16942032765576
 20
0.0
 30
-15.03460091956286
 11
18.16942032765576
 21
0.0
 31
-18.03460091956286
  0
LINE
  5
DB
330
70
100
AcDbEntity
  8
Shelf Testing v7_Sketch1
100
AcDbLine
 10
13.16942032765576
 20
0.0
 30
-18.03460091956286
 11
13.16942032765576
 21
0.0
 31
-15.03460091956286
  0
LINE
  5
DC
330
70
100
AcDbEntity
  8
Shelf Testing v7_Sketch1
100
AcDbLine
 10
18.16942032765576
 20
0.0
 30
-18.03460091956286
 11
13.16942032765576
 21
0.0
 31
-18.03460091956286
  0
LINE
  5
DD
330
70
100
AcDbEntity
  8
Shelf Testing v7_Sketch1
100
AcDbLine
 10
9.593735345086793
 20
0.0
 30
-10.03797446097936
 11
5.623735345086792
 21
0.0
 31
-10.03797446097936
  0
LINE
  5
DE
330
70
100
AcDbEntity
  8
Shelf Testing v7_Sketch1
100
AcDbLine
 10
3.623735345086793
 20
0.0
 30
0.9620255390206327
 11
3.623735345086793
 21
0.0
 31
3.962025539020633
  0
LINE
  5
DF
330
70
100
AcDbEntity
  8
Shelf Testing v7_Sketch1
100
AcDbLine
 10
3.623735345086793
 20
0.0
 30
-4.027974460979367
 11
3.623735345086793
 21
0.0
 31
-1.027974460979367
  0
ARC
  5
E0
330
70
100
AcDbEntity
  8
Shelf Testing v7_Sketch1
100
AcDbCircle
 10
4.198855381532251
 20
-11.50240744116125
 30
0.0
 40
0.5
210
0.0
220
1.0
230
0.0
100
AcDbArc
 50
0.0
 51
180.0
  0
LINE
  5
E1
330
70
100
AcDbEntity
  8
Shelf Testing v7_Sketch1
100
AcDbLine
 10
9.603735345086793
 20
0.0
 30
-6.017974460979367
 11
11.62373534508679
 21
0.0
 31
-6.017974460979367
  0
LINE
  5
E2
330
70
100
AcDbEntity
  8
Shelf Testing v7_Sketch1
100
AcDbLine
 10
-1.72885538153225
 20
0.0
 30
-12.98240744116126
 11
-3.698855381532251
 21
0.0
 31
-12.98240744116126
  0
ARC
  5
E3
330
70
100
AcDbEntity
  8
Shelf Testing v7_Sketch1
100
AcDbCircle
 10
-85.65500320707412
 20
6.167666930698724
 30
0.0
 40
0.4999999999712342
210
0.0
220
1.0
230
0.0
100
AcDbArc
 50
359.9929470396153
 51
179.9929541315918
  0
ARC
  5
E4
330
70
100
AcDbEntity
  8
Shelf Testing v7_Sketch1
100
AcDbCircle
 10
-86.94153845821542
 20
19.03289707734311
 30
0.0
 40
1.985000000011525
210
0.0
220
1.0
230
0.0
100
AcDbArc
 50
351.5498329954076
 51
188.4501670048092
  0
LINE
  5
E5
330
70
100
AcDbEntity
  8
Shelf Testing v7_Sketch1
100
AcDbLine
 10
24.99131890702215
 20
0.0
 30
3.931001450845063
 11
24.99131890702215
 21
0.0
 31
0.9310014508450631
  0
ARC
  5
E6
330
70
100
AcDbEntity
  8
Shelf Testing v7_Sketch1
100
AcDbCircle
 10
-65.90642469296864
 20
14.01433919644866
 30
0.0
 40
1.984999999999978
210
0.0
220
1.0
230
0.0
100
AcDbArc
 50
354.8166032625018
 51
185.1833967371892
  0
LINE
  5
E7
330
70
100
AcDbEntity
  8
Shelf Testing v7_Sketch1
100
AcDbLine
 10
80.15500321089103
 20
0.0
 30
-19.83227158262014
 11
80.15500321089071
 21
0.0
 31
16.16772841738326
  0
LINE
  5
E8
330
70
100
AcDbEntity
  8
Shelf Testing v7_Sketch1
100
AcDbLine
 10
46.99958700624036
 20
0.0
 30
13.28983438769389
 11
63.43158680113316
 21
0.0
 31
13.28983438771439
  0
LINE
  5
E9
330
70
100
AcDbEntity
  8
Shelf Testing v7_Sketch1
100
AcDbLine
 10
24.99131890702215
 20
0.0
 30
-2.068998549154936
 11
24.99131890702215
 21
0.0
 31
-5.068998549154937
  0
ARC
  5
EA
330
70
100
AcDbEntity
  8
Shelf Testing v7_Sketch1
100
AcDbCircle
 10
-22.49131890702215
 20
3.181001450845063
 30
0.0
 40
1.499999999999999
210
0.0
220
1.0
230
0.0
100
AcDbArc
 50
150.0
 51
29.99999999999997
  0
LINE
  5
EB
330
70
100
AcDbEntity
  8
Shelf Testing v7_Sketch1
100
AcDbLine
 10
24.99131890702215
 20
0.0
 30
-8.068998549154937
 11
24.99131890702215
 21
0.0
 31
-11.06899854915494
  0
LINE
  5
EC
330
70
100
AcDbEntity
  8
Shelf Testing v7_Sketch1
100
AcDbLine
 10
39.75448253353395
 20
0.0
 30
13.28983438767755
 11
42.08328473064648
 21
0.0
 31
13.28983438768309
  0
LINE
  5
ED
330
70
100
AcDbEntity
  8
Shelf Testing v7_Sketch1
100
AcDbLine
 10
23.77300724667419
 20
0.0
 30
-15.06899854915493
 11
24.99131890702215
 21
0.0
 31
-15.06899854915493
  0
LINE
  5
EE
330
70
100
AcDbEntity
  8
Shelf Testing v7_Sketch1
100
AcDbLine
 10
19.99131890702215
 20
0.0
 30
0.9310014508450631
 11
19.99131890702215
 21
0.0
 31
3.931001450845063
  0
LINE
  5
EF
330
70
100
AcDbEntity
  8
Shelf Testing v7_Sketch1
100
AcDbLine
 10
70.7544825335468
 20
0.0
 30
-16.71016561230105
 11
68.4275755389841
 21
0.0
 31
-16.71016561226658
  0
ARC
  5
F0
330
70
100
AcDbEntity
  8
Shelf Testing v7_Sketch1
100
AcDbCircle
 10
-15.66942032765576
 20
-14.28460091956286
 30
0.0
 40
1.484999999999999
210
0.0
220
1.0
230
0.0
100
AcDbArc
 50
329.6652949418779
 51
210.3347050581221
  0
ARC
  5
F1
330
70
100
AcDbEntity
  8
Shelf Testing v7_Sketch1
100
AcDbCircle
 10
-109.6550032108862
 20
6.167769016661737
 30
0.0
 40
0.5000000000000001
210
0.0
220
1.0
230
0.0
100
AcDbArc
 50
359.9953476631338
 51
179.9999999999043
  0
ARC
  5
F2
330
70
100
AcDbEntity
  8
Shelf Testing v7_Sketch1
100
AcDbCircle
 10
-88.64500314412255
 20
-16.36154163824352
 30
0.0
 40
0.5000000000000414
210
0.0
220
1.0
230
0.0
100
AcDbArc
 50
359.9660044088192
 51
179.9999999999914
  0
ARC
  5
F3
330
70
100
AcDbEntity
  8
Shelf Testing v7_Sketch1
100
AcDbCircle
 10
-108.3076057476653
 20
18.89391545441137
 30
0.0
 40
1.984999999990526
210
0.0
220
1.0
230
0.0
100
AcDbArc
 50
354.7776562427176
 51
185.2223437560626
  0
LINE
  5
F4
330
70
100
AcDbEntity
  8
Shelf Testing v7_Sketch1
100
AcDbLine
 10
37.75448253355062
 20
0.0
 30
-14.71016561231635
 11
37.75448253355063
 21
0.0
 31
11.28983438768228
  0
LINE
  5
F5
330
70
100
AcDbEntity
  8
Shelf Testing v7_Sketch1
100
AcDbLine
 10
88.1450032067118
 20
0.0
 30
4.697605381998389
 11
86.15500321089049
 21
0.0
 31
4.697605381998869
  0
LINE
  5
F6
330
70
100
AcDbEntity
  8
Shelf Testing v7_Sketch1
100
AcDbLine
 10
19.99131890702215
 20
0.0
 30
-15.06899854915493
 11
21.20963056737011
 21
0.0
 31
-15.06899854915493
  0
LINE
  5
F7
330
70
100
AcDbEntity
  8
Shelf Testing v7_Sketch1
100
AcDbLine
 10
13.16942032765576
 20
0.0
 30
-15.03460091956286
 11
14.38773198800372
 21
0.0
 31
-15.03460091956286
  0
ARC
  5
F8
330
70
100
AcDbEntity
  8
Shelf Testing v7_Sketch1
100
AcDbCircle
 10
-106.6650032128534
 20
4.697643776280219
 30
0.0
 40
0.5
210
0.0
220
1.0
230
0.0
100
AcDbArc
 50
180.0000000000031
 51
0.0000000000031551
  0
LINE
  5
F9
330
70
100
AcDbEntity
  8
Shelf Testing v7_Sketch1
100
AcDbLine
 10
23.7845802881822
 20
0.0
 30
-2.068998549154936
 11
24.99131890702215
 21
0.0
 31
-2.068998549154936
  0
LINE
  5
FA
330
70
100
AcDbEntity
  8
Shelf Testing v7_Sketch1
100
AcDbLine
 10
24.99131890702215
 20
0.0
 30
-18.06899854915494
 11
19.99131890702215
 21
0.0
 31
-18.06899854915494
  0
LINE
  5
FB
330
70
100
AcDbEntity
  8
Shelf Testing v7_Sketch1
100
AcDbLine
 10
19.99131890702215
 20
0.0
 30
-8.068998549154937
 11
21.20384075186767
 21
0.0
 31
-8.068998549154937
  0
LINE
  5
FC
330
70
100
AcDbEntity
  8
Shelf Testing v7_Sketch1
100
AcDbLine
 10
19.99131890702215
 20
0.0
 30
-18.06899854915494
 11
19.99131890702215
 21
0.0
 31
-15.06899854915493
  0
LINE
  5
FD
330
70
100
AcDbEntity
  8
Shelf Testing v7_Sketch1
100
AcDbLine
 10
88.14500314412375
 20
0.0
 30
-17.83227158263767
 11
86.15500321091218
 21
0.0
 31
-17.83227158264239
  0
LINE
  5
FE
330
70
100
AcDbEntity
  8
Shelf Testing v7_Sketch1
100
AcDbLine
 10
89.14500314412258
 20
0.0
 30
-16.36154163824352
 11
89.14500314412276
 21
0.0
 31
-17.83227158263388
  0
LINE
  5
FF
330
70
100
AcDbEntity
  8
Shelf Testing v7_Sketch1
100
AcDbLine
 10
23.77879706217663
 20
0.0
 30
-8.068998549154937
 11
24.99131890702215
 21
0.0
 31
-8.068998549154937
  0
LINE
  5
100
330
70
100
AcDbEntity
  8
Shelf Testing v7_Sketch1
100
AcDbLine
 10
68.38126258480534
 20
0.0
 30
13.28983438769392
 11
70.75448253354753
 21
0.0
 31
13.28983438771077
  0
LINE
  5
101
330
70
100
AcDbEntity
  8
Shelf Testing v7_Sketch1
100
AcDbLine
 10
105.894745863228
 20
0.0
 30
-21.83227158264219
 11
89.46092333440395
 21
0.0
 31
-21.83227158264219
  0
LINE
  5
102
330
70
100
AcDbEntity
  8
Shelf Testing v7_Sketch1
100
AcDbLine
 10
82.15500321089102
 20
0.0
 30
18.16772841738327
 11
84.48351550270009
 21
0.0
 31
18.16772841738327
  0
ARC
  5
103
330
70
100
AcDbEntity
  8
Shelf Testing v7_Sketch1
100
AcDbCircle
 10
-85.65500321091219
 20
-17.83227158264241
 30
0.0
 40
0.5
210
0.0
220
1.0
230
0.0
100
AcDbArc
 50
179.9999999999975
 51
359.9999999999976
  0
LINE
  5
104
330
70
100
AcDbEntity
  8
Shelf Testing v7_Sketch1
100
AcDbLine
 10
19.99131890702215
 20
0.0
 30
3.931001450845063
 11
21.19228080134549
 21
0.0
 31
3.931001450845063
  0
LINE
  5
105
330
70
100
AcDbEntity
  8
Shelf Testing v7_Sketch1
100
AcDbLine
 10
72.75448253354756
 20
0.0
 30
11.28983438771077
 11
72.75448253354754
 21
0.0
 31
-14.71016561230106
  0
LINE
  5
106
330
70
100
AcDbEntity
  8
Shelf Testing v7_Sketch1
100
AcDbLine
 10
42.10124969312948
 20
0.0
 30
-16.71016561209177
 11
39.75448253355046
 21
0.0
 31
-16.71016561230193
  0
ARC
  5
107
330
70
100
AcDbEntity
  8
Shelf Testing v7_Sketch1
100
AcDbCircle
 10
-44.57662906694896
 20
-15.89788055694324
 30
0.0
 40
1.994999999999999
210
0.0
220
1.0
230
0.0
100
AcDbArc
 50
352.8097530737732
 51
187.1902469303672
  0
ARC
  5
108
330
70
100
AcDbEntity
  8
Shelf Testing v7_Sketch1
100
AcDbCircle
 10
-65.96060636929689
 20
-15.83722042081556
 30
0.0
 40
1.99499999999999
210
0.0
220
1.0
230
0.0
100
AcDbArc
 50
351.4033790547729
 51
188.5966209454264
  0
ARC
  5
109
330
70
100
AcDbEntity
  8
Shelf Testing v7_Sketch1
100
AcDbCircle
 10
-106.6650032110503
 20
6.16768609303683
 30
0.0
 40
0.4999999999880894
210
0.0
220
1.0
230
0.0
100
AcDbArc
 50
359.9951508568811
 51
179.9951508568811
  0
LINE
  5
10A
330
70
100
AcDbEntity
  8
Shelf Testing v7_Sketch1
100
AcDbLine
 10
89.39956141371878
 20
0.0
 30
18.16772841737087
 11
105.8329210355807
 21
0.0
 31
18.16772841736848
  0
LINE
  5
10B
330
70
100
AcDbEntity
  8
Shelf Testing v7_Sketch1
100
AcDbLine
 10
85.15500321091458
 20
0.0
 30
-17.83227158263537
 11
85.15500321091391
 21
0.0
 31
-16.36227158263107
  0
ARC
  5
10C
330
70
100
AcDbEntity
  8
Shelf Testing v7_Sketch1
100
AcDbCircle
 10
-108.3615755998621
 20
-20.95840522890362
 30
0.0
 40
1.99499999999999
210
0.0
220
1.0
230
0.0
100
AcDbArc
 50
351.3819842998331
 51
188.6180156967995
  0
ARC
  5
10D
330
70
100
AcDbEntity
  8
Shelf Testing v7_Sketch1
100
AcDbCircle
 10
-109.6550032108863
 20
4.697643776280052
 30
0.0
 40
0.500000000004988
210
0.0
220
1.0
230
0.0
100
AcDbArc
 50
180.0000000000001
 51
0.0000000000001018
  0
ARC
  5
10E
330
70
100
AcDbEntity
  8
Shelf Testing v7_Sketch1
100
AcDbCircle
 10
-22.49131890702215
 20
-2.818998549154936
 30
0.0
 40
1.495
210
0.0
220
1.0
230
0.0
100
AcDbArc
 50
149.8893036320669
 51
30.11069636793315
  0
LINE
  5
10F
330
70
100
AcDbEntity
  8
Shelf Testing v7_Sketch1
100
AcDbLine
 10
24.99131890702215
 20
0.0
 30
-5.068998549154937
 11
19.99131890702215
 21
0.0
 31
-5.068998549154937
  0
LINE
  5
110
330
70
100
AcDbEntity
  8
Shelf Testing v7_Sketch1
100
AcDbLine
 10
16.9511086673078
 20
0.0
 30
-15.03460091956286
 11
18.16942032765576
 21
0.0
 31
-15.03460091956286
  0
LINE
  5
111
330
70
100
AcDbEntity
  8
Shelf Testing v7_Sketch1
100
AcDbLine
 10
19.99131890702215
 20
0.0
 30
-2.068998549154936
 11
21.1980575258621
 21
0.0
 31
-2.068998549154936
  0
ARC
  5
112
330
70
100
AcDbEntity
  8
Shelf Testing v7_Sketch1
100
AcDbCircle
 10
-22.49131890702215
 20
-8.818998549154937
 30
0.0
 40
1.489999999999998
210
0.0
220
1.0
230
0.0
100
AcDbArc
 50
149.7777389136061
 51
30.22226108639393
  0
LINE
  5
113
330
70
100
AcDbEntity
  8
Shelf Testing v7_Sketch1
100
AcDbLine
 10
23.79035701269881
 20
0.0
 30
3.931001450845063
 11
24.99131890702215
 21
0.0
 31
3.931001450845063
  0
ARC
  5
114
330
70
100
AcDbEntity
  8
Shelf Testing v7_Sketch1
100
AcDbCircle
 10
-22.49131890702215
 20
-15.81899854915494
 30
0.0
 40
1.484999999999999
210
0.0
220
1.0
230
0.0
100
AcDbArc
 50
149.6652949418778
 51
30.33470505812215
  0
LINE
  5
115
330
70
100
AcDbEntity
  8
Shelf Testing v7_Sketch1
100
AcDbLine
 10
24.99131890702215
 20
0.0
 30
-15.06899854915493
 11
24.99131890702215
 21
0.0
 31
-18.06899854915494
  0
ARC
  5
116
330
70
100
AcDbEntity
  8
Shelf Testing v7_Sketch1
100
AcDbCircle
 10
-44.54143586844494
 20
14.15413918278775
 30
0.0
 40
1.985000000000003
210
0.0
220
1.0
230
0.0
100
AcDbArc
 50
351.5699689012623
 51
188.4300310987434
  0
LINE
  5
117
330
70
100
AcDbEntity
  8
Shelf Testing v7_Sketch1
100
AcDbLine
 10
24.99131890702215
 20
0.0
 30
-11.06899854915494
 11
19.99131890702215
 21
0.0
 31
-11.06899854915494
  0
LINE
  5
118
330
70
100
AcDbEntity
  8
Shelf Testing v7_Sketch1
100
AcDbLine
 10
63.49363719961615
 20
0.0
 30
-16.71016561229243
 11
47.05200844074772
 21
0.0
 31
-16.71016561227275
  0
ARC
  5
119
330
70
100
AcDbEntity
  8
Shelf Testing v7_Sketch1
100
AcDbCircle
 10
-88.64500320671169
 20
6.167786868985735
 30
0.0
 40
0.5000000000000028
210
0.0
220
1.0
230
0.0
100
AcDbArc
 50
359.993301938883
 51
179.9999999999704
  0
LINE
  5
11A
330
70
100
AcDbEntity
  8
Shelf Testing v7_Sketch1
100
AcDbLine
 10
115.1550032108913
 20
0.0
 30
16.16772841736563
 11
115.1550032108912
 21
0.0
 31
-19.83227158261637
  0
ARC
  5
11B
330
70
100
AcDbEntity
  8
Shelf Testing v7_Sketch1
100
AcDbCircle
 10
-86.98371178668647
 20
-21.03486958557926
 30
0.0
 40
1.995000000017045
210
0.0
220
1.0
230
0.0
100
AcDbArc
 50
353.154111759166
 51
186.8458882414555
  0
LINE
  5
11C
330
70
100
AcDbEntity
  8
Shelf Testing v7_Sketch1
100
AcDbLine
 10
19.99131890702215
 20
0.0
 30
-5.068998549154937
 11
19.99131890702215
 21
0.0
 31
-2.068998549154936
  0
LINE
  5
11D
330
70
100
AcDbEntity
  8
Shelf Testing v7_Sketch1
100
AcDbLine
 10
84.50650023896695
 20
0.0
 30
-21.83227158261763
 11
82.15500321089319
 21
0.0
 31
-21.83227158262014
  0
LINE
  5
11E
330
70
100
AcDbEntity
  8
Shelf Testing v7_Sketch1
100
AcDbLine
 10
109.1550032108864
 20
0.0
 30
4.69764377628008
 11
107.1650032128534
 21
0.0
 31
4.697643776280191
  0
LINE
  5
11F
330
70
100
AcDbEntity
  8
Shelf Testing v7_Sketch1
100
AcDbLine
 10
24.99131890702215
 20
0.0
 30
0.9310014508450631
 11
19.99131890702215
 21
0.0
 31
0.9310014508450631
  0
ARC
  5
120
330
70
100
AcDbEntity
  8
Shelf Testing v7_Sketch1
100
AcDbCircle
 10
-88.64500320671176
 20
4.69760538199827
 30
0.0
 40
0.4999999999999432
210
0.0
220
1.0
230
0.0
100
AcDbArc
 50
179.9999999999998
 51
359.9999999999998
  0
ARC
  5
121
330
70
100
AcDbEntity
  8
Shelf Testing v7_Sketch1
100
AcDbCircle
 10
-88.64500314412373
 20
-17.83227158264215
 30
0.0
 40
0.4999999999990337
210
0.0
220
1.0
230
0.0
100
AcDbArc
 50
179.999999999053
 51
359.999999999053
  0
LINE
  5
122
330
70
100
AcDbEntity
  8
Shelf Testing v7_Sketch1
100
AcDbLine
 10
19.99131890702215
 20
0.0
 30
-11.06899854915494
 11
19.99131890702215
 21
0.0
 31
-8.068998549154937
  0
ARC
  5
123
330
70
100
AcDbEntity
  8
Shelf Testing v7_Sketch1
100
AcDbCircle
 10
-42.08328473064649
 20
13.78983438767757
 30
0.0
 40
0.5000000000000146
210
0.0
220
1.0
230
0.0
100
AcDbArc
 50
171.5699689012622
 51
270.0000000000008
  0
ARC
  5
124
330
70
100
AcDbEntity
  8
Shelf Testing v7_Sketch1
100
AcDbCircle
 10
-105.8329210355799
 20
18.66772841737355
 30
0.0
 40
0.5000000000000235
210
0.0
220
1.0
230
0.0
100
AcDbArc
 50
174.7776562427439
 51
269.9999999999088
  0
ARC
  5
125
330
70
100
AcDbEntity
  8
Shelf Testing v7_Sketch1
100
AcDbCircle
 10
-109.6550032108863
 20
-16.36214754674655
 30
0.0
 40
0.4999999999999831
210
0.0
220
1.0
230
0.0
100
AcDbArc
 50
359.9953548324068
 51
179.9999999999173
  0
LINE
  5
126
330
70
100
AcDbEntity
  8
Shelf Testing v7_Sketch1
100
AcDbLine
 10
63.76448253743635
 20
0.0
 30
3.81971461961464
 11
63.76448253743635
 21
0.0
 31
5.28971461961464
  0
LINE
  5
127
330
70
100
AcDbEntity
  8
Shelf Testing v7_Sketch1
100
AcDbLine
 10
113.1550032108511
 20
0.0
 30
-21.83227158261665
 11
110.8284053365701
 21
0.0
 31
-21.83227158257968
  0
ARC
  5
128
330
70
100
AcDbEntity
  8
Shelf Testing v7_Sketch1
100
AcDbCircle
 10
-39.75448253355063
 20
11.28983438768228
 30
0.0
 40
2.0
210
0.0
220
1.0
230
0.0
100
AcDbArc
 50
0.0
 51
89.99999999952226
  0
ARC
  5
129
330
70
100
AcDbEntity
  8
Shelf Testing v7_Sketch1
100
AcDbCircle
 10
-85.6550032108905
 20
4.697605381998988
 30
0.0
 40
0.5
210
0.0
220
1.0
230
0.0
100
AcDbArc
 50
180.0000000000136
 51
0.0000000000136382
  0
ARC
  5
12A
330
70
100
AcDbEntity
  8
Shelf Testing v7_Sketch1
100
AcDbCircle
 10
-63.49363719961631
 20
-16.21016561229187
 30
0.0
 40
0.4999999999999753
210
0.0
220
1.0
230
0.0
100
AcDbArc
 50
171.4033790547726
 51
270.0000000000179
  0
LINE
  5
12B
330
70
100
AcDbEntity
  8
Shelf Testing v7_Sketch1
100
AcDbLine
 10
86.15500320326386
 20
0.0
 30
6.167728417375862
 11
88.14500321012827
 21
0.0
 31
6.167728417375872
  0
LINE
  5
12C
330
70
100
AcDbEntity
  8
Shelf Testing v7_Sketch1
100
AcDbLine
 10
106.1650032128534
 20
0.0
 30
4.697643776280218
 11
106.165003212853
 21
0.0
 31
6.167643776280219
  0
ARC
  5
12D
330
70
100
AcDbEntity
  8
Shelf Testing v7_Sketch1
100
AcDbCircle
 10
-110.8284053365817
 20
-21.33227158250686
 30
0.0
 40
0.5000000000728165
210
0.0
220
1.0
230
0.0
100
AcDbArc
 50
270.0000000013321
 51
8.618015696799956
  0
ARC
  5
12E
330
70
100
AcDbEntity
  8
Shelf Testing v7_Sketch1
100
AcDbCircle
 10
-89.46092333440395
 20
-21.33227158264221
 30
0.0
 40
0.4999999999999823
210
0.0
220
1.0
230
0.0
100
AcDbArc
 50
270.0000000000017
 51
6.845888242123856
  0
ARC
  5
12F
330
70
100
AcDbEntity
  8
Shelf Testing v7_Sketch1
100
AcDbCircle
 10
-42.10124969312948
 20
-16.21016561209176
 30
0.0
 40
0.500000000000013
210
0.0
220
1.0
230
0.0
100
AcDbArc
 50
172.8097530737731
 51
270.0
  0
ARC
  5
130
330
70
100
AcDbEntity
  8
Shelf Testing v7_Sketch1
100
AcDbCircle
 10
-106.665003211048
 20
-16.3622298401695
 30
0.0
 40
0.4999999999880759
210
0.0
220
1.0
230
0.0
100
AcDbArc
 50
359.9952166645691
 51
179.9952151857896
  0
LINE
  5
131
330
70
100
AcDbEntity
  8
Shelf Testing v7_Sketch1
100
AcDbLine
 10
64.76448253020222
 20
0.0
 30
5.289834387710442
 11
66.75448253676269
 21
0.0
 31
5.28983438771072
  0
LINE
  5
132
330
70
100
AcDbEntity
  8
Shelf Testing v7_Sketch1
100
AcDbLine
 10
67.75448253354756
 20
0.0
 30
5.289891089819606
 11
67.75448253354756
 21
0.0
 31
3.819714619614668
  0
ARC
  5
133
330
70
100
AcDbEntity
  8
Shelf Testing v7_Sketch1
100
AcDbCircle
 10
-67.25448253354759
 20
-12.7101656122918
 30
0.0
 40
0.4999999999999716
210
0.0
220
1.0
230
0.0
100
AcDbArc
 50
180.0
 51
0.0
  0
LINE
  5
134
330
70
100
AcDbEntity
  8
Shelf Testing v7_Sketch1
100
AcDbLine
 10
67.75448253354756
 20
0.0
 30
-11.24002089429711
 11
67.75448253354756
 21
0.0
 31
-12.7101656122918
  0
LINE
  5
135
330
70
100
AcDbEntity
  8
Shelf Testing v7_Sketch1
100
AcDbLine
 10
64.76448253133596
 20
0.0
 30
-11.24006799182359
 11
66.75448253576572
 21
0.0
 31
-11.24006799182368
  0
ARC
  5
136
330
70
100
AcDbEntity
  8
Shelf Testing v7_Sketch1
100
AcDbCircle
 10
-64.26448253374997
 20
-11.24011683088229
 30
0.0
 40
0.4999999999712413
210
0.0
220
1.0
230
0.0
100
AcDbArc
 50
359.9944100622206
 51
179.9944035042608
  0
ARC
  5
137
330
70
100
AcDbEntity
  8
Shelf Testing v7_Sketch1
100
AcDbCircle
 10
-84.50650023894871
 20
-21.33227158261312
 30
0.0
 40
0.5000000000000023
210
0.0
220
1.0
230
0.0
100
AcDbArc
 50
173.1541117589838
 51
269.9999999979091
  0
ARC
  5
138
330
70
100
AcDbEntity
  8
Shelf Testing v7_Sketch1
100
AcDbCircle
 10
-85.65500319423538
 20
-16.36214243731865
 30
0.0
 40
0.4999999999999849
210
0.0
220
1.0
230
0.0
100
AcDbArc
 50
359.9852010371446
 51
179.9651490843841
  0
LINE
  5
139
330
70
100
AcDbEntity
  8
Shelf Testing v7_Sketch1
100
AcDbLine
 10
107.1650032093057
 20
0.0
 30
-16.36218808348098
 11
109.1550032125295
 21
0.0
 31
-16.36218808348091
  0
ARC
  5
13A
330
70
100
AcDbEntity
  8
Shelf Testing v7_Sketch1
100
AcDbCircle
 10
-64.26448253615837
 20
-12.71016561229183
 30
0.0
 40
0.5
210
0.0
220
1.0
230
0.0
100
AcDbArc
 50
179.9999999999994
 51
359.9999999999994
  0
LINE
  5
13B
330
70
100
AcDbEntity
  8
Shelf Testing v7_Sketch1
100
AcDbLine
 10
110.1550032108863
 20
0.0
 30
-16.36214754674657
 11
110.1550032108891
 21
0.0
 31
-17.83227158264638
  0
ARC
  5
13C
330
70
100
AcDbEntity
  8
Shelf Testing v7_Sketch1
100
AcDbCircle
 10
-105.894745863228
 20
-21.3322715826422
 30
0.0
 40
0.4999999999999993
210
0.0
220
1.0
230
0.0
100
AcDbArc
 50
171.3819842998334
 51
270.0
  0
LINE
  5
13D
330
70
100
AcDbEntity
  8
Shelf Testing v7_Sketch1
100
AcDbLine
 10
66.75448253354762
 20
0.0
 30
3.819714619614663
 11
64.76448253743635
 21
0.0
 31
3.819714619614645
  0
ARC
  5
13E
330
70
100
AcDbEntity
  8
Shelf Testing v7_Sketch1
100
AcDbCircle
 10
-67.25448253354753
 20
-11.24002089429711
 30
0.0
 40
0.4999999999999904
210
0.0
220
1.0
230
0.0
100
AcDbArc
 50
359.9946030209965
 51
179.9999999999536
  0
ARC
  5
13F
330
70
100
AcDbEntity
  8
Shelf Testing v7_Sketch1
100
AcDbCircle
 10
-67.25448253354755
 20
5.289891089819607
 30
0.0
 40
0.4999999999999944
210
0.0
220
1.0
230
0.0
100
AcDbArc
 50
359.9935024169286
 51
180.0000000000003
  0
LINE
  5
140
330
70
100
AcDbEntity
  8
Shelf Testing v7_Sketch1
100
AcDbLine
 10
110.7822904597687
 20
0.0
 30
18.16772841736514
 11
113.1550032108897
 21
0.0
 31
18.16772841736573
  0
ARC
  5
141
330
70
100
AcDbEntity
  8
Shelf Testing v7_Sketch1
100
AcDbCircle
 10
-46.24448253048743
 20
-11.24000926552277
 30
0.0
 40
0.4999999999999958
210
0.0
220
1.0
230
0.0
100
AcDbArc
 50
359.9941488004522
 51
179.9999999999686
  0
ARC
  5
142
330
70
100
AcDbEntity
  8
Shelf Testing v7_Sketch1
100
AcDbCircle
 10
-106.6650032128261
 20
-17.8322715826457
 30
0.0
 40
0.5
210
0.0
220
1.0
230
0.0
100
AcDbArc
 50
180.0000000000032
 51
0.0000000000032569
  0
ARC
  5
143
330
70
100
AcDbEntity
  8
Shelf Testing v7_Sketch1
100
AcDbCircle
 10
-109.6550032108863
 20
-17.83227158264637
 30
0.0
 40
0.500000000002828
210
0.0
220
1.0
230
0.0
100
AcDbArc
 50
180.0000000000004
 51
0.0000000000004071
  0
LINE
  5
144
330
70
100
AcDbEntity
  8
Shelf Testing v7_Sketch1
100
AcDbLine
 10
106.1650032128046
 20
0.0
 30
-17.8322715826421
 11
106.1650032128024
 21
0.0
 31
-16.3622715826457
  0
ARC
  5
145
330
70
100
AcDbEntity
  8
Shelf Testing v7_Sketch1
100
AcDbCircle
 10
-67.25448253354759
 20
3.819714619614667
 30
0.0
 40
0.4999999999999716
210
0.0
220
1.0
230
0.0
100
AcDbArc
 50
179.9999999999999
 51
360.0
  0
LINE
  5
146
330
70
100
AcDbEntity
  8
Shelf Testing v7_Sketch1
100
AcDbLine
 10
66.75448253354762
 20
0.0
 30
-12.71016561229181
 11
64.76448253615837
 21
0.0
 31
-12.71016561229182
  0
LINE
  5
147
330
70
100
AcDbEntity
  8
Shelf Testing v7_Sketch1
100
AcDbLine
 10
45.74448253048749
 20
0.0
 30
-12.71016561229242
 11
43.75448253355061
 21
0.0
 31
-12.71016561229243
  0
LINE
  5
148
330
70
100
AcDbEntity
  8
Shelf Testing v7_Sketch1
100
AcDbLine
 10
85.15500321089062
 20
0.0
 30
4.697605382008514
 11
85.15500321089113
 21
0.0
 31
6.16760538200852
  0
ARC
  5
149
330
70
100
AcDbEntity
  8
Shelf Testing v7_Sketch1
100
AcDbCircle
 10
-113.155003210891
 20
-19.83227158261669
 30
0.0
 40
2.000000000000255
210
0.0
220
1.0
230
0.0
100
AcDbArc
 50
179.9999999999908
 51
270.0000000011415
  0
ARC
  5
14A
330
70
100
AcDbEntity
  8
Shelf Testing v7_Sketch1
100
AcDbCircle
 10
-39.75448253355049
 20
-14.71016561230192
 30
0.0
 40
2.000000000000008
210
0.0
220
1.0
230
0.0
100
AcDbArc
 50
270.000000000001
 51
359.9999999995868
  0
LINE
  5
14B
330
70
100
AcDbEntity
  8
Shelf Testing v7_Sketch1
100
AcDbLine
 10
63.76448253615835
 20
0.0
 30
-12.71016561229183
 11
63.76448253615835
 21
0.0
 31
-11.24016561229183
  0
LINE
  5
14C
330
70
100
AcDbEntity
  8
Shelf Testing v7_Sketch1
100
AcDbLine
 10
42.75448253355062
 20
0.0
 30
-12.71016561229244
 11
42.75448253355062
 21
0.0
 31
-11.24016561229244
  0
ARC
  5
14D
330
70
100
AcDbEntity
  8
Shelf Testing v7_Sketch1
100
AcDbCircle
 10
-43.2544825307584
 20
-11.2401130437044
 30
0.0
 40
0.4999999999712366
210
0.0
220
1.0
230
0.0
100
AcDbArc
 50
359.9939760835288
 51
179.9939591151131
  0
LINE
  5
14E
330
70
100
AcDbEntity
  8
Shelf Testing v7_Sketch1
100
AcDbLine
 10
107.1650032093263
 20
0.0
 30
6.167728417368196
 11
109.1550032125345
 21
0.0
 31
6.167728417363668
  0
ARC
  5
14F
330
70
100
AcDbEntity
  8
Shelf Testing v7_Sketch1
100
AcDbCircle
 10
-68.38126258480193
 20
13.78983438771144
 30
0.0
 40
0.500000000017522
210
0.0
220
1.0
230
0.0
100
AcDbArc
 50
269.9999999996091
 51
5.18339673718941
  0
ARC
  5
150
330
70
100
AcDbEntity
  8
Shelf Testing v7_Sketch1
100
AcDbCircle
 10
-70.75448253354754
 20
11.28983438771077
 30
0.0
 40
2.0
210
0.0
220
1.0
230
0.0
100
AcDbArc
 50
89.99999999999959
 51
179.9999999999999
  0
ARC
  5
151
330
70
100
AcDbEntity
  8
Shelf Testing v7_Sketch1
100
AcDbCircle
 10
-64.26448253381469
 20
5.289774560443313
 30
0.0
 40
0.4999999999712311
210
0.0
220
1.0
230
0.0
100
AcDbArc
 50
359.9931312869762
 51
179.9931442632122
  0
LINE
  5
152
330
70
100
AcDbEntity
  8
Shelf Testing v7_Sketch1
100
AcDbLine
 10
109.1550032108863
 20
0.0
 30
-17.83227158264584
 11
107.1650032128261
 21
0.0
 31
-17.83227158264573
  0
ARC
  5
153
330
70
100
AcDbEntity
  8
Shelf Testing v7_Sketch1
100
AcDbCircle
 10
-82.15500321089072
 20
16.16772841738326
 30
0.0
 40
2.000000000000014
210
0.0
220
1.0
230
0.0
100
AcDbArc
 50
0.0
 51
90.00000000000856
  0
ARC
  5
154
330
70
100
AcDbEntity
  8
Shelf Testing v7_Sketch1
100
AcDbCircle
 10
-46.99958700624011
 20
13.78983438769389
 30
0.0
 40
0.4999999999999983
210
0.0
220
1.0
230
0.0
100
AcDbArc
 50
269.9999999999715
 51
8.430031096920529
  0
LINE
  5
155
330
70
100
AcDbEntity
  8
Shelf Testing v7_Sketch1
100
AcDbLine
 10
86.15500310173862
 20
0.0
 30
-16.3618383057248
 11
88.14500323213412
 21
0.0
 31
-16.36183830572475
  0
LINE
  5
156
330
70
100
AcDbEntity
  8
Shelf Testing v7_Sketch1
100
AcDbLine
 10
89.14500320671171
 20
0.0
 30
6.167786868985736
 11
89.14500320671171
 21
0.0
 31
4.697605381998272
  0
ARC
  5
157
330
70
100
AcDbEntity
  8
Shelf Testing v7_Sketch1
100
AcDbCircle
 10
-113.1550032108912
 20
16.16772841736563
 30
0.0
 40
2.000000000000095
210
0.0
220
1.0
230
0.0
100
AcDbArc
 50
89.99999999995644
 51
180.0
  0
ARC
  5
158
330
70
100
AcDbEntity
  8
Shelf Testing v7_Sketch1
100
AcDbCircle
 10
-68.42757553897623
 20
-16.21016561230045
 30
0.0
 40
0.499999999966132
210
0.0
220
1.0
230
0.0
100
AcDbArc
 50
269.9999999990978
 51
8.596620945425774
  0
ARC
  5
159
330
70
100
AcDbEntity
  8
Shelf Testing v7_Sketch1
100
AcDbCircle
 10
-70.75448253354756
 20
-14.71016561230106
 30
0.0
 40
1.999999999999985
210
0.0
220
1.0
230
0.0
100
AcDbArc
 50
179.9999999999999
 51
270.0000000000216
  0
ARC
  5
15A
330
70
100
AcDbEntity
  8
Shelf Testing v7_Sketch1
100
AcDbCircle
 10
-63.43158680113657
 20
13.78983438769811
 30
0.0
 40
0.5000000000000038
210
0.0
220
1.0
230
0.0
100
AcDbArc
 50
174.8166032625021
 51
270.0000000003908
  0
LINE
  5
15B
330
70
100
AcDbEntity
  8
Shelf Testing v7_Sketch1
100
AcDbLine
 10
46.74448253048743
 20
0.0
 30
-11.24000926552277
 11
46.74448253048743
 21
0.0
 31
-12.71016561229241
  0
ARC
  5
15C
330
70
100
AcDbEntity
  8
Shelf Testing v7_Sketch1
100
AcDbCircle
 10
-64.26448253743635
 20
3.81971461961464
 30
0.0
 40
0.5
210
0.0
220
1.0
230
0.0
100
AcDbArc
 50
179.9999999999994
 51
359.9999999999994
  0
LINE
  5
15D
330
70
100
AcDbEntity
  8
Shelf Testing v7_Sketch1
100
AcDbLine
 10
110.1550032108913
 20
0.0
 30
6.167769016661736
 11
110.1550032108913
 21
0.0
 31
4.697643776280051
  0
ARC
  5
15E
330
70
100
AcDbEntity
  8
Shelf Testing v7_Sketch1
100
AcDbCircle
 10
-84.48351550270006
 20
18.66772841738328
 30
0.0
 40
0.5000000000000089
210
0.0
220
1.0
230
0.0
100
AcDbArc
 50
171.5498329954189
 51
269.9999999999968
  0
ARC
  5
15F
330
70
100
AcDbEntity
  8
Shelf Testing v7_Sketch1
100
AcDbCircle
 10
-110.7822904597689
 20
18.66772841742477
 30
0.0
 40
0.5000000000596323
210
0.0
220
1.0
230
0.0
100
AcDbArc
 50
270.000000000013
 51
5.222343756063085
  0
ARC
  5
160
330
70
100
AcDbEntity
  8
Shelf Testing v7_Sketch1
100
AcDbCircle
 10
-47.05200844074772
 20
-16.21016561227088
 30
0.0
 40
0.5000000000018723
210
0.0
220
1.0
230
0.0
100
AcDbArc
 50
270.0
 51
7.190246930367408
  0
ARC
  5
161
330
70
100
AcDbEntity
  8
Shelf Testing v7_Sketch1
100
AcDbCircle
 10
-82.15500321089102
 20
-19.83227158262014
 30
0.0
 40
2.0
210
0.0
220
1.0
230
0.0
100
AcDbArc
 50
269.9999999999381
 51
0.0000000000001018
  0
ARC
  5
162
330
70
100
AcDbEntity
  8
Shelf Testing v7_Sketch1
100
AcDbCircle
 10
-89.39956141371887
 20
18.66772841737089
 30
0.0
 40
0.5000000000000142
210
0.0
220
1.0
230
0.0
100
AcDbArc
 50
270.0000000000114
 51
8.450167005326017
  0
LINE
  5
163
330
70
100
AcDbEntity
  8
Shelf Testing v7_Sketch1
100
AcDbLine
 10
43.75448252368512
 20
0.0
 30
5.289834387687808
 11
45.74448253251534
 21
0.0
 31
5.289834387687722
  0
ARC
  5
164
330
70
100
AcDbEntity
  8
Shelf Testing v7_Sketch1
100
AcDbCircle
 10
-43.25448253353394
 20
3.819694450152976
 30
0.0
 40
0.5
210
0.0
220
1.0
230
0.0
100
AcDbArc
 50
179.9999999999995
 51
359.9999999999995
  0
ARC
  5
165
330
70
100
AcDbEntity
  8
Shelf Testing v7_Sketch1
100
AcDbCircle
 10
-46.24448252825819
 20
3.819694450153003
 30
0.0
 40
0.4999999999999716
210
0.0
220
1.0
230
0.0
100
AcDbArc
 50
180.0
 51
0.0
  0
ARC
  5
166
330
70
100
AcDbEntity
  8
Shelf Testing v7_Sketch1
100
AcDbCircle
 10
-46.24448252825817
 20
5.289899634695963
 30
0.0
 40
0.499999999999998
210
0.0
220
1.0
230
0.0
100
AcDbArc
 50
359.9925232435827
 51
180.0000000000108
  0
ARC
  5
167
330
70
100
AcDbEntity
  8
Shelf Testing v7_Sketch1
100
AcDbCircle
 10
-43.25448252859176
 20
5.289764545868079
 30
0.0
 40
0.4999999999712365
210
0.0
220
1.0
230
0.0
100
AcDbArc
 50
359.9919676226984
 51
179.991996713712
  0
ARC
  5
168
330
70
100
AcDbEntity
  8
Shelf Testing v7_Sketch1
100
AcDbCircle
 10
-43.25448253355062
 20
-12.71016561229244
 30
0.0
 40
0.5
210
0.0
220
1.0
230
0.0
100
AcDbArc
 50
179.9999999999994
 51
359.9999999999994
  0
LINE
  5
169
330
70
100
AcDbEntity
  8
Shelf Testing v7_Sketch1
100
AcDbLine
 10
42.75448253353393
 20
0.0
 30
3.819694450152975
 11
42.75448253353394
 21
0.0
 31
5.289694450152975
  0
ARC
  5
16A
330
70
100
AcDbEntity
  8
Shelf Testing v7_Sketch1
100
AcDbCircle
 10
-46.24448253048746
 20
-12.71016561229241
 30
0.0
 40
0.4999999999999645
210
0.0
220
1.0
230
0.0
100
AcDbArc
 50
180.0000000000004
 51
0.0000000000004071
  0
LINE
  5
16B
330
70
100
AcDbEntity
  8
Shelf Testing v7_Sketch1
100
AcDbLine
 10
45.74448252825822
 20
0.0
 30
3.819694450152999
 11
43.75448253353394
 21
0.0
 31
3.81969445015298
  0
LINE
  5
16C
330
70
100
AcDbEntity
  8
Shelf Testing v7_Sketch1
100
AcDbLine
 10
43.75448252795059
 20
0.0
 30
-11.24006032687124
 11
45.7444825330947
 21
0.0
 31
-11.24006032687133
  0
LINE
  5
16D
330
70
100
AcDbEntity
  8
Shelf Testing v7_Sketch1
100
AcDbLine
 10
46.74448252825817
 20
0.0
 30
5.289899634695964
 11
46.74448252825817
 21
0.0
 31
3.819694450153003
  0
ENDSEC
  0
SECTION
  2
OBJECTS
  0
DICTIONARY
  5
C
330
0
100
AcDbDictionary
281
     1
  3
ACAD_COLOR
350
63
  3
ACAD_DETAILVIEWSTYLE
350
6A
  3
ACAD_GROUP
350
D
  3
ACAD_LAYOUT
350
62
  3
ACAD_MATERIAL
350
10
  3
ACAD_MLEADERSTYLE
350
66
  3
ACAD_MLINESTYLE
350
5F
  3
ACAD_PLOTSETTINGS
350
61
  3
ACAD_PLOTSTYLENAME
350
E
  3
ACAD_SCALELIST
350
42
  3
ACAD_SECTIONVIEWSTYLE
350
68
  3
ACAD_TABLESTYLE
350
64
  3
ACAD_VISUALSTYLE
350
29
  3
ACDB_RECOMPOSE_DATA
350
176
  3
AcDbVariableDictionary
350
16E
  0
DICTIONARY
  5
63
102
{ACAD_REACTORS
330
C
102
}
330
C
100
AcDbDictionary
281
     1
  0
DICTIONARY
  5
6A
102
{ACAD_REACTORS
330
C
102
}
330
C
100
AcDbDictionary
281
     1
  3
Imperial24
350
6B
  0
DICTIONARY
  5
D
102
{ACAD_REACTORS
330
C
102
}
330
C
100
AcDbDictionary
281
     1
  0
DICTIONARY
  5
62
102
{ACAD_REACTORS
330
C
102
}
330
C
100
AcDbDictionary
281
     1
  3
Layout1
350
6F
  3
Layout2
350
77
  3
Model
350
73
  0
DICTIONARY
  5
10
102
{ACAD_REACTORS
330
C
102
}
330
C
100
AcDbDictionary
281
     1
  3
ByBlock
350
19
  3
ByLayer
350
11
  3
Global
350
21
  0
DICTIONARY
  5
66
102
{ACAD_REACTORS
330
C
102
}
330
C
100
AcDbDictionary
281
     1
  3
Standard
350
67
  0
DICTIONARY
  5
5F
102
{ACAD_REACTORS
330
C
102
}
330
C
100
AcDbDictionary
281
     1
  3
Standard
350
60
  0
DICTIONARY
  5
61
102
{ACAD_REACTORS
330
C
102
}
330
C
100
AcDbDictionary
281
     1
  0
ACDBDICTIONARYWDFLT
  5
E
102
{ACAD_REACTORS
330
C
102
}
330
C
100
AcDbDictionary
281
     1
  3
Normal
350
F
100
AcDbDictionaryWithDefault
340
F
  0
DICTIONARY
  5
42
102
{ACAD_REACTORS
330
C
102
}
330
C
100
AcDbDictionary
281
     1
  3
A0
350
43
  3
A1
350
44
  3
A2
350
45
  3
A3
350
46
  3
A4
350
47
  3
A5
350
48
  3
A6
350
49
  3
A7
350
4A
  3
A8
350
4B
  3
A9
350
4C
  3
B0
350
4D
  3
B1
350
4E
  3
B2
350
4F
  3
B3
350
50
  3
B4
350
51
  3
B5
350
52
  3
B6
350
53
  0
DICTIONARY
  5
68
102
{ACAD_REACTORS
330
C
102
}
330
C
100
AcDbDictionary
281
     1
  3
Imperial24
350
69
  0
DICTIONARY
  5
64
102
{ACAD_REACTORS
330
C
102
}
330
C
100
AcDbDictionary
281
     1
  3
Standard
350
65
  0
DICTIONARY
  5
29
102
{ACAD_REACTORS
330
C
102
}
330
C
100
AcDbDictionary
281
     1
  3
2dWireframe
350
2F
  3
Basic
350
2E
  3
Brighten
350
35
  3
ColorChange
350
39
  3
Conceptual
350
32
  3
Dim
350
34
  3
EdgeColorOff
350
41
  3
Facepattern
350
38
  3
Flat
350
2A
  3
FlatWithEdges
350
2B
  3
Gouraud
350
2C
  3
GouraudWithEdges
350
2D
  3
Hidden
350
31
  3
JitterOff
350
3F
  3
Linepattern
350
37
  3
OverhangOff
350
40
  3
Realistic
350
33
  3
Shaded
350
3E
  3
Shaded with edges
350
3D
  3
Shades of Gray
350
3A
  3
Sketchy
350
3B
  3
Thicken
350
36
  3
Wireframe
350
30
  3
X-Ray
350
3C
  0
XRECORD
  5
176
102
{ACAD_REACTORS
330
C
102
}
330
C
100
AcDbXrecord
280
     1
 90
        1
330
65
  0
DICTIONARY
  5
16E
102
{ACAD_REACTORS
330
C
102
}
330
C
100
AcDbDictionary
281
     1
  3
CANNOSCALE
350
173
  3
CMLEADERSTYLE
350
170
  3
CTABLESTYLE
350
16F
  3
CVIEWDETAILSTYLE
350
171
  3
CVIEWSECTIONSTYLE
350
172
  0
ACDBDETAILVIEWSTYLE
  5
6B
102
{ACAD_XDICTIONARY
360
179
102
}
102
{ACAD_REACTORS
330
6A
102
}
330
6A
100
AcDbModelDocViewStyle
 70
     0
  3
Imperial24
290
     0
100
AcDbDetailViewStyle
 70
     0
 71
     0
 90
        3
 71
     1
340
55
 62
   256
 40
0.24
340
0
 62
   256
 40
0.24
300

 40
0.36
280
     3
 71
     2
340
5D
 90
       25
 62
   256
 71
     3
340
55
 62
   256
 40
0.24
 90
        1
 40
0.75
 90
        1
300
%<\AcVar ViewType \f "%tc1">% %<\AcVar ViewDetailId>%\PSCALE %<\AcVar ViewScale \f "%sn">%
 71
     4
340
5D
 90
       25
 62
   256
340
5D
 90
       25
 62
   256
280
     0
  0
LAYOUT
  5
6F
102
{ACAD_REACTORS
330
62
102
}
330
62
100
AcDbPlotSettings
  1

  2

  4

  6

 40
0.0
 41
0.0
 42
0.0
 43
0.0
 44
0.0
 45
0.0
 46
0.0
 47
0.0
 48
0.0
 49
0.0
140
0.0
141
0.0
142
1.0
143
1.0
 70
   688
 72
     0
 73
     0
 74
     5
  7

 75
    16
147
1.0
 76
     0
 77
     2
 78
   300
148
0.0
149
0.0
100
AcDbLayout
  1
Layout1
 70
     1
 71
     1
 10
0.0
 20
0.0
 11
12.0
 21
9.0
 12
0.0
 22
0.0
 32
0.0
 14
0.0
 24
0.0
 34
0.0
 15
0.0
 25
0.0
 35
0.0
146
0.0
 13
0.0
 23
0.0
 33
0.0
 16
1.0
 26
0.0
 36
0.0
 17
0.0
 27
1.0
 37
0.0
 76
     0
330
6C
  0
LAYOUT
  5
77
102
{ACAD_REACTORS
330
62
102
}
330
62
100
AcDbPlotSettings
  1

  2

  4

  6

 40
0.0
 41
0.0
 42
0.0
 43
0.0
 44
0.0
 45
0.0
 46
0.0
 47
0.0
 48
0.0
 49
0.0
140
0.0
141
0.0
142
1.0
143
1.0
 70
   688
 72
     0
 73
     0
 74
     5
  7

 75
    16
147
1.0
 76
     0
 77
     2
 78
   300
148
0.0
149
0.0
100
AcDbLayout
  1
Layout2
 70
     1
 71
     2
 10
0.0
 20
0.0
 11
12.0
 21
9.0
 12
0.0
 22
0.0
 32
0.0
 14
0.0
 24
0.0
 34
0.0
 15
0.0
 25
0.0
 35
0.0
146
0.0
 13
0.0
 23
0.0
 33
0.0
 16
1.0
 26
0.0
 36
0.0
 17
0.0
 27
1.0
 37
0.0
 76
     0
330
74
  0
LAYOUT
  5
73
102
{ACAD_REACTORS
330
62
102
}
330
62
100
AcDbPlotSettings
  1

  2

  4

  6

 40
0.0
 41
0.0
 42
0.0
 43
0.0
 44
0.0
 45
0.0
 46
0.0
 47
0.0
 48
0.0
 49
0.0
140
0.0
141
0.0
142
1.0
143
1.0
 70
  1712
 72
     0
 73
     0
 74
     0
  7

 75
     0
147
1.0
 76
     0
 77
     2
 78
   300
148
0.0
149
0.0
100
AcDbLayout
  1
Model
 70
     1
 71
     0
 10
0.0
 20
0.0
 11
12.0
 21
9.0
 12
0.0
 22
0.0
 32
0.0
 14
0.0
 24
0.0
 34
0.0
 15
0.0
 25
0.0
 35
0.0
146
0.0
 13
0.0
 23
0.0
 33
0.0
 16
1.0
 26
0.0
 36
0.0
 17
0.0
 27
1.0
 37
0.0
 76
     0
330
70
  0
MATERIAL
  5
19
102
{ACAD_XDICTIONARY
360
1A
102
}
102
{ACAD_REACTORS
330
10
102
}
330
10
100
AcDbMaterial
  1
ByBlock
 72
     0
 43
0.0208333333333333
 43
0.0
 43
0.0
 43
0.0
 43
0.0
 43
0.0208333333333333
 43
0.0
 43
0.0
 43
0.0
 43
0.0
 43
1.0
 43
0.0
 43
0.0
 43
0.0
 43
0.0
 43
1.0
 77
     0
 47
0.0208333333333333
 47
0.0
 47
0.0
 47
0.0
 47
0.0
 47
0.0208333333333333
 47
0.0
 47
0.0
 47
0.0
 47
0.0
 47
1.0
 47
0.0
 47
0.0
 47
0.0
 47
0.0
 47
1.0
171
     0
 49
0.0208333333333333
 49
0.0
 49
0.0
 49
0.0
 49
0.0
 49
0.0208333333333333
 49
0.0
 49
0.0
 49
0.0
 49
0.0
 49
1.0
 49
0.0
 49
0.0
 49
0.0
 49
0.0
 49
1.0
175
     0
142
0.0208333333333333
142
0.0
142
0.0
142
0.0
142
0.0
142
0.0208333333333333
142
0.0
142
0.0
142
0.0
142
0.0
142
1.0
142
0.0
142
0.0
142
0.0
142
0.0
142
1.0
179
     0
144
0.0208333333333333
144
0.0
144
0.0
144
0.0
144
0.0
144
0.0208333333333333
144
0.0
144
0.0
144
0.0
144
0.0
144
1.0
144
0.0
144
0.0
144
0.0
144
0.0
144
1.0
147
0.0208333333333333
147
0.0
147
0.0
147
0.0
147
0.0
147
0.0208333333333333
147
0.0
147
0.0
147
0.0
147
0.0
147
1.0
147
0.0
147
0.0
147
0.0
147
0.0
147
1.0
  0
MATERIAL
  5
11
102
{ACAD_XDICTIONARY
360
12
102
}
102
{ACAD_REACTORS
330
10
102
}
330
10
100
AcDbMaterial
  1
ByLayer
 72
     0
 43
0.0208333333333333
 43
0.0
 43
0.0
 43
0.0
 43
0.0
 43
0.0208333333333333
 43
0.0
 43
0.0
 43
0.0
 43
0.0
 43
1.0
 43
0.0
 43
0.0
 43
0.0
 43
0.0
 43
1.0
 77
     0
 47
0.0208333333333333
 47
0.0
 47
0.0
 47
0.0
 47
0.0
 47
0.0208333333333333
 47
0.0
 47
0.0
 47
0.0
 47
0.0
 47
1.0
 47
0.0
 47
0.0
 47
0.0
 47
0.0
 47
1.0
171
     0
 49
0.0208333333333333
 49
0.0
 49
0.0
 49
0.0
 49
0.0
 49
0.0208333333333333
 49
0.0
 49
0.0
 49
0.0
 49
0.0
 49
1.0
 49
0.0
 49
0.0
 49
0.0
 49
0.0
 49
1.0
175
     0
142
0.0208333333333333
142
0.0
142
0.0
142
0.0
142
0.0
142
0.0208333333333333
142
0.0
142
0.0
142
0.0
142
0.0
142
1.0
142
0.0
142
0.0
142
0.0
142
0.0
142
1.0
179
     0
144
0.0208333333333333
144
0.0
144
0.0
144
0.0
144
0.0
144
0.0208333333333333
144
0.0
144
0.0
144
0.0
144
0.0
144
1.0
144
0.0
144
0.0
144
0.0
144
0.0
144
1.0
147
0.0208333333333333
147
0.0
147
0.0
147
0.0
147
0.0
147
0.0208333333333333
147
0.0
147
0.0
147
0.0
147
0.0
147
1.0
147
0.0
147
0.0
147
0.0
147
0.0
147
1.0
  0
MATERIAL
  5
21
102
{ACAD_XDICTIONARY
360
22
102
}
102
{ACAD_REACTORS
330
10
102
}
330
10
100
AcDbMaterial
  1
Global
 72
     0
 43
0.0208333333333333
 43
0.0
 43
0.0
 43
0.0
 43
0.0
 43
0.0208333333333333
 43
0.0
 43
0.0
 43
0.0
 43
0.0
 43
1.0
 43
0.0
 43
0.0
 43
0.0
 43
0.0
 43
1.0
 77
     0
 47
0.0208333333333333
 47
0.0
 47
0.0
 47
0.0
 47
0.0
 47
0.0208333333333333
 47
0.0
 47
0.0
 47
0.0
 47
0.0
 47
1.0
 47
0.0
 47
0.0
 47
0.0
 47
0.0
 47
1.0
171
     0
 49
0.0208333333333333
 49
0.0
 49
0.0
 49
0.0
 49
0.0
 49
0.0208333333333333
 49
0.0
 49
0.0
 49
0.0
 49
0.0
 49
1.0
 49
0.0
 49
0.0
 49
0.0
 49
0.0
 49
1.0
175
     0
142
0.0208333333333333
142
0.0
142
0.0
142
0.0
142
0.0
142
0.0208333333333333
142
0.0
142
0.0
142
0.0
142
0.0
142
1.0
142
0.0
142
0.0
142
0.0
142
0.0
142
1.0
179
     0
144
0.0208333333333333
144
0.0
144
0.0
144
0.0
144
0.0
144
0.0208333333333333
144
0.0
144
0.0
144
0.0
144
0.0
144
1.0
144
0.0
144
0.0
144
0.0
144
0.0
144
1.0
147
0.0208333333333333
147
0.0
147
0.0
147
0.0
147
0.0
147
0.0208333333333333
147
0.0
147
0.0
147
0.0
147
0.0
147
1.0
147
0.0
147
0.0
147
0.0
147
0.0
147
1.0
  0
MLEADERSTYLE
  5
67
102
{ACAD_REACTORS
330
66
102
}
330
66
100
AcDbMLeaderStyle
179
     2
170
     2
171
     1
172
     0
 90
        2
 40
0.0
 41
0.0
173
     1
 91
-1056964608
340
5B
 92
       -2
290
     1
 42
0.09
291
     1
 43
0.36
  3
Standard
 44
0.18
300

342
55
174
     1
178
     6
175
     1
176
     0
 93
-1056964608
 45
0.18
292
     0
297
     0
 46
0.18
 94
-1056964608
 47
1.0
 49
1.0
140
1.0
293
     1
141
0.0
294
     1
177
     0
142
1.0
295
     0
296
     0
143
0.125
271
     0
272
     9
273
     9
298
     1
  0
MLINESTYLE
  5
60
102
{ACAD_REACTORS
330
5F
102
}
330
5F
100
AcDbMlineStyle
  2
STANDARD
 70
     0
  3

 62
   256
 51
90.0
 52
90.0
 71
     2
 49
0.5
 62
   256
  6
BYLAYER
 49
-0.5
 62
   256
  6
BYLAYER
  0
ACDBPLACEHOLDER
  5
F
102
{ACAD_REACTORS
330
E
102
}
330
E
  0
SCALE
  5
43
102
{ACAD_REACTORS
330
42
102
}
330
42
100
AcDbScale
 70
     0
300
1:1
140
1.0
141
1.0
290
     1
  0
SCALE
  5
44
102
{ACAD_REACTORS
330
42
102
}
330
42
100
AcDbScale
 70
     0
300
1/128" = 1'-0"
140
0.0078125
141
12.0
290
     0
  0
SCALE
  5
45
102
{ACAD_REACTORS
330
42
102
}
330
42
100
AcDbScale
 70
     0
300
1/64" = 1'-0"
140
0.015625
141
12.0
290
     0
  0
SCALE
  5
46
102
{ACAD_REACTORS
330
42
102
}
330
42
100
AcDbScale
 70
     0
300
1/32" = 1'-0"
140
0.03125
141
12.0
290
     0
  0
SCALE
  5
47
102
{ACAD_REACTORS
330
42
102
}
330
42
100
AcDbScale
 70
     0
300
1/16" = 1'-0"
140
0.0625
141
12.0
290
     0
  0
SCALE
  5
48
102
{ACAD_REACTORS
330
42
102
}
330
42
100
AcDbScale
 70
     0
300
3/32" = 1'-0"
140
0.09375
141
12.0
290
     0
  0
SCALE
  5
49
102
{ACAD_REACTORS
330
42
102
}
330
42
100
AcDbScale
 70
     0
300
1/8" = 1'-0"
140
0.125
141
12.0
290
     0
  0
SCALE
  5
4A
102
{ACAD_REACTORS
330
42
102
}
330
42
100
AcDbScale
 70
     0
300
3/16" = 1'-0"
140
0.1875
141
12.0
290
     0
  0
SCALE
  5
4B
102
{ACAD_REACTORS
330
42
102
}
330
42
100
AcDbScale
 70
     0
300
1/4" = 1'-0"
140
0.25
141
12.0
290
     0
  0
SCALE
  5
4C
102
{ACAD_REACTORS
330
42
102
}
330
42
100
AcDbScale
 70
     0
300
3/8" = 1'-0"
140
0.375
141
12.0
290
     0
  0
SCALE
  5
4D
102
{ACAD_REACTORS
330
42
102
}
330
42
100
AcDbScale
 70
     0
300
1/2" = 1'-0"
140
0.5
141
12.0
290
     0
  0
SCALE
  5
4E
102
{ACAD_REACTORS
330
42
102
}
330
42
100
AcDbScale
 70
     0
300
3/4" = 1'-0"
140
0.75
141
12.0
290
     0
  0
SCALE
  5
4F
102
{ACAD_REACTORS
330
42
102
}
330
42
100
AcDbScale
 70
     0
300
1" = 1'-0"
140
1.0
141
12.0
290
     0
  0
SCALE
  5
50
102
{ACAD_REACTORS
330
42
102
}
330
42
100
AcDbScale
 70
     0
300
1-1/2" = 1'-0"
140
1.5
141
12.0
290
     0
  0
SCALE
  5
51
102
{ACAD_REACTORS
330
42
102
}
330
42
100
AcDbScale
 70
     0
300
3" = 1'-0"
140
3.0
141
12.0
290
     0
  0
SCALE
  5
52
102
{ACAD_REACTORS
330
42
102
}
330
42
100
AcDbScale
 70
     0
300
6" = 1'-0"
140
6.0
141
12.0
290
     0
  0
SCALE
  5
53
102
{ACAD_REACTORS
330
42
102
}
330
42
100
AcDbScale
 70
     0
300
1'-0" = 1'-0"
140
12.0
141
12.0
290
     0
  0
ACDBSECTIONVIEWSTYLE
  5
69
102
{ACAD_XDICTIONARY
360
177
102
}
102
{ACAD_REACTORS
330
68
102
}
330
68
100
AcDbModelDocViewStyle
 70
     0
  3
Imperial24
290
     0
100
AcDbSectionViewStyle
 70
     0
 71
     0
 90
       78
 71
     1
340
55
 62
   256
 40
0.24
340
0
340
0
 62
   256
 40
0.24
300
I, O, Q, S, X, Z
 40
0.48
 90
        3
 40
0.18
 90
        1
 71
     2
340
5D
 90
       25
 62
   256
340
5D
 90
       50
 62
   256
 40
0.24
 40
0.0
 40
0.24
 71
     3
340
55
 62
   256
 40
0.24
 90
        1
 40
0.75
 90
        1
300
%<\AcVar ViewType \f "%tc1">% %<\AcVar ViewSectionStartId>%-%<\AcVar ViewSectionEndId>%\PSCALE %<\AcVar ViewScale \f "%sn">%
 71
     4
 62
   256
 62
   257
300
ANSI31
 40
1.0
 90
        0
290
     0
290
     0
 90
        6
 40
0.0
 40
1.570796326794896
 40
0.2617993877991494
 40
1.308996938995747
 40
-0.2617993877991494
 40
1.832595714594046
  0
TABLESTYLE
  5
65
102
{ACAD_XDICTIONARY
360
174
102
}
102
{ACAD_REACTORS
330
64
102
}
330
64
100
AcDbTableStyle
280
     0
  3
Standard
 70
     0
 71
     0
 40
0.06
 41
0.06
280
     0
281
     0
  7
Standard
140
0.18
170
     2
 62
     0
 63
     7
283
     0
 90
      512
 91
        0
  1

274
    -2
284
     1
 64
     0
275
    -2
285
     1
 65
     0
276
    -2
286
     1
 66
     0
277
    -2
287
     1
 67
     0
278
    -2
288
     1
 68
     0
279
    -2
289
     1
 69
     0
  7
Standard
140
0.25
170
     5
 62
     0
 63
     7
283
     0
 90
      512
 91
        0
  1

274
    -2
284
     1
 64
     0
275
    -2
285
     1
 65
     0
276
    -2
286
     1
 66
     0
277
    -2
287
     1
 67
     0
278
    -2
288
     1
 68
     0
279
    -2
289
     1
 69
     0
  7
Standard
140
0.18
170
     5
 62
     0
 63
     7
283
     0
 90
      512
 91
        0
  1

274
    -2
284
     1
 64
     0
275
    -2
285
     1
 65
     0
276
    -2
286
     1
 66
     0
277
    -2
287
     1
 67
     0
278
    -2
288
     1
 68
     0
279
    -2
289
     1
 69
     0
  0
VISUALSTYLE
  5
2F
102
{ACAD_REACTORS
330
29
102
}
330
29
100
AcDbVisualStyle
  2
2dWireframe
 70
     4
177
     3
291
     0
 70
    58
 90
        0
176
     1
 90
        2
176
     1
 90
        0
176
     1
 90
        0
176
     1
 40
0.6
176
     1
 40
30.0
176
     1
 62
     7
420
 16777215
176
     1
 90
        1
176
     1
 90
        4
176
     1
 62
     7
176
     1
 62
   257
176
     1
 90
        1
176
     1
 90
        1
176
     1
 40
1.0
176
     1
 90
        0
176
     1
 62
   257
176
     1
 40
1.0
176
     1
 90
        1
176
     1
 90
        6
176
     1
 90
        2
176
     1
 62
     7
176
     1
 90
        5
176
     1
 90
        0
176
     1
 90
        0
176
     1
290
     0
176
     1
 90
        1
176
     1
 40
0.0
176
     1
 90
        0
176
     1
290
     1
176
     1
290
     1
176
     1
290
     0
176
     1
290
     0
176
     1
290
     0
176
     1
290
     0
176
     1
290
     0
176
     1
290
     0
176
     1
290
     0
176
     1
 90
       50
176
     1
 40
0.0
176
     1
 40
1.0
176
     1
 90
        0
176
     1
 62
    18
420
        0
176
     1
 90
       50
176
     1
 90
        3
176
     1
 62
     5
420
      255
176
     1
290
     0
176
     1
 90
       50
176
     1
 90
       50
176
     1
 90
       50
176
     1
290
     0
176
     1
 90
       50
176
     1
 62
   256
176
     0
 40
1.0
176
     0
 90
        2
176
     1
  1
strokes_ogs.tif
176
     1
290
     0
176
     1
 40
1.0
176
     1
 40
1.0
176
     1
1001
ACAD
1000
AcDbSavedByObjectVersion
1070
     0
  0
VISUALSTYLE
  5
2E
102
{ACAD_REACTORS
330
29
102
}
330
29
100
AcDbVisualStyle
  2
Basic
 70
     7
177
     3
291
     1
 70
    58
 90
        1
176
     1
 90
        0
176
     1
 90
        1
176
     1
 90
        0
176
     1
 40
0.6
176
     1
 40
30.0
176
     1
 62
     7
420
 16777215
176
     1
 90
        0
176
     1
 90
        4
176
     1
 62
     7
176
     1
 62
   257
176
     1
 90
        1
176
     1
 90
        1
176
     1
 40
1.0
176
     1
 90
        8
176
     1
 62
     7
176
     1
 40
1.0
176
     1
 90
        1
176
     1
 90
        6
176
     1
 90
        2
176
     1
 62
     7
176
     1
 90
        5
176
     1
 90
        0
176
     1
 90
        0
176
     1
290
     0
176
     1
 90
        1
176
     1
 40
0.0
176
     1
 90
        0
176
     1
290
     0
176
     1
290
     1
176
     1
290
     1
176
     1
290
     0
176
     1
290
     0
176
     1
290
     0
176
     1
290
     0
176
     1
290
     0
176
     1
290
     0
176
     1
 90
       50
176
     1
 40
0.0
176
     1
 40
1.0
176
     1
 90
        0
176
     1
 62
    18
420
        0
176
     1
 90
       50
176
     1
 90
        3
176
     1
 62
     5
420
      255
176
     1
290
     0
176
     1
 90
       50
176
     1
 90
       50
176
     1
 90
       50
176
     1
290
     0
176
     1
 90
       50
176
     1
 62
   256
176
     0
 40
1.0
176
     0
 90
        2
176
     1
  1
strokes_ogs.tif
176
     1
290
     0
176
     1
 40
1.0
176
     1
 40
1.0
176
     1
1001
ACAD
1000
AcDbSavedByObjectVersion
1070
     0
  0
VISUALSTYLE
  5
35
102
{ACAD_REACTORS
330
29
102
}
330
29
100
AcDbVisualStyle
  2
Brighten
 70
    12
177
     3
291
     1
 70
    58
 90
        2
176
     1
 90
        2
176
     1
 90
        0
176
     1
 90
        0
176
     1
 40
0.6
176
     1
 40
30.0
176
     1
 62
     7
420
 16777215
176
     1
 90
        1
176
     1
 90
        4
176
     1
 62
     7
176
     1
 62
   257
176
     1
 90
        1
176
     1
 90
        1
176
     1
 40
1.0
176
     1
 90
        8
176
     1
 62
     7
176
     1
 40
1.0
176
     1
 90
        1
176
     1
 90
        6
176
     1
 90
        2
176
     1
 62
     7
176
     1
 90
        5
176
     1
 90
        0
176
     1
 90
        0
176
     1
290
     0
176
     1
 90
        1
176
     1
 40
50.0
176
     1
 90
        0
176
     1
290
     0
176
     1
290
     1
176
     1
290
     1
176
     1
290
     0
176
     1
290
     0
176
     1
290
     0
176
     1
290
     0
176
     1
290
     0
176
     1
290
     0
176
     1
 90
       50
176
     1
 40
0.0
176
     1
 40
1.0
176
     1
 90
        0
176
     1
 62
    18
420
        0
176
     1
 90
       50
176
     1
 90
        3
176
     1
 62
     5
420
      255
176
     1
290
     0
176
     1
 90
       50
176
     1
 90
       50
176
     1
 90
       50
176
     1
290
     0
176
     1
 90
       50
176
     1
 62
   256
176
     0
 40
1.0
176
     0
 90
        2
176
     1
  1
strokes_ogs.tif
176
     1
290
     0
176
     1
 40
1.0
176
     1
 40
1.0
176
     1
1001
ACAD
1000
AcDbSavedByObjectVersion
1070
     0
  0
VISUALSTYLE
  5
39
102
{ACAD_REACTORS
330
29
102
}
330
29
100
AcDbVisualStyle
  2
ColorChange
 70
    16
177
     3
291
     1
 70
    58
 90
        2
176
     1
 90
        2
176
     1
 90
        3
176
     1
 90
        0
176
     1
 40
0.6
176
     1
 40
30.0
176
     1
 62
     8
420
  8421504
176
     1
 90
        1
176
     1
 90
        4
176
     1
 62
     7
176
     1
 62
   257
176
     1
 90
        1
176
     1
 90
        1
176
     1
 40
1.0
176
     1
 90
        8
176
     1
 62
     8
420
  8421504
176
     1
 40
1.0
176
     1
 90
        1
176
     1
 90
        6
176
     1
 90
        2
176
     1
 62
     7
176
     1
 90
        5
176
     1
 90
        0
176
     1
 90
        0
176
     1
290
     0
176
     1
 90
        1
176
     1
 40
0.0
176
     1
 90
        0
176
     1
290
     0
176
     1
290
     1
176
     1
290
     1
176
     1
290
     0
176
     1
290
     0
176
     1
290
     0
176
     1
290
     0
176
     1
290
     0
176
     1
290
     0
176
     1
 90
       50
176
     1
 40
0.0
176
     1
 40
1.0
176
     1
 90
        0
176
     1
 62
    18
420
        0
176
     1
 90
       50
176
     1
 90
        3
176
     1
 62
     5
420
      255
176
     1
290
     0
176
     1
 90
       50
176
     1
 90
       50
176
     1
 90
       50
176
     1
290
     0
176
     1
 90
       50
176
     1
 62
   256
176
     0
 40
1.0
176
     0
 90
        2
176
     1
  1
strokes_ogs.tif
176
     1
290
     0
176
     1
 40
1.0
176
     1
 40
1.0
176
     1
1001
ACAD
1000
AcDbSavedByObjectVersion
1070
     0
  0
VISUALSTYLE
  5
32
102
{ACAD_REACTORS
330
29
102
}
330
29
100
AcDbVisualStyle
  2
Conceptual
 70
     9
177
     3
291
     0
 70
    58
 90
        3
176
     1
 90
        2
176
     1
 90
        0
176
     1
 90
        0
176
     1
 40
0.6
176
     1
 40
30.0
176
     1
 62
     7
420
 16777215
176
     1
 90
        2
176
     1
 90
        2
176
     1
 62
     7
176
     1
 62
   257
176
     1
 90
        1
176
     1
 90
        1
176
     1
 40
179.0
176
     1
 90
        8
176
     1
 62
     7
176
     1
 40
1.0
176
     1
 90
        1
176
     1
 90
        6
176
     1
 90
        2
176
     1
 62
     7
176
     1
 90
        3
176
     1
 90
        0
176
     1
 90
        0
176
     1
290
     0
176
     1
 90
        1
176
     1
 40
0.0
176
     1
 90
        0
176
     1
290
     0
176
     1
290
     1
176
     1
290
     1
176
     1
290
     0
176
     1
290
     0
176
     1
290
     0
176
     1
290
     0
176
     1
290
     0
176
     1
290
     0
176
     1
 90
       50
176
     1
 40
0.0
176
     1
 40
1.0
176
     1
 90
        0
176
     1
 62
    18
420
        0
176
     1
 90
       50
176
     1
 90
        3
176
     1
 62
     5
420
      255
176
     1
290
     0
176
     1
 90
       50
176
     1
 90
       50
176
     1
 90
       50
176
     1
290
     0
176
     1
 90
       50
176
     1
 62
   256
176
     0
 40
1.0
176
     0
 90
        2
176
     1
  1
strokes_ogs.tif
176
     1
290
     0
176
     1
 40
1.0
176
     1
 40
1.0
176
     1
1001
ACAD
1000
AcDbSavedByObjectVersion
1070
     0
  0
VISUALSTYLE
  5
34
102
{ACAD_REACTORS
330
29
102
}
330
29
100
AcDbVisualStyle
  2
Dim
 70
    11
177
     3
291
     1
 70
    58
 90
        2
176
     1
 90
        2
176
     1
 90
        0
176
     1
 90
        0
176
     1
 40
0.6
176
     1
 40
30.0
176
     1
 62
     7
420
 16777215
176
     1
 90
        1
176
     1
 90
        4
176
     1
 62
     7
176
     1
 62
   257
176
     1
 90
        1
176
     1
 90
        1
176
     1
 40
1.0
176
     1
 90
        8
176
     1
 62
     7
176
     1
 40
1.0
176
     1
 90
        1
176
     1
 90
        6
176
     1
 90
        2
176
     1
 62
     7
176
     1
 90
        5
176
     1
 90
        0
176
     1
 90
        0
176
     1
290
     0
176
     1
 90
        1
176
     1
 40
-50.0
176
     1
 90
        0
176
     1
290
     0
176
     1
290
     1
176
     1
290
     1
176
     1
290
     0
176
     1
290
     0
176
     1
290
     0
176
     1
290
     0
176
     1
290
     0
176
     1
290
     0
176
     1
 90
       50
176
     1
 40
0.0
176
     1
 40
1.0
176
     1
 90
        0
176
     1
 62
    18
420
        0
176
     1
 90
       50
176
     1
 90
        3
176
     1
 62
     5
420
      255
176
     1
290
     0
176
     1
 90
       50
176
     1
 90
       50
176
     1
 90
       50
176
     1
290
     0
176
     1
 90
       50
176
     1
 62
   256
176
     0
 40
1.0
176
     0
 90
        2
176
     1
  1
strokes_ogs.tif
176
     1
290
     0
176
     1
 40
1.0
176
     1
 40
1.0
176
     1
1001
ACAD
1000
AcDbSavedByObjectVersion
1070
     0
  0
VISUALSTYLE
  5
41
102
{ACAD_REACTORS
330
29
102
}
330
29
100
AcDbVisualStyle
  2
EdgeColorOff
 70
    22
177
     3
291
     1
 70
    58
 90
        2
176
     0
 90
        2
176
     0
 90
        0
176
     0
 90
        0
176
     0
 40
0.6
176
     0
 40
30.0
176
     0
 62
     7
420
 16777215
176
     0
 90
        1
176
     0
 90
        4
176
     0
 62
     7
176
     0
 62
   257
176
     0
 90
        1
176
     0
 90
        1
176
     0
 40
1.0
176
     0
 90
        8
176
     2
 62
     7
176
     0
 40
1.0
176
     0
 90
        1
176
     0
 90
        6
176
     0
 90
        2
176
     0
 62
     7
176
     0
 90
        5
176
     0
 90
        0
176
     0
 90
        0
176
     0
290
     0
176
     0
 90
        1
176
     0
 40
0.0
176
     0
 90
        0
176
     0
290
     0
176
     0
290
     1
176
     0
290
     1
176
     0
290
     0
176
     0
290
     0
176
     0
290
     0
176
     0
290
     0
176
     0
290
     0
176
     0
290
     0
176
     0
 90
       50
176
     0
 40
0.0
176
     0
 40
1.0
176
     0
 90
        0
176
     0
 62
    18
420
        0
176
     0
 90
       50
176
     0
 90
        3
176
     0
 62
     5
420
      255
176
     0
290
     0
176
     0
 90
       50
176
     0
 90
       50
176
     0
 90
       50
176
     0
290
     0
176
     0
 90
       50
176
     0
 62
   256
176
     0
 40
1.0
176
     0
 90
        2
176
     0
  1
strokes_ogs.tif
176
     0
290
     0
176
     0
 40
1.0
176
     0
 40
1.0
176
     0
1001
ACAD
1000
AcDbSavedByObjectVersion
1070
     0
  0
VISUALSTYLE
  5
38
102
{ACAD_REACTORS
330
29
102
}
330
29
100
AcDbVisualStyle
  2
Facepattern
 70
    15
177
     3
291
     1
 70
    58
 90
        2
176
     1
 90
        2
176
     1
 90
        0
176
     1
 90
        0
176
     1
 40
0.6
176
     1
 40
30.0
176
     1
 62
     7
420
 16777215
176
     1
 90
        1
176
     1
 90
        4
176
     1
 62
     7
176
     1
 62
   257
176
     1
 90
        1
176
     1
 90
        1
176
     1
 40
1.0
176
     1
 90
        8
176
     1
 62
     7
176
     1
 40
1.0
176
     1
 90
        1
176
     1
 90
        6
176
     1
 90
        2
176
     1
 62
     7
176
     1
 90
        5
176
     1
 90
        0
176
     1
 90
        0
176
     1
290
     0
176
     1
 90
        1
176
     1
 40
0.0
176
     1
 90
        0
176
     1
290
     0
176
     1
290
     1
176
     1
290
     1
176
     1
290
     0
176
     1
290
     0
176
     1
290
     0
176
     1
290
     0
176
     1
290
     0
176
     1
290
     0
176
     1
 90
       50
176
     1
 40
0.0
176
     1
 40
1.0
176
     1
 90
        0
176
     1
 62
    18
420
        0
176
     1
 90
       50
176
     1
 90
        3
176
     1
 62
     5
420
      255
176
     1
290
     0
176
     1
 90
       50
176
     1
 90
       50
176
     1
 90
       50
176
     1
290
     0
176
     1
 90
       50
176
     1
 62
   256
176
     0
 40
1.0
176
     0
 90
        2
176
     1
  1
strokes_ogs.tif
176
     1
290
     0
176
     1
 40
1.0
176
     1
 40
1.0
176
     1
1001
ACAD
1000
AcDbSavedByObjectVersion
1070
     0
  0
VISUALSTYLE
  5
2A
102
{ACAD_REACTORS
330
29
102
}
330
29
100
AcDbVisualStyle
  2
Flat
 70
     0
177
     3
291
     1
 70
    58
 90
        2
176
     1
 90
        1
176
     1
 90
        1
176
     1
 90
        2
176
     1
 40
0.6
176
     1
 40
30.0
176
     1
 62
     7
420
 16777215
176
     1
 90
        0
176
     1
 90
        0
176
     1
 62
     7
176
     1
 62
   257
176
     1
 90
        1
176
     1
 90
        1
176
     1
 40
1.0
176
     1
 90
        8
176
     1
 62
     7
176
     1
 40
1.0
176
     1
 90
        1
176
     1
 90
        6
176
     1
 90
        2
176
     1
 62
     7
176
     1
 90
        5
176
     1
 90
        0
176
     1
 90
        0
176
     1
290
     0
176
     1
 90
       13
176
     1
 40
0.0
176
     1
 90
        0
176
     1
290
     0
176
     1
290
     1
176
     1
290
     1
176
     1
290
     0
176
     1
290
     0
176
     1
290
     0
176
     1
290
     0
176
     1
290
     0
176
     1
290
     0
176
     1
 90
       50
176
     1
 40
0.0
176
     1
 40
1.0
176
     1
 90
        0
176
     1
 62
    18
420
        0
176
     1
 90
       50
176
     1
 90
        3
176
     1
 62
     5
420
      255
176
     1
290
     0
176
     1
 90
       50
176
     1
 90
       50
176
     1
 90
       50
176
     1
290
     0
176
     1
 90
       50
176
     1
 62
   256
176
     0
 40
1.0
176
     0
 90
        2
176
     1
  1
strokes_ogs.tif
176
     1
290
     0
176
     1
 40
1.0
176
     1
 40
1.0
176
     1
1001
ACAD
1000
AcDbSavedByObjectVersion
1070
     0
  0
VISUALSTYLE
  5
2B
102
{ACAD_REACTORS
330
29
102
}
330
29
100
AcDbVisualStyle
  2
FlatWithEdges
 70
     1
177
     3
291
     1
 70
    58
 90
        2
176
     1
 90
        1
176
     1
 90
        1
176
     1
 90
        2
176
     1
 40
0.6
176
     1
 40
30.0
176
     1
 62
     7
420
 16777215
176
     1
 90
        1
176
     1
 90
        0
176
     1
 62
     7
176
     1
 62
   257
176
     1
 90
        1
176
     1
 90
        1
176
     1
 40
1.0
176
     1
 90
        0
176
     1
 62
   257
176
     1
 40
1.0
176
     1
 90
        1
176
     1
 90
        6
176
     1
 90
        2
176
     1
 62
     7
176
     1
 90
        5
176
     1
 90
        0
176
     1
 90
        0
176
     1
290
     0
176
     1
 90
       13
176
     1
 40
0.0
176
     1
 90
        0
176
     1
290
     0
176
     1
290
     1
176
     1
290
     1
176
     1
290
     0
176
     1
290
     0
176
     1
290
     0
176
     1
290
     0
176
     1
290
     0
176
     1
290
     0
176
     1
 90
       50
176
     1
 40
0.0
176
     1
 40
1.0
176
     1
 90
        0
176
     1
 62
    18
420
        0
176
     1
 90
       50
176
     1
 90
        3
176
     1
 62
     5
420
      255
176
     1
290
     0
176
     1
 90
       50
176
     1
 90
       50
176
     1
 90
       50
176
     1
290
     0
176
     1
 90
       50
176
     1
 62
   256
176
     0
 40
1.0
176
     0
 90
        2
176
     1
  1
strokes_ogs.tif
176
     1
290
     0
176
     1
 40
1.0
176
     1
 40
1.0
176
     1
1001
ACAD
1000
AcDbSavedByObjectVersion
1070
     0
  0
VISUALSTYLE
  5
2C
102
{ACAD_REACTORS
330
29
102
}
330
29
100
AcDbVisualStyle
  2
Gouraud
 70
     2
177
     3
291
     1
 70
    58
 90
        2
176
     1
 90
        2
176
     1
 90
        1
176
     1
 90
        2
176
     1
 40
0.6
176
     1
 40
30.0
176
     1
 62
     7
420
 16777215
176
     1
 90
        0
176
     1
 90
        0
176
     1
 62
     7
176
     1
 62
   257
176
     1
 90
        1
176
     1
 90
        1
176
     1
 40
1.0
176
     1
 90
        0
176
     1
 62
     7
176
     1
 40
1.0
176
     1
 90
        1
176
     1
 90
        6
176
     1
 90
        2
176
     1
 62
     7
176
     1
 90
        5
176
     1
 90
        0
176
     1
 90
        0
176
     1
290
     0
176
     1
 90
       13
176
     1
 40
0.0
176
     1
 90
        0
176
     1
290
     0
176
     1
290
     1
176
     1
290
     1
176
     1
290
     0
176
     1
290
     0
176
     1
290
     0
176
     1
290
     0
176
     1
290
     0
176
     1
290
     0
176
     1
 90
       50
176
     1
 40
0.0
176
     1
 40
1.0
176
     1
 90
        0
176
     1
 62
    18
420
        0
176
     1
 90
       50
176
     1
 90
        3
176
     1
 62
     5
420
      255
176
     1
290
     0
176
     1
 90
       50
176
     1
 90
       50
176
     1
 90
       50
176
     1
290
     0
176
     1
 90
       50
176
     1
 62
   256
176
     0
 40
1.0
176
     0
 90
        2
176
     1
  1
strokes_ogs.tif
176
     1
290
     0
176
     1
 40
1.0
176
     1
 40
1.0
176
     1
1001
ACAD
1000
AcDbSavedByObjectVersion
1070
     0
  0
VISUALSTYLE
  5
2D
102
{ACAD_REACTORS
330
29
102
}
330
29
100
AcDbVisualStyle
  2
GouraudWithEdges
 70
     3
177
     3
291
     1
 70
    58
 90
        2
176
     1
 90
        2
176
     1
 90
        1
176
     1
 90
        2
176
     1
 40
0.6
176
     1
 40
30.0
176
     1
 62
     7
420
 16777215
176
     1
 90
        1
176
     1
 90
        0
176
     1
 62
     7
176
     1
 62
   257
176
     1
 90
        1
176
     1
 90
        1
176
     1
 40
1.0
176
     1
 90
        0
176
     1
 62
   257
176
     1
 40
1.0
176
     1
 90
        1
176
     1
 90
        6
176
     1
 90
        2
176
     1
 62
     7
176
     1
 90
        5
176
     1
 90
        0
176
     1
 90
        0
176
     1
290
     0
176
     1
 90
       13
176
     1
 40
0.0
176
     1
 90
        0
176
     1
290
     0
176
     1
290
     1
176
     1
290
     1
176
     1
290
     0
176
     1
290
     0
176
     1
290
     0
176
     1
290
     0
176
     1
290
     0
176
     1
290
     0
176
     1
 90
       50
176
     1
 40
0.0
176
     1
 40
1.0
176
     1
 90
        0
176
     1
 62
    18
420
        0
176
     1
 90
       50
176
     1
 90
        3
176
     1
 62
     5
420
      255
176
     1
290
     0
176
     1
 90
       50
176
     1
 90
       50
176
     1
 90
       50
176
     1
290
     0
176
     1
 90
       50
176
     1
 62
   256
176
     0
 40
1.0
176
     0
 90
        2
176
     1
  1
strokes_ogs.tif
176
     1
290
     0
176
     1
 40
1.0
176
     1
 40
1.0
176
     1
1001
ACAD
1000
AcDbSavedByObjectVersion
1070
     0
  0
VISUALSTYLE
  5
31
102
{ACAD_REACTORS
330
29
102
}
330
29
100
AcDbVisualStyle
  2
Hidden
 70
     6
177
     3
291
     0
 70
    58
 90
        1
176
     1
 90
        2
176
     1
 90
        2
176
     1
 90
        0
176
     1
 40
0.6
176
     1
 40
30.0
176
     1
 62
     7
420
 16777215
176
     1
 90
        2
176
     1
 90
        2
176
     1
 62
     7
176
     1
 62
   257
176
     1
 90
        2
176
     1
 90
        1
176
     1
 40
40.0
176
     1
 90
        0
176
     1
 62
   257
176
     1
 40
1.0
176
     1
 90
        1
176
     1
 90
        6
176
     1
 90
        2
176
     1
 62
     7
176
     1
 90
        3
176
     1
 90
        0
176
     1
 90
        0
176
     1
290
     0
176
     1
 90
        1
176
     1
 40
0.0
176
     1
 90
        0
176
     1
290
     0
176
     1
290
     1
176
     1
290
     1
176
     1
290
     0
176
     1
290
     0
176
     1
290
     0
176
     1
290
     0
176
     1
290
     0
176
     1
290
     0
176
     1
 90
       50
176
     1
 40
0.0
176
     1
 40
1.0
176
     1
 90
        0
176
     1
 62
    18
420
        0
176
     1
 90
       50
176
     1
 90
        3
176
     1
 62
     5
420
      255
176
     1
290
     0
176
     1
 90
       50
176
     1
 90
       50
176
     1
 90
       50
176
     1
290
     0
176
     1
 90
       50
176
     1
 62
   256
176
     0
 40
1.0
176
     0
 90
        2
176
     1
  1
strokes_ogs.tif
176
     1
290
     0
176
     1
 40
1.0
176
     1
 40
1.0
176
     1
1001
ACAD
1000
AcDbSavedByObjectVersion
1070
     0
  0
VISUALSTYLE
  5
3F
102
{ACAD_REACTORS
330
29
102
}
330
29
100
AcDbVisualStyle
  2
JitterOff
 70
    20
177
     3
291
     1
 70
    58
 90
        2
176
     0
 90
        2
176
     0
 90
        0
176
     0
 90
        0
176
     0
 40
0.6
176
     0
 40
30.0
176
     0
 62
     7
420
 16777215
176
     0
 90
        1
176
     0
 90
        4
176
     0
 62
     7
176
     0
 62
   257
176
     0
 90
        1
176
     0
 90
        1
176
     0
 40
1.0
176
     0
 90
       10
176
     2
 62
     7
176
     0
 40
1.0
176
     0
 90
        1
176
     0
 90
        6
176
     0
 90
        2
176
     0
 62
     7
176
     0
 90
        5
176
     0
 90
        0
176
     0
 90
        0
176
     0
290
     0
176
     0
 90
        1
176
     0
 40
0.0
176
     0
 90
        0
176
     0
290
     0
176
     0
290
     1
176
     0
290
     1
176
     0
290
     0
176
     0
290
     0
176
     0
290
     0
176
     0
290
     0
176
     0
290
     0
176
     0
290
     0
176
     0
 90
       50
176
     0
 40
0.0
176
     0
 40
1.0
176
     0
 90
        0
176
     0
 62
    18
420
        0
176
     0
 90
       50
176
     0
 90
        3
176
     0
 62
     5
420
      255
176
     0
290
     0
176
     0
 90
       50
176
     0
 90
       50
176
     0
 90
       50
176
     0
290
     0
176
     0
 90
       50
176
     0
 62
   256
176
     0
 40
1.0
176
     0
 90
        2
176
     0
  1
strokes_ogs.tif
176
     0
290
     0
176
     0
 40
1.0
176
     0
 40
1.0
176
     0
1001
ACAD
1000
AcDbSavedByObjectVersion
1070
     0
  0
VISUALSTYLE
  5
37
102
{ACAD_REACTORS
330
29
102
}
330
29
100
AcDbVisualStyle
  2
Linepattern
 70
    14
177
     3
291
     1
 70
    58
 90
        2
176
     1
 90
        2
176
     1
 90
        0
176
     1
 90
        0
176
     1
 40
0.6
176
     1
 40
30.0
176
     1
 62
     7
420
 16777215
176
     1
 90
        1
176
     1
 90
        4
176
     1
 62
     7
176
     1
 62
   257
176
     1
 90
        7
176
     1
 90
        7
176
     1
 40
1.0
176
     1
 90
        8
176
     1
 62
     7
176
     1
 40
1.0
176
     1
 90
        1
176
     1
 90
        6
176
     1
 90
        2
176
     1
 62
     7
176
     1
 90
        5
176
     1
 90
        0
176
     1
 90
        0
176
     1
290
     0
176
     1
 90
        1
176
     1
 40
0.0
176
     1
 90
        0
176
     1
290
     0
176
     1
290
     1
176
     1
290
     1
176
     1
290
     0
176
     1
290
     0
176
     1
290
     0
176
     1
290
     0
176
     1
290
     0
176
     1
290
     0
176
     1
 90
       50
176
     1
 40
0.0
176
     1
 40
1.0
176
     1
 90
        0
176
     1
 62
    18
420
        0
176
     1
 90
       50
176
     1
 90
        3
176
     1
 62
     5
420
      255
176
     1
290
     0
176
     1
 90
       50
176
     1
 90
       50
176
     1
 90
       50
176
     1
290
     0
176
     1
 90
       50
176
     1
 62
   256
176
     0
 40
1.0
176
     0
 90
        2
176
     1
  1
strokes_ogs.tif
176
     1
290
     0
176
     1
 40
1.0
176
     1
 40
1.0
176
     1
1001
ACAD
1000
AcDbSavedByObjectVersion
1070
     0
  0
VISUALSTYLE
  5
40
102
{ACAD_REACTORS
330
29
102
}
330
29
100
AcDbVisualStyle
  2
OverhangOff
 70
    21
177
     3
291
     1
 70
    58
 90
        2
176
     0
 90
        2
176
     0
 90
        0
176
     0
 90
        0
176
     0
 40
0.6
176
     0
 40
30.0
176
     0
 62
     7
420
 16777215
176
     0
 90
        1
176
     0
 90
        4
176
     0
 62
     7
176
     0
 62
   257
176
     0
 90
        1
176
     0
 90
        1
176
     0
 40
1.0
176
     0
 90
        9
176
     2
 62
     7
176
     0
 40
1.0
176
     0
 90
        1
176
     0
 90
        6
176
     0
 90
        2
176
     0
 62
     7
176
     0
 90
        5
176
     0
 90
        0
176
     0
 90
        0
176
     0
290
     0
176
     0
 90
        1
176
     0
 40
0.0
176
     0
 90
        0
176
     0
290
     0
176
     0
290
     1
176
     0
290
     1
176
     0
290
     0
176
     0
290
     0
176
     0
290
     0
176
     0
290
     0
176
     0
290
     0
176
     0
290
     0
176
     0
 90
       50
176
     0
 40
0.0
176
     0
 40
1.0
176
     0
 90
        0
176
     0
 62
    18
420
        0
176
     0
 90
       50
176
     0
 90
        3
176
     0
 62
     5
420
      255
176
     0
290
     0
176
     0
 90
       50
176
     0
 90
       50
176
     0
 90
       50
176
     0
290
     0
176
     0
 90
       50
176
     0
 62
   256
176
     0
 40
1.0
176
     0
 90
        2
176
     0
  1
strokes_ogs.tif
176
     0
290
     0
176
     0
 40
1.0
176
     0
 40
1.0
176
     0
1001
ACAD
1000
AcDbSavedByObjectVersion
1070
     0
  0
VISUALSTYLE
  5
33
102
{ACAD_REACTORS
330
29
102
}
330
29
100
AcDbVisualStyle
  2
Realistic
 70
     8
177
     3
291
     0
 70
    58
 90
        2
176
     1
 90
        3
176
     1
 90
        0
176
     1
 90
        2
176
     1
 40
0.6
176
     1
 40
30.0
176
     1
 62
     7
420
 16777215
176
     1
 90
        0
176
     1
 90
        0
176
     1
 62
     7
176
     1
 62
   257
176
     1
 90
        1
176
     1
 90
        1
176
     1
 40
1.0
176
     1
 90
        8
176
     1
 62
   257
176
     1
 40
1.0
176
     1
 90
        1
176
     1
 90
        6
176
     1
 90
        2
176
     1
 62
     7
176
     1
 90
        3
176
     1
 90
        0
176
     1
 90
        0
176
     1
290
     0
176
     1
 90
       13
176
     1
 40
0.0
176
     1
 90
        0
176
     1
290
     0
176
     1
290
     1
176
     1
290
     1
176
     1
290
     0
176
     1
290
     0
176
     1
290
     0
176
     1
290
     0
176
     1
290
     0
176
     1
290
     0
176
     1
 90
       50
176
     1
 40
0.0
176
     1
 40
1.0
176
     1
 90
        0
176
     1
 62
    18
420
        0
176
     1
 90
       50
176
     1
 90
        3
176
     1
 62
     5
420
      255
176
     1
290
     0
176
     1
 90
       50
176
     1
 90
       50
176
     1
 90
       50
176
     1
290
     0
176
     1
 90
       50
176
     1
 62
   256
176
     0
 40
1.0
176
     0
 90
        2
176
     1
  1
strokes_ogs.tif
176
     1
290
     0
176
     1
 40
1.0
176
     1
 40
1.0
176
     1
1001
ACAD
1000
AcDbSavedByObjectVersion
1070
     0
  0
VISUALSTYLE
  5
3E
102
{ACAD_REACTORS
330
29
102
}
330
29
100
AcDbVisualStyle
  2
Shaded
 70
    27
177
     3
291
     0
 70
    58
 90
        2
176
     1
 90
        2
176
     1
 90
        1
176
     1
 90
        2
176
     1
 40
0.6
176
     1
 40
30.0
176
     1
 62
     7
420
 16777215
176
     1
 90
        0
176
     1
 90
        4
176
     1
 62
     7
176
     1
 62
   257
176
     1
 90
        1
176
     1
 90
        1
176
     1
 40
1.0
176
     1
 90
        8
176
     1
 62
   257
176
     1
 40
1.0
176
     1
 90
        1
176
     1
 90
        6
176
     1
 90
        2
176
     1
 62
     8
420
  7895160
176
     1
 90
        3
176
     1
 90
        0
176
     1
 90
        0
176
     1
290
     0
176
     1
 90
        5
176
     1
 40
0.0
176
     1
 90
        0
176
     1
290
     0
176
     1
290
     1
176
     1
290
     1
176
     1
290
     0
176
     1
290
     0
176
     1
290
     0
176
     1
290
     0
176
     1
290
     0
176
     1
290
     0
176
     1
 90
       50
176
     1
 40
0.0
176
     1
 40
1.0
176
     1
 90
        0
176
     1
 62
    18
420
        0
176
     1
 90
       50
176
     1
 90
        3
176
     1
 62
     5
420
      255
176
     1
290
     0
176
     1
 90
       50
176
     1
 90
       50
176
     1
 90
       50
176
     1
290
     0
176
     1
 90
       50
176
     1
 62
   256
176
     0
 40
1.0
176
     0
 90
        2
176
     1
  1
strokes_ogs.tif
176
     1
290
     0
176
     1
 40
1.0
176
     1
 40
1.0
176
     1
1001
ACAD
1000
AcDbSavedByObjectVersion
1070
     0
  0
VISUALSTYLE
  5
3D
102
{ACAD_REACTORS
330
29
102
}
330
29
100
AcDbVisualStyle
  2
Shaded with edges
 70
    26
177
     3
291
     0
 70
    58
 90
        2
176
     1
 90
        2
176
     1
 90
        1
176
     1
 90
        2
176
     1
 40
0.6
176
     1
 40
30.0
176
     1
 62
     7
420
 16777215
176
     1
 90
        1
176
     1
 90
        2
176
     1
 62
     7
176
     1
 62
   257
176
     1
 90
        2
176
     1
 90
        1
176
     1
 40
1.0
176
     1
 90
        8
176
     1
 62
   257
176
     1
 40
1.0
176
     1
 90
        1
176
     1
 90
        6
176
     1
 90
        2
176
     1
 62
     7
176
     1
 90
        3
176
     1
 90
        0
176
     1
 90
        0
176
     1
290
     0
176
     1
 90
        5
176
     1
 40
0.0
176
     1
 90
        0
176
     1
290
     0
176
     1
290
     1
176
     1
290
     1
176
     1
290
     0
176
     1
290
     0
176
     1
290
     0
176
     1
290
     0
176
     1
290
     0
176
     1
290
     0
176
     1
 90
       50
176
     1
 40
0.0
176
     1
 40
1.0
176
     1
 90
        0
176
     1
 62
    18
420
        0
176
     1
 90
       50
176
     1
 90
        3
176
     1
 62
     5
420
      255
176
     1
290
     0
176
     1
 90
       50
176
     1
 90
       50
176
     1
 90
       50
176
     1
290
     0
176
     1
 90
       50
176
     1
 62
   256
176
     0
 40
1.0
176
     0
 90
        2
176
     1
  1
strokes_ogs.tif
176
     1
290
     0
176
     1
 40
1.0
176
     1
 40
1.0
176
     1
1001
ACAD
1000
AcDbSavedByObjectVersion
1070
     0
  0
VISUALSTYLE
  5
3A
102
{ACAD_REACTORS
330
29
102
}
330
29
100
AcDbVisualStyle
  2
Shades of Gray
 70
    23
177
     3
291
     0
 70
    58
 90
        2
176
     1
 90
        2
176
     1
 90
        3
176
     1
 90
        0
176
     1
 40
0.6
176
     1
 40
30.0
176
     1
 62
     7
420
 16777215
176
     1
 90
        2
176
     1
 90
        2
176
     1
 62
     7
176
     1
 62
     7
176
     1
 90
        1
176
     1
 90
        1
176
     1
 40
40.0
176
     1
 90
        8
176
     1
 62
     7
176
     1
 40
1.0
176
     1
 90
        1
176
     1
 90
        6
176
     1
 90
        2
176
     1
 62
     7
176
     1
 90
        3
176
     1
 90
        0
176
     1
 90
        0
176
     1
290
     0
176
     1
 90
        1
176
     1
 40
0.0
176
     1
 90
        0
176
     1
290
     0
176
     1
290
     1
176
     1
290
     1
176
     1
290
     0
176
     1
290
     0
176
     1
290
     0
176
     1
290
     0
176
     1
290
     0
176
     1
290
     0
176
     1
 90
       50
176
     1
 40
0.0
176
     1
 40
1.0
176
     1
 90
        0
176
     1
 62
    18
420
        0
176
     1
 90
       50
176
     1
 90
        3
176
     1
 62
     5
420
      255
176
     1
290
     0
176
     1
 90
       50
176
     1
 90
       50
176
     1
 90
       50
176
     1
290
     0
176
     1
 90
       50
176
     1
 62
   256
176
     0
 40
1.0
176
     0
 90
        2
176
     1
  1
strokes_ogs.tif
176
     1
290
     0
176
     1
 40
1.0
176
     1
 40
1.0
176
     1
1001
ACAD
1000
AcDbSavedByObjectVersion
1070
     0
  0
VISUALSTYLE
  5
3B
102
{ACAD_REACTORS
330
29
102
}
330
29
100
AcDbVisualStyle
  2
Sketchy
 70
    24
177
     3
291
     0
 70
    58
 90
        1
176
     1
 90
        2
176
     1
 90
        2
176
     1
 90
        0
176
     1
 40
0.6
176
     1
 40
30.0
176
     1
 62
     7
420
 16777215
176
     1
 90
        2
176
     1
 90
        2
176
     1
 62
     7
176
     1
 62
     7
176
     1
 90
        1
176
     1
 90
        1
176
     1
 40
40.0
176
     1
 90
       11
176
     1
 62
     7
176
     1
 40
1.0
176
     1
 90
        1
176
     1
 90
        6
176
     1
 90
        2
176
     1
 62
     7
176
     1
 90
        6
176
     1
 90
        0
176
     1
 90
        0
176
     1
290
     0
176
     1
 90
        1
176
     1
 40
0.0
176
     1
 90
        0
176
     1
290
     0
176
     1
290
     1
176
     1
290
     1
176
     1
290
     0
176
     1
290
     0
176
     1
290
     0
176
     1
290
     0
176
     1
290
     0
176
     1
290
     0
176
     1
 90
       50
176
     1
 40
0.0
176
     1
 40
1.0
176
     1
 90
        0
176
     1
 62
    18
420
        0
176
     1
 90
       50
176
     1
 90
        3
176
     1
 62
     5
420
      255
176
     1
290
     0
176
     1
 90
       50
176
     1
 90
       50
176
     1
 90
       50
176
     1
290
     0
176
     1
 90
       50
176
     1
 62
   256
176
     0
 40
1.0
176
     0
 90
        2
176
     1
  1
strokes_ogs.tif
176
     1
290
     0
176
     1
 40
1.0
176
     1
 40
1.0
176
     1
1001
ACAD
1000
AcDbSavedByObjectVersion
1070
     0
  0
VISUALSTYLE
  5
36
102
{ACAD_REACTORS
330
29
102
}
330
29
100
AcDbVisualStyle
  2
Thicken
 70
    13
177
     3
291
     1
 70
    58
 90
        2
176
     1
 90
        2
176
     1
 90
        0
176
     1
 90
        0
176
     1
 40
0.6
176
     1
 40
30.0
176
     1
 62
     7
420
 16777215
176
     1
 90
        1
176
     1
 90
        4
176
     1
 62
     7
176
     1
 62
   257
176
     1
 90
        1
176
     1
 90
        1
176
     1
 40
1.0
176
     1
 90
       12
176
     1
 62
     7
176
     1
 40
1.0
176
     1
 90
        1
176
     1
 90
        6
176
     1
 90
        2
176
     1
 62
     7
176
     1
 90
        5
176
     1
 90
        0
176
     1
 90
        0
176
     1
290
     0
176
     1
 90
        1
176
     1
 40
0.0
176
     1
 90
        0
176
     1
290
     0
176
     1
290
     1
176
     1
290
     1
176
     1
290
     0
176
     1
290
     0
176
     1
290
     0
176
     1
290
     0
176
     1
290
     0
176
     1
290
     0
176
     1
 90
       50
176
     1
 40
0.0
176
     1
 40
1.0
176
     1
 90
        0
176
     1
 62
    18
420
        0
176
     1
 90
       50
176
     1
 90
        3
176
     1
 62
     5
420
      255
176
     1
290
     0
176
     1
 90
       50
176
     1
 90
       50
176
     1
 90
       50
176
     1
290
     0
176
     1
 90
       50
176
     1
 62
   256
176
     0
 40
1.0
176
     0
 90
        2
176
     1
  1
strokes_ogs.tif
176
     1
290
     0
176
     1
 40
1.0
176
     1
 40
1.0
176
     1
1001
ACAD
1000
AcDbSavedByObjectVersion
1070
     0
  0
VISUALSTYLE
  5
30
102
{ACAD_REACTORS
330
29
102
}
330
29
100
AcDbVisualStyle
  2
Wireframe
 70
     5
177
     3
291
     0
 70
    58
 90
        0
176
     1
 90
        2
176
     1
 90
        0
176
     1
 90
        0
176
     1
 40
0.6
176
     1
 40
30.0
176
     1
 62
     7
420
 16777215
176
     1
 90
        1
176
     1
 90
        4
176
     1
 62
     7
176
     1
 62
   257
176
     1
 90
        1
176
     1
 90
        1
176
     1
 40
1.0
176
     1
 90
        0
176
     1
 62
   257
176
     1
 40
1.0
176
     1
 90
        1
176
     1
 90
        6
176
     1
 90
        2
176
     1
 62
     7
176
     1
 90
        3
176
     1
 90
        0
176
     1
 90
        0
176
     1
290
     0
176
     1
 90
        1
176
     1
 40
0.0
176
     1
 90
        0
176
     1
290
     0
176
     1
290
     1
176
     1
290
     1
176
     1
290
     0
176
     1
290
     0
176
     1
290
     0
176
     1
290
     0
176
     1
290
     0
176
     1
290
     0
176
     1
 90
       50
176
     1
 40
0.0
176
     1
 40
1.0
176
     1
 90
        0
176
     1
 62
    18
420
        0
176
     1
 90
       50
176
     1
 90
        3
176
     1
 62
     5
420
      255
176
     1
290
     0
176
     1
 90
       50
176
     1
 90
       50
176
     1
 90
       50
176
     1
290
     0
176
     1
 90
       50
176
     1
 62
   256
176
     0
 40
1.0
176
     0
 90
        2
176
     1
  1
strokes_ogs.tif
176
     1
290
     0
176
     1
 40
1.0
176
     1
 40
1.0
176
     1
1001
ACAD
1000
AcDbSavedByObjectVersion
1070
     0
  0
VISUALSTYLE
  5
3C
102
{ACAD_REACTORS
330
29
102
}
330
29
100
AcDbVisualStyle
  2
X-Ray
 70
    25
177
     3
291
     0
 70
    58
 90
        2
176
     1
 90
        2
176
     1
 90
        1
176
     1
 90
        1
176
     1
 40
0.5
176
     1
 40
30.0
176
     1
 62
     7
420
 16777215
176
     1
 90
        1
176
     1
 90
        0
176
     1
 62
     7
176
     1
 62
   257
176
     1
 90
        1
176
     1
 90
        1
176
     1
 40
1.0
176
     1
 90
        8
176
     1
 62
     7
176
     1
 40
1.0
176
     1
 90
        1
176
     1
 90
        6
176
     1
 90
        2
176
     1
 62
     7
176
     1
 90
        3
176
     1
 90
        0
176
     1
 90
        0
176
     1
290
     0
176
     1
 90
       13
176
     1
 40
0.0
176
     1
 90
        0
176
     1
290
     0
176
     1
290
     1
176
     1
290
     1
176
     1
290
     0
176
     1
290
     0
176
     1
290
     0
176
     1
290
     0
176
     1
290
     0
176
     1
290
     0
176
     1
 90
       50
176
     1
 40
0.0
176
     1
 40
1.0
176
     1
 90
        0
176
     1
 62
    18
420
        0
176
     1
 90
       50
176
     1
 90
        3
176
     1
 62
     5
420
      255
176
     1
290
     0
176
     1
 90
       50
176
     1
 90
       50
176
     1
 90
       50
176
     1
290
     0
176
     1
 90
       50
176
     1
 62
   256
176
     0
 40
1.0
176
     0
 90
        2
176
     1
  1
strokes_ogs.tif
176
     1
290
     0
176
     1
 40
1.0
176
     1
 40
1.0
176
     1
1001
ACAD
1000
AcDbSavedByObjectVersion
1070
     0
  0
DICTIONARYVAR
  5
173
102
{ACAD_REACTORS
330
16E
102
}
330
16E
100
DictionaryVariables
280
     0
  1
1:1
  0
DICTIONARYVAR
  5
170
102
{ACAD_REACTORS
330
16E
102
}
330
16E
100
DictionaryVariables
280
     0
  1
STANDARD
  0
DICTIONARYVAR
  5
16F
102
{ACAD_REACTORS
330
16E
102
}
330
16E
100
DictionaryVariables
280
     0
  1
STANDARD
  0
DICTIONARYVAR
  5
171
102
{ACAD_REACTORS
330
16E
102
}
330
16E
100
DictionaryVariables
280
     0
  1
Imperial24
  0
DICTIONARYVAR
  5
172
102
{ACAD_REACTORS
330
16E
102
}
330
16E
100
DictionaryVariables
280
     0
  1
Imperial24
  0
DICTIONARY
  5
179
330
6B
100
AcDbDictionary
280
     1
281
     1
  3
ACAD_XREC_ROUNDTRIP
360
17A
  0
DICTIONARY
  5
1A
330
19
100
AcDbDictionary
280
     1
281
     1
  3
BUMPTILE
360
1C
  3
DIFFUSETILE
360
1B
  3
OPACITYTILE
360
1F
  3
REFLECTIONTILE
360
1E
  3
REFRACTIONTILE
360
20
  3
SPECULARTILE
360
1D
  0
DICTIONARY
  5
12
330
11
100
AcDbDictionary
280
     1
281
     1
  3
BUMPTILE
360
14
  3
DIFFUSETILE
360
13
  3
OPACITYTILE
360
17
  3
REFLECTIONTILE
360
16
  3
REFRACTIONTILE
360
18
  3
SPECULARTILE
360
15
  0
DICTIONARY
  5
22
330
21
100
AcDbDictionary
280
     1
281
     1
  3
BUMPTILE
360
24
  3
DIFFUSETILE
360
23
  3
OPACITYTILE
360
27
  3
REFLECTIONTILE
360
26
  3
REFRACTIONTILE
360
28
  3
SPECULARTILE
360
25
  0
DICTIONARY
  5
177
330
69
100
AcDbDictionary
280
     1
281
     1
  3
ACAD_XREC_ROUNDTRIP
360
178
  0
DICTIONARY
  5
174
330
65
100
AcDbDictionary
280
     1
281
     1
  3
ACAD_ROUNDTRIP_2008_TABLESTYLE_CELLSTYLEMAP
360
175
  0
XRECORD
  5
17A
102
{ACAD_REACTORS
330
179
102
}
330
179
100
AcDbXrecord
280
     1
102
DISPLAYNAME
  1
Imperial24
102
FLAGS
 90
        0
  0
XRECORD
  5
1C
102
{ACAD_REACTORS
330
1A
102
}
330
1A
100
AcDbXrecord
280
     1
270
     1
271
     1
  0
XRECORD
  5
1B
102
{ACAD_REACTORS
330
1A
102
}
330
1A
100
AcDbXrecord
280
     1
270
     1
271
     1
  0
XRECORD
  5
1F
102
{ACAD_REACTORS
330
1A
102
}
330
1A
100
AcDbXrecord
280
     1
270
     1
271
     1
  0
XRECORD
  5
1E
102
{ACAD_REACTORS
330
1A
102
}
330
1A
100
AcDbXrecord
280
     1
270
     1
271
     1
  0
XRECORD
  5
20
102
{ACAD_REACTORS
330
1A
102
}
330
1A
100
AcDbXrecord
280
     1
270
     1
271
     1
  0
XRECORD
  5
1D
102
{ACAD_REACTORS
330
1A
102
}
330
1A
100
AcDbXrecord
280
     1
270
     1
271
     1
  0
XRECORD
  5
14
102
{ACAD_REACTORS
330
12
102
}
330
12
100
AcDbXrecord
280
     1
270
     1
271
     1
  0
XRECORD
  5
13
102
{ACAD_REACTORS
330
12
102
}
330
12
100
AcDbXrecord
280
     1
270
     1
271
     1
  0
XRECORD
  5
17
102
{ACAD_REACTORS
330
12
102
}
330
12
100
AcDbXrecord
280
     1
270
     1
271
     1
  0
XRECORD
  5
16
102
{ACAD_REACTORS
330
12
102
}
330
12
100
AcDbXrecord
280
     1
270
     1
271
     1
  0
XRECORD
  5
18
102
{ACAD_REACTORS
330
12
102
}
330
12
100
AcDbXrecord
280
     1
270
     1
271
     1
  0
XRECORD
  5
15
102
{ACAD_REACTORS
330
12
102
}
330
12
100
AcDbXrecord
280
     1
270
     1
271
     1
  0
XRECORD
  5
24
102
{ACAD_REACTORS
330
22
102
}
330
22
100
AcDbXrecord
280
     1
270
     1
271
     1
  0
XRECORD
  5
23
102
{ACAD_REACTORS
330
22
102
}
330
22
100
AcDbXrecord
280
     1
270
     1
271
     1
  0
XRECORD
  5
27
102
{ACAD_REACTORS
330
22
102
}
330
22
100
AcDbXrecord
280
     1
270
     1
271
     1
  0
XRECORD
  5
26
102
{ACAD_REACTORS
330
22
102
}
330
22
100
AcDbXrecord
280
     1
270
     1
271
     1
  0
XRECORD
  5
28
102
{ACAD_REACTORS
330
22
102
}
330
22
100
AcDbXrecord
280
     1
270
     1
271
     1
  0
XRECORD
  5
25
102
{ACAD_REACTORS
330
22
102
}
330
22
100
AcDbXrecord
280
     1
270
     1
271
     1
  0
XRECORD
  5
178
102
{ACAD_REACTORS
330
177
102
}
330
177
100
AcDbXrecord
280
     1
102
DISPLAYNAME
  1
Imperial24
102
FLAGS
 90
        0
  0
CELLSTYLEMAP
  5
175
102
{ACAD_REACTORS
330
174
102
}
330
174
100
AcDbCellStyleMap
 90
        3
300
CELLSTYLE
  1
TABLEFORMAT_BEGIN
 90
        5
170
     1
 91
        0
 92
    32768
 62
   257
 93
        1
300
CONTENTFORMAT
  1
CONTENTFORMAT_BEGIN
 90
        0
 91
        0
 92
      512
 93
        0
300

 40
0.0
140
1.0
 94
        5
 62
     0
340
55
144
0.25
309
CONTENTFORMAT_END
171
     0
 94
        0
309
TABLEFORMAT_END
  1
CELLSTYLE_BEGIN
 90
        1
 91
        1
300
_TITLE
309
CELLSTYLE_END
300
CELLSTYLE
  1
TABLEFORMAT_BEGIN
 90
        5
170
     1
 91
        0
 92
        0
 62
   257
 93
        1
300
CONTENTFORMAT
  1
CONTENTFORMAT_BEGIN
 90
        0
 91
        0
 92
      512
 93
        0
300

 40
0.0
140
1.0
 94
        5
 62
     0
340
55
144
0.18
309
CONTENTFORMAT_END
171
     0
 94
        0
309
TABLEFORMAT_END
  1
CELLSTYLE_BEGIN
 90
        2
 91
        1
300
_HEADER
309
CELLSTYLE_END
300
CELLSTYLE
  1
TABLEFORMAT_BEGIN
 90
        5
170
     1
 91
        0
 92
        0
 62
   257
 93
        1
300
CONTENTFORMAT
  1
CONTENTFORMAT_BEGIN
 90
        0
 91
        0
 92
      512
 93
        0
300

 40
0.0
140
1.0
 94
        2
 62
     0
340
55
144
0.18
309
CONTENTFORMAT_END
171
     0
 94
        0
309
TABLEFORMAT_END
  1
CELLSTYLE_BEGIN
 90
        3
 91
        2
300
_DATA
309
CELLSTYLE_END
  0
ENDSEC
  0
EOF
