0
SECTION
2
HEADER
9
$ACADVER
1
AC1009
0
ENDSEC
0
SECTION
2
TABLES
0
TABLE
2
VPORT
70
1
0
VPORT
2
ACTIVE
70
0
10
0.0
20
0.0
11
0.0
21
0.0
12
0.0
22
0.0
13
0.0
23
0.0
14
0.0
24
0.0
15
0.0
25
0.0
16
0.0
26
0.0
36
0.0
17
0.0
27
0.0
37
0.0
40
0.0
41
0.0
42
0.0
43
0.0
44
0.0
50
0.0
51
0.0
71
0
72
1000
73
1
74
3
75
0
76
0
77
0
78
0
0
ENDTAB
0
ENDSEC
0
SECTION
2
ENTITIES
0
LINE
8
hole
62
5
39
2
10
26.894697
20
84.813989
11
27.466197
21
84.813989
0
LINE
8
hole
62
5
39
2
10
27.466197
20
84.813989
11
27.466197
21
85.385489
0
LINE
8
hole
62
5
39
2
10
27.466197
20
85.385489
11
26.894697
21
85.385489
0
LINE
8
hole
62
5
39
2
10
26.894697
20
85.385489
11
26.894697
21
84.813989
0
LINE
8
hole
62
5
39
2
10
15.143624
20
50.846551
11
15.715124
21
50.846551
0
LINE
8
hole
62
5
39
2
10
15.715124
20
50.846551
11
15.715124
21
51.418051
0
LINE
8
hole
62
5
39
2
10
15.715124
20
51.418051
11
15.143624
21
51.418051
0
LINE
8
hole
62
5
39
2
10
15.143624
20
51.418051
11
15.143624
21
50.846551
0
LINE
8
hole
62
5
39
2
10
41.423619
20
22.747801
11
41.995119
21
22.747801
0
LINE
8
hole
62
5
39
2
10
41.995119
20
22.747801
11
41.995119
21
23.319301
0
LINE
8
hole
62
5
39
2
10
41.995119
20
23.319301
11
41.423619
21
23.319301
0
LINE
8
hole
62
5
39
2
10
41.423619
20
23.319301
11
41.423619
21
22.747801
0
LINE
8
hole
62
5
39
2
10
26.418447
20
16.895610
11
26.989947
21
16.895610
0
LINE
8
hole
62
5
39
2
10
26.989947
20
16.895610
11
26.989947
21
17.467110
0
LINE
8
hole
62
5
39
2
10
26.989947
20
17.467110
11
26.418447
21
17.467110
0
LINE
8
hole
62
5
39
2
10
26.418447
20
17.467110
11
26.418447
21
16.895610
0
LINE
8
boundary
62
5
39
2
10
42.209254
20
6.902931
11
43.282828
21
6.685434
0
LINE
8
boundary
62
5
39
2
10
43.282828
20
6.685434
11
43.385047
21
6.667500
0
LINE
8
boundary
62
5
39
2
10
43.385047
20
6.667500
11
43.380111
21
9.091390
0
LINE
8
boundary
62
5
39
2
10
43.380111
20
9.091390
11
43.407144
21
25.899147
0
LINE
8
boundary
62
5
39
2
10
43.407144
20
25.899147
11
42.574412
21
25.899147
0
LINE
8
boundary
62
5
39
2
10
42.574412
20
25.899147
11
41.296558
21
25.899147
0
LINE
8
boundary
62
5
39
2
10
41.296558
20
25.899147
11
40.366278
21
25.899147
0
LINE
8
boundary
62
5
39
2
10
40.366278
20
25.899147
11
39.809900
21
25.966881
0
LINE
8
boundary
62
5
39
2
10
39.809900
20
25.966881
11
39.097533
21
26.072377
0
LINE
8
boundary
62
5
39
2
10
39.097533
20
26.072377
11
38.561545
21
26.155161
0
LINE
8
boundary
62
5
39
2
10
38.561545
20
26.155161
11
38.170327
21
26.225593
0
LINE
8
boundary
62
5
39
2
10
38.170327
20
26.225593
11
37.900465
21
26.280714
0
LINE
8
boundary
62
5
39
2
10
37.900465
20
26.280714
11
37.729057
21
26.319569
0
LINE
8
boundary
62
5
39
2
10
37.729057
20
26.319569
11
36.592916
21
26.587067
0
LINE
8
boundary
62
5
39
2
10
36.592916
20
26.587067
11
36.424318
21
26.628053
0
LINE
8
boundary
62
5
39
2
10
36.424318
20
26.628053
11
36.328479
21
26.652197
0
LINE
8
boundary
62
5
39
2
10
36.328479
20
26.652197
11
36.289696
21
26.662297
0
LINE
8
boundary
62
5
39
2
10
36.289696
20
26.662297
11
36.063996
21
26.722672
0
LINE
8
boundary
62
5
39
2
10
36.063996
20
26.722672
11
35.646972
21
26.858764
0
LINE
8
boundary
62
5
39
2
10
35.646972
20
26.858764
11
33.980023
21
27.402760
0
LINE
8
boundary
62
5
39
2
10
33.980023
20
27.402760
11
33.575923
21
27.573447
0
LINE
8
boundary
62
5
39
2
10
33.575923
20
27.573447
11
31.960637
21
28.255725
0
LINE
8
boundary
62
5
39
2
10
31.960637
20
28.255725
11
31.572326
21
28.459797
0
LINE
8
boundary
62
5
39
2
10
31.572326
20
28.459797
11
30.020150
21
29.275521
0
LINE
8
boundary
62
5
39
2
10
30.020150
20
29.275521
11
29.650380
21
29.511531
0
LINE
8
boundary
62
5
39
2
10
29.650380
20
29.511531
11
28.172316
21
30.454922
0
LINE
8
boundary
62
5
39
2
10
28.172316
20
30.454922
11
27.823708
21
30.721197
0
LINE
8
boundary
62
5
39
2
10
27.823708
20
30.721197
11
26.430235
21
31.785567
0
LINE
8
boundary
62
5
39
2
10
26.430235
20
31.785567
11
26.105259
21
32.080221
0
LINE
8
boundary
62
5
39
2
10
26.105259
20
32.080221
11
24.806249
21
33.258027
0
LINE
8
boundary
62
5
39
2
10
24.806249
20
33.258027
11
24.507208
21
33.578971
0
LINE
8
boundary
62
5
39
2
10
24.507208
20
33.578971
11
23.311869
21
34.861866
0
LINE
8
boundary
62
5
39
2
10
23.311869
20
34.861866
11
23.040884
21
35.206826
0
LINE
8
boundary
62
5
39
2
10
23.040884
20
35.206826
11
21.957688
21
36.585717
0
LINE
8
boundary
62
5
39
2
10
21.957688
20
36.585717
11
21.716678
21
36.952247
0
LINE
8
boundary
62
5
39
2
10
21.716678
20
36.952247
11
20.753298
21
38.417360
0
LINE
8
boundary
62
5
39
2
10
20.753298
20
38.417360
11
20.543972
21
38.802863
0
LINE
8
boundary
62
5
39
2
10
20.543972
20
38.802863
11
19.707241
21
40.343817
0
LINE
8
boundary
62
5
39
2
10
19.707241
20
40.343817
11
19.531082
21
40.745562
0
LINE
8
boundary
62
5
39
2
10
19.531082
20
40.745562
11
18.826929
21
42.351433
0
LINE
8
boundary
62
5
39
2
10
18.826929
20
42.351433
11
18.685187
21
42.766571
0
LINE
8
boundary
62
5
39
2
10
18.685187
20
42.766571
11
18.118606
21
44.425979
0
LINE
8
boundary
62
5
39
2
10
18.118606
20
44.425979
11
18.012283
21
44.851568
0
LINE
8
boundary
62
5
39
2
10
18.012283
20
44.851568
11
17.587282
21
46.552752
0
LINE
8
boundary
62
5
39
2
10
17.587282
20
46.552752
11
17.517132
21
46.985776
0
LINE
8
boundary
62
5
39
2
10
17.517132
20
46.985776
11
17.236725
21
48.716679
0
LINE
8
boundary
62
5
39
2
10
17.236725
20
48.716679
11
17.203247
21
49.154069
0
LINE
8
boundary
62
5
39
2
10
17.203247
20
49.154069
11
17.069427
21
50.902424
0
LINE
8
boundary
62
5
39
2
10
17.069427
20
50.902424
11
17.102905
21
51.339814
0
LINE
8
boundary
62
5
39
2
10
17.102905
20
51.339814
11
17.236725
21
53.088169
0
LINE
8
boundary
62
5
39
2
10
17.236725
20
53.088169
11
17.306875
21
53.521193
0
LINE
8
boundary
62
5
39
2
10
17.306875
20
53.521193
11
17.587282
21
55.252097
0
LINE
8
boundary
62
5
39
2
10
17.587282
20
55.252097
11
17.693605
21
55.677685
0
LINE
8
boundary
62
5
39
2
10
17.693605
20
55.677685
11
18.118606
21
57.378870
0
LINE
8
boundary
62
5
39
2
10
18.118606
20
57.378870
11
18.260349
21
57.794008
0
LINE
8
boundary
62
5
39
2
10
18.260349
20
57.794008
11
18.826929
21
59.453416
0
LINE
8
boundary
62
5
39
2
10
18.826929
20
59.453416
11
19.003089
21
59.855160
0
LINE
8
boundary
62
5
39
2
10
19.003089
20
59.855160
11
19.707241
21
61.461032
0
LINE
8
boundary
62
5
39
2
10
19.707241
20
61.461032
11
19.916568
21
61.846535
0
LINE
8
boundary
62
5
39
2
10
19.916568
20
61.846535
11
20.753299
21
63.387489
0
LINE
8
boundary
62
5
39
2
10
20.753299
20
63.387489
11
20.994309
21
63.754019
0
LINE
8
boundary
62
5
39
2
10
20.994309
20
63.754019
11
21.957688
21
65.219132
0
LINE
8
boundary
62
5
39
2
10
21.957688
20
65.219132
11
22.228674
21
65.564092
0
LINE
8
boundary
62
5
39
2
10
22.228674
20
65.564092
11
23.311869
21
66.942983
0
LINE
8
boundary
62
5
39
2
10
23.311869
20
66.942983
11
23.610910
21
67.263928
0
LINE
8
boundary
62
5
39
2
10
23.610910
20
67.263928
11
24.806249
21
68.546822
0
LINE
8
boundary
62
5
39
2
10
24.806249
20
68.546822
11
25.131225
21
68.841476
0
LINE
8
boundary
62
5
39
2
10
25.131225
20
68.841476
11
26.430235
21
70.019282
0
LINE
8
boundary
62
5
39
2
10
26.430235
20
70.019282
11
26.778843
21
70.285558
0
LINE
8
boundary
62
5
39
2
10
26.778843
20
70.285558
11
28.172316
21
71.349927
0
LINE
8
boundary
62
5
39
2
10
28.172316
20
71.349927
11
28.542086
21
71.585937
0
LINE
8
boundary
62
5
39
2
10
28.542086
20
71.585937
11
30.020151
21
72.529328
0
LINE
8
boundary
62
5
39
2
10
30.020151
20
72.529328
11
30.408461
21
72.733399
0
LINE
8
boundary
62
5
39
2
10
30.408461
20
72.733399
11
31.960637
21
73.549124
0
LINE
8
boundary
62
5
39
2
10
31.960637
20
73.549124
11
32.364737
21
73.719811
0
LINE
8
boundary
62
5
39
2
10
32.364737
20
73.719811
11
33.980023
21
74.402089
0
LINE
8
boundary
62
5
39
2
10
33.980023
20
74.402089
11
34.397047
21
74.538182
0
LINE
8
boundary
62
5
39
2
10
34.397047
20
74.538182
11
36.063996
21
75.082177
0
LINE
8
boundary
62
5
39
2
10
36.063996
20
75.082177
11
36.289696
21
75.142552
0
LINE
8
boundary
62
5
39
2
10
36.289696
20
75.142552
11
36.328479
21
75.152652
0
LINE
8
boundary
62
5
39
2
10
36.328479
20
75.152652
11
36.424318
21
75.176796
0
LINE
8
boundary
62
5
39
2
10
36.424318
20
75.176796
11
36.592916
21
75.217782
0
LINE
8
boundary
62
5
39
2
10
36.592916
20
75.217782
11
37.729057
21
75.485280
0
LINE
8
boundary
62
5
39
2
10
37.729057
20
75.485280
11
37.900465
21
75.524135
0
LINE
8
boundary
62
5
39
2
10
37.900465
20
75.524135
11
38.170327
21
75.579256
0
LINE
8
boundary
62
5
39
2
10
38.170327
20
75.579256
11
38.561545
21
75.649688
0
LINE
8
boundary
62
5
39
2
10
38.561545
20
75.649688
11
39.097533
21
75.732472
0
LINE
8
boundary
62
5
39
2
10
39.097533
20
75.732472
11
39.809900
21
75.837968
0
LINE
8
boundary
62
5
39
2
10
39.809900
20
75.837968
11
40.366278
21
75.905702
0
LINE
8
boundary
62
5
39
2
10
40.366278
20
75.905702
11
41.296558
21
75.905702
0
LINE
8
boundary
62
5
39
2
10
41.296558
20
75.905702
11
42.574412
21
75.905702
0
LINE
8
boundary
62
5
39
2
10
42.574412
20
75.905702
11
43.407144
21
75.905702
0
LINE
8
boundary
62
5
39
2
10
43.407144
20
75.905702
11
43.380111
21
92.713459
0
LINE
8
boundary
62
5
39
2
10
43.380111
20
92.713459
11
43.385047
21
95.137349
0
LINE
8
boundary
62
5
39
2
10
43.385047
20
95.137349
11
43.294287
21
95.121478
0
LINE
8
boundary
62
5
39
2
10
43.294287
20
95.121478
11
43.271442
21
95.116982
0
LINE
8
boundary
62
5
39
2
10
43.271442
20
95.116982
11
42.051529
21
94.868214
0
LINE
8
boundary
62
5
39
2
10
42.051529
20
94.868214
11
41.157016
21
94.663359
0
LINE
8
boundary
62
5
39
2
10
41.157016
20
94.663359
11
40.509636
21
94.497787
0
LINE
8
boundary
62
5
39
2
10
40.509636
20
94.497787
11
39.715106
21
94.287191
0
LINE
8
boundary
62
5
39
2
10
39.715106
20
94.287191
11
39.052781
21
94.103156
0
LINE
8
boundary
62
5
39
2
10
39.052781
20
94.103156
11
38.574128
21
93.961204
0
LINE
8
boundary
62
5
39
2
10
38.574128
20
93.961204
11
38.249816
21
93.858985
0
LINE
8
boundary
62
5
39
2
10
38.249816
20
93.858985
11
38.051161
21
93.792649
0
LINE
8
boundary
62
5
39
2
10
38.051161
20
93.792649
11
36.612769
21
93.309785
0
LINE
8
boundary
62
5
39
2
10
36.612769
20
93.309785
11
36.399859
21
93.236385
0
LINE
8
boundary
62
5
39
2
10
36.399859
20
93.236385
11
36.279810
21
93.194186
0
LINE
8
boundary
62
5
39
2
10
36.279810
20
93.194186
11
36.231336
21
93.176857
0
LINE
8
boundary
62
5
39
2
10
36.231336
20
93.176857
11
35.970590
21
93.082254
0
LINE
8
boundary
62
5
39
2
10
35.970590
20
93.082254
11
35.633232
21
92.944113
0
LINE
8
boundary
62
5
39
2
10
35.633232
20
92.944113
11
33.273216
21
91.977739
0
LINE
8
boundary
62
5
39
2
10
33.273216
20
91.977739
11
32.945508
21
91.818052
0
LINE
8
boundary
62
5
39
2
10
32.945508
20
91.818052
11
30.652994
21
90.700940
0
LINE
8
boundary
62
5
39
2
10
30.652994
20
90.700940
11
30.336310
21
90.520374
0
LINE
8
boundary
62
5
39
2
10
30.336310
20
90.520374
11
28.120916
21
89.257208
0
LINE
8
boundary
62
5
39
2
10
28.120916
20
89.257208
11
27.816584
21
89.056523
0
LINE
8
boundary
62
5
39
2
10
27.816584
20
89.056523
11
25.687599
21
87.652607
0
LINE
8
boundary
62
5
39
2
10
25.687599
20
87.652607
11
25.396896
21
87.432643
0
LINE
8
boundary
62
5
39
2
10
25.396896
20
87.432643
11
23.363250
21
85.893863
0
LINE
8
boundary
62
5
39
2
10
23.363250
20
85.893863
11
23.087395
21
85.655543
0
LINE
8
boundary
62
5
39
2
10
23.087395
20
85.655543
11
21.157622
21
83.988350
0
LINE
8
boundary
62
5
39
2
10
21.157622
20
83.988350
11
20.897771
21
83.732673
0
LINE
8
boundary
62
5
39
2
10
20.897771
20
83.732673
11
19.079957
21
81.944062
0
LINE
8
boundary
62
5
39
2
10
19.079957
20
81.944062
11
18.837202
21
81.672101
0
LINE
8
boundary
62
5
39
2
10
18.837202
20
81.672101
11
17.138981
21
79.769576
0
LINE
8
boundary
62
5
39
2
10
17.138981
20
79.769576
11
16.914338
21
79.482473
0
LINE
8
boundary
62
5
39
2
10
16.914338
20
79.482473
11
15.342828
21
77.474016
0
LINE
8
boundary
62
5
39
2
10
15.342828
20
77.474016
11
15.137240
21
77.172973
0
LINE
8
boundary
62
5
39
2
10
15.137240
20
77.172973
11
13.699032
21
75.067000
0
LINE
8
boundary
62
5
39
2
10
13.699032
20
75.067000
11
13.513363
21
74.753282
0
LINE
8
boundary
62
5
39
2
10
13.513363
20
74.753282
11
12.214491
21
72.558632
0
LINE
8
boundary
62
5
39
2
10
12.214491
20
72.558632
11
12.049517
21
72.233553
0
LINE
8
boundary
62
5
39
2
10
12.049517
20
72.233553
11
10.895428
21
69.959428
0
LINE
8
boundary
62
5
39
2
10
10.895428
20
69.959428
11
10.751842
21
69.624352
0
LINE
8
boundary
62
5
39
2
10
10.751842
20
69.624352
11
9.747378
21
67.280293
0
LINE
8
boundary
62
5
39
2
10
9.747378
20
67.280293
11
9.625784
21
66.936626
0
LINE
8
boundary
62
5
39
2
10
9.625784
20
66.936626
11
8.775157
21
64.532464
0
LINE
8
boundary
62
5
39
2
10
8.775157
20
64.532464
11
8.676063
21
64.181646
0
LINE
8
boundary
62
5
39
2
10
8.676063
20
64.181646
11
7.982839
21
61.727465
0
LINE
8
boundary
62
5
39
2
10
7.982839
20
61.727465
11
7.906661
21
61.370969
0
LINE
8
boundary
62
5
39
2
10
7.906661
20
61.370969
11
7.373749
21
58.877065
0
LINE
8
boundary
62
5
39
2
10
7.373749
20
58.877065
11
7.320807
21
58.516385
0
LINE
8
boundary
62
5
39
2
10
7.320807
20
58.516385
11
6.950444
21
55.993214
0
LINE
8
boundary
62
5
39
2
10
6.950444
20
55.993214
11
6.920959
21
55.629864
0
LINE
8
boundary
62
5
39
2
10
6.920959
20
55.629864
11
6.714696
21
53.088011
0
LINE
8
boundary
62
5
39
2
10
6.714696
20
53.088011
11
6.708794
21
52.723514
0
LINE
8
boundary
62
5
39
2
10
6.708794
20
52.723514
11
6.667500
21
50.173641
0
LINE
8
boundary
62
5
39
2
10
6.667500
20
50.173641
11
6.685203
21
49.809526
0
LINE
8
boundary
62
5
39
2
10
6.685203
20
49.809526
11
6.809049
21
47.262328
0
LINE
8
boundary
62
5
39
2
10
6.809049
20
47.262328
11
6.850284
21
46.900123
0
LINE
8
boundary
62
5
39
2
10
6.850284
20
46.900123
11
7.138747
21
44.366283
0
LINE
8
boundary
62
5
39
2
10
7.138747
20
44.366283
11
7.203341
21
44.007506
0
LINE
8
boundary
62
5
39
2
10
7.203341
20
44.007506
11
7.655212
21
41.497651
0
LINE
8
boundary
62
5
39
2
10
7.655212
20
41.497651
11
7.742894
21
41.143808
0
LINE
8
boundary
62
5
39
2
10
7.742894
20
41.143808
11
8.356281
21
38.668468
0
LINE
8
boundary
62
5
39
2
10
8.356281
20
38.668468
11
8.466683
21
38.321043
0
LINE
8
boundary
62
5
39
2
10
8.466683
20
38.321043
11
9.239015
21
35.890599
0
LINE
8
boundary
62
5
39
2
10
9.239015
20
35.890599
11
9.371675
21
35.551048
0
LINE
8
boundary
62
5
39
2
10
9.371675
20
35.551048
11
10.299709
21
33.175692
0
LINE
8
boundary
62
5
39
2
10
10.299709
20
33.175692
11
10.454070
21
32.845441
0
LINE
8
boundary
62
5
39
2
10
10.454070
20
32.845441
11
11.533915
21
30.535139
0
LINE
8
boundary
62
5
39
2
10
11.533915
20
30.535139
11
11.709328
21
30.215572
0
LINE
8
boundary
62
5
39
2
10
11.709328
20
30.215572
11
12.936449
21
27.980014
0
LINE
8
boundary
62
5
39
2
10
12.936449
20
27.980014
11
13.132180
21
27.672472
0
LINE
8
boundary
62
5
39
2
10
13.132180
20
27.672472
11
14.501439
21
25.521031
0
LINE
8
boundary
62
5
39
2
10
14.501439
20
25.521031
11
14.716667
21
25.226804
0
LINE
8
boundary
62
5
39
2
10
14.716667
20
25.226804
11
16.222313
21
23.168507
0
LINE
8
boundary
62
5
39
2
10
16.222313
20
23.168507
11
16.456135
21
22.888828
0
LINE
8
boundary
62
5
39
2
10
16.456135
20
22.888828
11
18.091860
21
20.932309
0
LINE
8
boundary
62
5
39
2
10
18.091860
20
20.932309
11
18.343296
21
20.668353
0
LINE
8
boundary
62
5
39
2
10
18.343296
20
20.668353
11
20.102236
21
18.821818
0
LINE
8
boundary
62
5
39
2
10
20.102236
20
18.821818
11
20.370230
21
18.574691
0
LINE
8
boundary
62
5
39
2
10
20.370230
20
18.574691
11
22.245007
21
16.845882
0
LINE
8
boundary
62
5
39
2
10
22.245007
20
16.845882
11
22.528435
21
16.616620
0
LINE
8
boundary
62
5
39
2
10
22.528435
20
16.616620
11
24.511181
21
15.012794
0
LINE
8
boundary
62
5
39
2
10
24.511181
20
15.012794
11
24.808855
21
14.802359
0
LINE
8
boundary
62
5
39
2
10
24.808855
20
14.802359
11
26.891263
21
13.330239
0
LINE
8
boundary
62
5
39
2
10
26.891263
20
13.330239
11
27.201934
21
13.139513
0
LINE
8
boundary
62
5
39
2
10
27.201934
20
13.139513
11
29.375265
21
11.805271
0
LINE
8
boundary
62
5
39
2
10
29.375265
20
11.805271
11
29.697630
21
11.635055
0
LINE
8
boundary
62
5
39
2
10
29.697630
20
11.635055
11
31.952768
21
10.444293
0
LINE
8
boundary
62
5
39
2
10
31.952768
20
10.444293
11
32.285475
21
10.295300
0
LINE
8
boundary
62
5
39
2
10
32.285475
20
10.295300
11
34.612960
21
9.253011
0
LINE
8
boundary
62
5
39
2
10
34.612960
20
9.253011
11
35.383097
21
8.959392
0
LINE
8
boundary
62
5
39
2
10
35.383097
20
8.959392
11
35.471156
21
8.926597
0
LINE
8
boundary
62
5
39
2
10
35.471156
20
8.926597
11
37.098271
21
8.321078
0
LINE
8
boundary
62
5
39
2
10
37.098271
20
8.321078
11
37.170920
21
8.295651
0
LINE
8
boundary
62
5
39
2
10
37.170920
20
8.295651
11
37.328056
21
8.241984
0
LINE
8
boundary
62
5
39
2
10
37.328056
20
8.241984
11
37.592685
21
8.154683
0
LINE
8
boundary
62
5
39
2
10
37.592685
20
8.154683
11
37.993611
21
8.028118
0
LINE
8
boundary
62
5
39
2
10
37.993611
20
8.028118
11
38.560542
21
7.858113
0
LINE
8
boundary
62
5
39
2
10
38.560542
20
7.858113
11
39.549827
21
7.561294
0
LINE
8
boundary
62
5
39
2
10
39.549827
20
7.561294
11
40.110666
21
7.405925
0
LINE
8
boundary
62
5
39
2
10
40.110666
20
7.405925
11
40.872244
21
7.212056
0
LINE
8
boundary
62
5
39
2
10
40.872244
20
7.212056
11
41.894978
21
6.975428
0
LINE
8
boundary
62
5
39
2
10
41.894978
20
6.975428
11
42.209254
21
6.902931
0
LINE
8
annotation
62
1
39
211
10
38.153525
20
19.899146
11
38.153235
21
20.147081
0
LINE
8
annotation
62
1
39
211
10
38.153243
20
81.657769
11
38.153532
21
81.905702
0
LINE
8
annotation
62
1
39
211
10
41.709369
20
23.033551
11
43.138119
21
23.033551
0
LINE
8
annotation
62
1
39
211
10
15.429374
20
51.132301
11
15.429374
21
49.703551
0
LINE
8
annotation
62
1
39
211
10
27.180447
20
85.099739
11
27.180447
21
86.528489
0
LINE
8
annotation
62
1
39
211
10
27.180447
20
85.099739
11
27.180447
21
86.528489
0
LINE
8
annotation
62
1
39
211
10
27.180447
20
86.528489
11
27.180447
21
85.099739
0
LINE
8
annotation
62
1
39
211
10
27.180447
20
85.099739
11
28.609197
21
85.099739
0
LINE
8
annotation
62
1
39
211
10
27.180447
20
85.099739
11
27.180447
21
86.528489
0
LINE
8
annotation
62
1
39
211
10
27.180447
20
86.528489
11
27.180447
21
85.099739
0
LINE
8
annotation
62
1
39
211
10
27.180447
20
85.099739
11
28.609197
21
85.099739
0
LINE
8
annotation
62
1
39
211
10
28.609197
20
85.099739
11
27.180447
21
85.099739
0
LINE
8
annotation
62
1
39
211
10
27.180447
20
85.099739
11
27.180447
21
83.670989
0
LINE
8
annotation
62
1
39
211
10
26.704197
20
17.181360
11
25.275447
21
17.181360
0
LINE
8
annotation
62
1
39
211
10
32.648762
20
17.512751
11
31.234124
21
17.512751
0
LINE
8
annotation
62
1
39
211
10
31.234124
20
17.512751
11
32.541296
21
19.617130
0
LINE
8
annotation
62
1
39
211
10
32.541296
20
19.617130
11
32.541296
21
19.617130
0
LINE
8
annotation
62
1
39
211
10
32.541296
20
19.617130
11
32.542858
21
19.619064
0
LINE
8
annotation
62
1
39
211
10
32.542858
20
19.619064
11
32.544357
21
19.621014
0
LINE
8
annotation
62
1
39
211
10
32.544357
20
19.621014
11
32.545801
21
19.622997
0
LINE
8
annotation
62
1
39
211
10
32.545801
20
19.622997
11
32.547201
21
19.625029
0
LINE
8
annotation
62
1
39
211
10
32.547201
20
19.625029
11
32.548566
21
19.627127
0
LINE
8
annotation
62
1
39
211
10
32.548566
20
19.627127
11
32.549907
21
19.629307
0
LINE
8
annotation
62
1
39
211
10
32.549907
20
19.629307
11
32.551233
21
19.631586
0
LINE
8
annotation
62
1
39
211
10
32.551233
20
19.631586
11
32.552554
21
19.633980
0
LINE
8
annotation
62
1
39
211
10
32.552554
20
19.633980
11
32.553880
21
19.636506
0
LINE
8
annotation
62
1
39
211
10
32.553880
20
19.636506
11
32.553880
21
19.636506
0
LINE
8
annotation
62
1
39
211
10
32.553880
20
19.636506
11
32.607853
21
19.752390
0
LINE
8
annotation
62
1
39
211
10
32.607853
20
19.752390
11
32.639383
21
19.872514
0
LINE
8
annotation
62
1
39
211
10
32.639383
20
19.872514
11
32.649243
21
19.994164
0
LINE
8
annotation
62
1
39
211
10
32.649243
20
19.994164
11
32.638205
21
20.114625
0
LINE
8
annotation
62
1
39
211
10
32.638205
20
20.114625
11
32.607043
21
20.231184
0
LINE
8
annotation
62
1
39
211
10
32.607043
20
20.231184
11
32.556528
21
20.341125
0
LINE
8
annotation
62
1
39
211
10
32.556528
20
20.341125
11
32.487435
21
20.441734
0
LINE
8
annotation
62
1
39
211
10
32.487435
20
20.441734
11
32.400535
21
20.530297
0
LINE
8
annotation
62
1
39
211
10
32.400535
20
20.530297
11
32.296600
21
20.604101
0
LINE
8
annotation
62
1
39
211
10
32.296600
20
20.604101
11
32.296600
21
20.604101
0
LINE
8
annotation
62
1
39
211
10
32.296600
20
20.604101
11
32.180394
21
20.657307
0
LINE
8
annotation
62
1
39
211
10
32.180394
20
20.657307
11
32.060086
21
20.688351
0
LINE
8
annotation
62
1
39
211
10
32.060086
20
20.688351
11
31.938365
21
20.697932
0
LINE
8
annotation
62
1
39
211
10
31.938365
20
20.697932
11
31.817922
21
20.686749
0
LINE
8
annotation
62
1
39
211
10
31.817922
20
20.686749
11
31.701446
21
20.655500
0
LINE
8
annotation
62
1
39
211
10
31.701446
20
20.655500
11
31.591626
21
20.604885
0
LINE
8
annotation
62
1
39
211
10
31.591626
20
20.604885
11
31.491153
21
20.535601
0
LINE
8
annotation
62
1
39
211
10
31.491153
20
20.535601
11
31.402717
21
20.448348
0
LINE
8
annotation
62
1
39
211
10
31.402717
20
20.448348
11
31.329005
21
20.343825
0
LINE
8
annotation
62
1
39
211
10
31.329005
20
20.343825
11
31.236121
21
20.165647
0
LINE
8
annotation
62
1
39
211
10
35.585395
20
19.105393
11
33.843764
21
19.105393
0
LINE
8
annotation
62
1
39
211
10
38.194437
20
17.512751
11
36.779798
21
17.512751
0
LINE
8
annotation
62
1
39
211
10
36.779798
20
17.512751
11
38.086970
21
19.617130
0
LINE
8
annotation
62
1
39
211
10
38.086970
20
19.617130
11
38.086970
21
19.617130
0
LINE
8
annotation
62
1
39
211
10
38.086970
20
19.617130
11
38.088533
21
19.619064
0
LINE
8
annotation
62
1
39
211
10
38.088533
20
19.619064
11
38.090032
21
19.621014
0
LINE
8
annotation
62
1
39
211
10
38.090032
20
19.621014
11
38.091476
21
19.622997
0
LINE
8
annotation
62
1
39
211
10
38.091476
20
19.622997
11
38.092876
21
19.625029
0
LINE
8
annotation
62
1
39
211
10
38.092876
20
19.625029
11
38.094241
21
19.627127
0
LINE
8
annotation
62
1
39
211
10
38.094241
20
19.627127
11
38.095582
21
19.629307
0
LINE
8
annotation
62
1
39
211
10
38.095582
20
19.629307
11
38.096908
21
19.631586
0
LINE
8
annotation
62
1
39
211
10
38.096908
20
19.631586
11
38.098229
21
19.633980
0
LINE
8
annotation
62
1
39
211
10
38.098229
20
19.633980
11
38.099555
21
19.636506
0
LINE
8
annotation
62
1
39
211
10
38.099555
20
19.636506
11
38.099555
21
19.636506
0
LINE
8
annotation
62
1
39
211
10
38.099555
20
19.636506
11
38.153528
21
19.752390
0
LINE
8
annotation
62
1
39
211
10
38.153528
20
19.752390
11
38.185058
21
19.872514
0
LINE
8
annotation
62
1
39
211
10
38.185058
20
19.872514
11
38.194917
21
19.994164
0
LINE
8
annotation
62
1
39
211
10
38.194917
20
19.994164
11
38.183880
21
20.114625
0
LINE
8
annotation
62
1
39
211
10
38.183880
20
20.114625
11
38.152718
21
20.231184
0
LINE
8
annotation
62
1
39
211
10
38.152718
20
20.231184
11
38.102203
21
20.341125
0
LINE
8
annotation
62
1
39
211
10
38.102203
20
20.341125
11
38.033110
21
20.441734
0
LINE
8
annotation
62
1
39
211
10
38.033110
20
20.441734
11
37.946209
21
20.530297
0
LINE
8
annotation
62
1
39
211
10
37.946209
20
20.530297
11
37.842275
21
20.604101
0
LINE
8
annotation
62
1
39
211
10
37.842275
20
20.604101
11
37.842275
21
20.604101
0
LINE
8
annotation
62
1
39
211
10
37.842275
20
20.604101
11
37.726069
21
20.657307
0
LINE
8
annotation
62
1
39
211
10
37.726069
20
20.657307
11
37.605760
21
20.688351
0
LINE
8
annotation
62
1
39
211
10
37.605760
20
20.688351
11
37.484040
21
20.697932
0
LINE
8
annotation
62
1
39
211
10
37.484040
20
20.697932
11
37.363597
21
20.686749
0
LINE
8
annotation
62
1
39
211
10
37.363597
20
20.686749
11
37.247121
21
20.655500
0
LINE
8
annotation
62
1
39
211
10
37.247121
20
20.655500
11
37.137301
21
20.604885
0
LINE
8
annotation
62
1
39
211
10
37.137301
20
20.604885
11
37.036828
21
20.535601
0
LINE
8
annotation
62
1
39
211
10
37.036828
20
20.535601
11
36.948391
21
20.448348
0
LINE
8
annotation
62
1
39
211
10
36.948391
20
20.448348
11
36.874680
21
20.343825
0
LINE
8
annotation
62
1
39
211
10
36.874680
20
20.343825
11
36.781796
21
20.165647
0
LINE
8
hole
62
5
39
2
10
23.084697
20
175.982588
11
23.656197
21
175.982588
0
LINE
8
hole
62
5
39
2
10
23.656197
20
175.982588
11
23.656197
21
176.554088
0
LINE
8
hole
62
5
39
2
10
23.656197
20
176.554088
11
23.084697
21
176.554088
0
LINE
8
hole
62
5
39
2
10
23.084697
20
176.554088
11
23.084697
21
175.982588
0
LINE
8
hole
62
5
39
2
10
8.118145
20
113.964025
11
8.689645
21
113.964025
0
LINE
8
hole
62
5
39
2
10
8.689645
20
113.964025
11
8.689645
21
114.535525
0
LINE
8
hole
62
5
39
2
10
8.689645
20
114.535525
11
8.118145
21
114.535525
0
LINE
8
hole
62
5
39
2
10
8.118145
20
114.535525
11
8.118145
21
113.964025
0
LINE
8
hole
62
5
39
2
10
34.359520
20
142.491400
11
34.931020
21
142.491400
0
LINE
8
hole
62
5
39
2
10
34.931020
20
142.491400
11
34.931020
21
143.062900
0
LINE
8
hole
62
5
39
2
10
34.931020
20
143.062900
11
34.359520
21
143.062900
0
LINE
8
hole
62
5
39
2
10
34.359520
20
143.062900
11
34.359520
21
142.491400
0
LINE
8
hole
62
5
39
2
10
23.084697
20
108.540459
11
23.656197
21
108.540459
0
LINE
8
hole
62
5
39
2
10
23.656197
20
108.540459
11
23.656197
21
109.111959
0
LINE
8
hole
62
5
39
2
10
23.656197
20
109.111959
11
23.084697
21
109.111959
0
LINE
8
hole
62
5
39
2
10
23.084697
20
109.111959
11
23.084697
21
108.540459
0
LINE
8
boundary
62
5
39
2
10
26.463735
20
126.185770
11
25.268396
21
124.902876
0
LINE
8
boundary
62
5
39
2
10
25.268396
20
124.902876
11
24.943420
21
124.608222
0
LINE
8
boundary
62
5
39
2
10
24.943420
20
124.608222
11
23.644409
21
123.430416
0
LINE
8
boundary
62
5
39
2
10
23.644409
20
123.430416
11
23.295801
21
123.164140
0
LINE
8
boundary
62
5
39
2
10
23.295801
20
123.164140
11
21.902328
21
122.099771
0
LINE
8
boundary
62
5
39
2
10
21.902328
20
122.099771
11
21.532558
21
121.863761
0
LINE
8
boundary
62
5
39
2
10
21.532558
20
121.863761
11
20.054494
21
120.920370
0
LINE
8
boundary
62
5
39
2
10
20.054494
20
120.920370
11
19.666183
21
120.716299
0
LINE
8
boundary
62
5
39
2
10
19.666183
20
120.716299
11
18.114007
21
119.900574
0
LINE
8
boundary
62
5
39
2
10
18.114007
20
119.900574
11
17.709908
21
119.729887
0
LINE
8
boundary
62
5
39
2
10
17.709908
20
119.729887
11
16.094622
21
119.047609
0
LINE
8
boundary
62
5
39
2
10
16.094622
20
119.047609
11
15.677598
21
118.911516
0
LINE
8
boundary
62
5
39
2
10
15.677598
20
118.911516
11
14.010648
21
118.367521
0
LINE
8
boundary
62
5
39
2
10
14.010648
20
118.367521
11
13.784949
21
118.307146
0
LINE
8
boundary
62
5
39
2
10
13.784949
20
118.307146
11
13.746165
21
118.297046
0
LINE
8
boundary
62
5
39
2
10
13.746165
20
118.297046
11
13.650327
21
118.272902
0
LINE
8
boundary
62
5
39
2
10
13.650327
20
118.272902
11
13.481728
21
118.231916
0
LINE
8
boundary
62
5
39
2
10
13.481728
20
118.231916
11
12.345587
21
117.964418
0
LINE
8
boundary
62
5
39
2
10
12.345587
20
117.964418
11
12.174179
21
117.925563
0
LINE
8
boundary
62
5
39
2
10
12.174179
20
117.925563
11
11.904317
21
117.870442
0
LINE
8
boundary
62
5
39
2
10
11.904317
20
117.870442
11
11.513100
21
117.800010
0
LINE
8
boundary
62
5
39
2
10
11.513100
20
117.800010
11
10.977111
21
117.717226
0
LINE
8
boundary
62
5
39
2
10
10.977111
20
117.717226
11
10.264744
21
117.611730
0
LINE
8
boundary
62
5
39
2
10
10.264744
20
117.611730
11
9.708366
21
117.543996
0
LINE
8
boundary
62
5
39
2
10
9.708366
20
117.543996
11
8.778086
21
117.543996
0
LINE
8
boundary
62
5
39
2
10
8.778086
20
117.543996
11
7.500232
21
117.543996
0
LINE
8
boundary
62
5
39
2
10
7.500232
20
117.543996
11
6.667500
21
117.543996
0
LINE
8
boundary
62
5
39
2
10
6.667500
20
117.543996
11
6.694533
21
100.736239
0
LINE
8
boundary
62
5
39
2
10
6.694533
20
100.736239
11
6.689598
21
98.312349
0
LINE
8
boundary
62
5
39
2
10
6.689598
20
98.312349
11
6.791816
21
98.330283
0
LINE
8
boundary
62
5
39
2
10
6.791816
20
98.330283
11
7.865390
21
98.547781
0
LINE
8
boundary
62
5
39
2
10
7.865390
20
98.547781
11
8.630720
21
98.725030
0
LINE
8
boundary
62
5
39
2
10
8.630720
20
98.725030
11
9.202401
21
98.856905
0
LINE
8
boundary
62
5
39
2
10
9.202401
20
98.856905
11
9.963979
21
99.050774
0
LINE
8
boundary
62
5
39
2
10
9.963979
20
99.050774
11
10.524818
21
99.206143
0
LINE
8
boundary
62
5
39
2
10
10.524818
20
99.206143
11
10.914331
21
99.322916
0
LINE
8
boundary
62
5
39
2
10
10.914331
20
99.322916
11
12.081033
21
99.672967
0
LINE
8
boundary
62
5
39
2
10
12.081033
20
99.672967
11
12.481960
21
99.799532
0
LINE
8
boundary
62
5
39
2
10
12.481960
20
99.799532
11
12.746589
21
99.886833
0
LINE
8
boundary
62
5
39
2
10
12.746589
20
99.886833
11
12.903725
21
99.940500
0
LINE
8
boundary
62
5
39
2
10
12.903725
20
99.940500
11
12.976373
21
99.965927
0
LINE
8
boundary
62
5
39
2
10
12.976373
20
99.965927
11
12.984783
21
99.969080
0
LINE
8
boundary
62
5
39
2
10
12.984783
20
99.969080
11
14.691547
21
100.604241
0
LINE
8
boundary
62
5
39
2
10
14.691547
20
100.604241
11
15.461684
21
100.897860
0
LINE
8
boundary
62
5
39
2
10
15.461684
20
100.897860
11
15.794391
21
101.046852
0
LINE
8
boundary
62
5
39
2
10
15.794391
20
101.046852
11
18.121876
21
102.089142
0
LINE
8
boundary
62
5
39
2
10
18.121876
20
102.089142
11
18.444242
21
102.259358
0
LINE
8
boundary
62
5
39
2
10
18.444242
20
102.259358
11
20.699379
21
103.450120
0
LINE
8
boundary
62
5
39
2
10
20.699379
20
103.450120
11
21.010050
21
103.640846
0
LINE
8
boundary
62
5
39
2
10
21.010050
20
103.640846
11
23.183382
21
104.975088
0
LINE
8
boundary
62
5
39
2
10
23.183382
20
104.975088
11
23.481055
21
105.185523
0
LINE
8
boundary
62
5
39
2
10
23.481055
20
105.185523
11
25.563463
21
106.657643
0
LINE
8
boundary
62
5
39
2
10
25.563463
20
106.657643
11
25.846891
21
106.886905
0
LINE
8
boundary
62
5
39
2
10
25.846891
20
106.886905
11
27.829637
21
108.490731
0
LINE
8
boundary
62
5
39
2
10
27.829637
20
108.490731
11
28.097631
21
108.737859
0
LINE
8
boundary
62
5
39
2
10
28.097631
20
108.737859
11
29.972408
21
110.466668
0
LINE
8
boundary
62
5
39
2
10
29.972408
20
110.466668
11
30.223843
21
110.730624
0
LINE
8
boundary
62
5
39
2
10
30.223843
20
110.730624
11
31.982784
21
112.577158
0
LINE
8
boundary
62
5
39
2
10
31.982784
20
112.577158
11
32.216606
21
112.856837
0
LINE
8
boundary
62
5
39
2
10
32.216606
20
112.856837
11
33.852331
21
114.813356
0
LINE
8
boundary
62
5
39
2
10
33.852331
20
114.813356
11
34.067559
21
115.107583
0
LINE
8
boundary
62
5
39
2
10
34.067559
20
115.107583
11
35.573205
21
117.165880
0
LINE
8
boundary
62
5
39
2
10
35.573205
20
117.165880
11
35.768936
21
117.473422
0
LINE
8
boundary
62
5
39
2
10
35.768936
20
117.473422
11
37.138195
21
119.624863
0
LINE
8
boundary
62
5
39
2
10
37.138195
20
119.624863
11
37.313609
21
119.944429
0
LINE
8
boundary
62
5
39
2
10
37.313609
20
119.944429
11
38.540729
21
122.179988
0
LINE
8
boundary
62
5
39
2
10
38.540729
20
122.179988
11
38.695090
21
122.510239
0
LINE
8
boundary
62
5
39
2
10
38.695090
20
122.510239
11
39.774935
21
124.820541
0
LINE
8
boundary
62
5
39
2
10
39.774935
20
124.820541
11
39.907595
21
125.160091
0
LINE
8
boundary
62
5
39
2
10
39.907595
20
125.160091
11
40.835629
21
127.535448
0
LINE
8
boundary
62
5
39
2
10
40.835629
20
127.535448
11
40.946032
21
127.882872
0
LINE
8
boundary
62
5
39
2
10
40.946032
20
127.882872
11
41.718364
21
130.313317
0
LINE
8
boundary
62
5
39
2
10
41.718364
20
130.313317
11
41.806045
21
130.667159
0
LINE
8
boundary
62
5
39
2
10
41.806045
20
130.667159
11
42.419432
21
133.142500
0
LINE
8
boundary
62
5
39
2
10
42.419432
20
133.142500
11
42.484026
21
133.501276
0
LINE
8
boundary
62
5
39
2
10
42.484026
20
133.501276
11
42.935897
21
136.011132
0
LINE
8
boundary
62
5
39
2
10
42.935897
20
136.011132
11
42.977132
21
136.373337
0
LINE
8
boundary
62
5
39
2
10
42.977132
20
136.373337
11
43.265595
21
138.907177
0
LINE
8
boundary
62
5
39
2
10
43.265595
20
138.907177
11
43.283299
21
139.271291
0
LINE
8
boundary
62
5
39
2
10
43.283299
20
139.271291
11
43.407144
21
141.818490
0
LINE
8
boundary
62
5
39
2
10
43.407144
20
141.818490
11
43.401242
21
142.182987
0
LINE
8
boundary
62
5
39
2
10
43.401242
20
142.182987
11
43.359948
21
144.732860
0
LINE
8
boundary
62
5
39
2
10
43.359948
20
144.732860
11
43.330464
21
145.096210
0
LINE
8
boundary
62
5
39
2
10
43.330464
20
145.096210
11
43.124201
21
147.638063
0
LINE
8
boundary
62
5
39
2
10
43.124201
20
147.638063
11
43.071258
21
147.998743
0
LINE
8
boundary
62
5
39
2
10
43.071258
20
147.998743
11
42.700895
21
150.521914
0
LINE
8
boundary
62
5
39
2
10
42.700895
20
150.521914
11
42.624717
21
150.878410
0
LINE
8
boundary
62
5
39
2
10
42.624717
20
150.878410
11
42.091805
21
153.372315
0
LINE
8
boundary
62
5
39
2
10
42.091805
20
153.372315
11
41.992711
21
153.723132
0
LINE
8
boundary
62
5
39
2
10
41.992711
20
153.723132
11
41.299488
21
156.177313
0
LINE
8
boundary
62
5
39
2
10
41.299488
20
156.177313
11
41.177893
21
156.520981
0
LINE
8
boundary
62
5
39
2
10
41.177893
20
156.520981
11
40.327266
21
158.925142
0
LINE
8
boundary
62
5
39
2
10
40.327266
20
158.925142
11
40.183681
21
159.260219
0
LINE
8
boundary
62
5
39
2
10
40.183681
20
159.260219
11
39.179217
21
161.604277
0
LINE
8
boundary
62
5
39
2
10
39.179217
20
161.604277
11
39.014243
21
161.929356
0
LINE
8
boundary
62
5
39
2
10
39.014243
20
161.929356
11
37.860154
21
164.203481
0
LINE
8
boundary
62
5
39
2
10
37.860154
20
164.203481
11
37.674484
21
164.517200
0
LINE
8
boundary
62
5
39
2
10
37.674484
20
164.517200
11
36.375612
21
166.711849
0
LINE
8
boundary
62
5
39
2
10
36.375612
20
166.711849
11
36.170024
21
167.012892
0
LINE
8
boundary
62
5
39
2
10
36.170024
20
167.012892
11
34.731817
21
169.118865
0
LINE
8
boundary
62
5
39
2
10
34.731817
20
169.118865
11
34.507174
21
169.405968
0
LINE
8
boundary
62
5
39
2
10
34.507174
20
169.405968
11
32.935663
21
171.414425
0
LINE
8
boundary
62
5
39
2
10
32.935663
20
171.414425
11
32.692908
21
171.686385
0
LINE
8
boundary
62
5
39
2
10
32.692908
20
171.686385
11
30.994687
21
173.588911
0
LINE
8
boundary
62
5
39
2
10
30.994687
20
173.588911
11
30.734836
21
173.844588
0
LINE
8
boundary
62
5
39
2
10
30.734836
20
173.844588
11
28.917022
21
175.633199
0
LINE
8
boundary
62
5
39
2
10
28.917022
20
175.633199
11
28.641167
21
175.871519
0
LINE
8
boundary
62
5
39
2
10
28.641167
20
175.871519
11
26.711394
21
177.538712
0
LINE
8
boundary
62
5
39
2
10
26.711394
20
177.538712
11
26.420691
21
177.758676
0
LINE
8
boundary
62
5
39
2
10
26.420691
20
177.758676
11
24.387045
21
179.297456
0
LINE
8
boundary
62
5
39
2
10
24.387045
20
179.297456
11
24.082713
21
179.498142
0
LINE
8
boundary
62
5
39
2
10
24.082713
20
179.498142
11
21.953728
21
180.902058
0
LINE
8
boundary
62
5
39
2
10
21.953728
20
180.902058
11
21.637044
21
181.082623
0
LINE
8
boundary
62
5
39
2
10
21.637044
20
181.082623
11
19.421650
21
182.345789
0
LINE
8
boundary
62
5
39
2
10
19.421650
20
182.345789
11
19.093942
21
182.505477
0
LINE
8
boundary
62
5
39
2
10
19.093942
20
182.505477
11
16.801428
21
183.622589
0
LINE
8
boundary
62
5
39
2
10
16.801428
20
183.622589
11
16.464071
21
183.760729
0
LINE
8
boundary
62
5
39
2
10
16.464071
20
183.760729
11
14.104055
21
184.727103
0
LINE
8
boundary
62
5
39
2
10
14.104055
20
184.727103
11
13.843309
21
184.821706
0
LINE
8
boundary
62
5
39
2
10
13.843309
20
184.821706
11
13.794835
21
184.839036
0
LINE
8
boundary
62
5
39
2
10
13.794835
20
184.839036
11
13.674785
21
184.881234
0
LINE
8
boundary
62
5
39
2
10
13.674785
20
184.881234
11
13.461875
21
184.954634
0
LINE
8
boundary
62
5
39
2
10
13.461875
20
184.954634
11
13.131985
21
185.065025
0
LINE
8
boundary
62
5
39
2
10
13.131985
20
185.065025
11
11.824828
21
185.503834
0
LINE
8
boundary
62
5
39
2
10
11.824828
20
185.503834
11
11.500517
21
185.606053
0
LINE
8
boundary
62
5
39
2
10
11.500517
20
185.606053
11
11.021864
21
185.748005
0
LINE
8
boundary
62
5
39
2
10
11.021864
20
185.748005
11
10.359538
21
185.932040
0
LINE
8
boundary
62
5
39
2
10
10.359538
20
185.932040
11
9.565008
21
186.142637
0
LINE
8
boundary
62
5
39
2
10
9.565008
20
186.142637
11
8.917628
21
186.308208
0
LINE
8
boundary
62
5
39
2
10
8.917628
20
186.308208
11
8.023115
21
186.513063
0
LINE
8
boundary
62
5
39
2
10
8.023115
20
186.513063
11
6.803202
21
186.761831
0
LINE
8
boundary
62
5
39
2
10
6.803202
20
186.761831
11
6.780357
21
186.766327
0
LINE
8
boundary
62
5
39
2
10
6.780357
20
186.766327
11
6.689598
21
186.782198
0
LINE
8
boundary
62
5
39
2
10
6.689598
20
186.782198
11
6.694533
21
184.358308
0
LINE
8
boundary
62
5
39
2
10
6.694533
20
184.358308
11
6.667500
21
167.550552
0
LINE
8
boundary
62
5
39
2
10
6.667500
20
167.550552
11
7.500233
21
167.550552
0
LINE
8
boundary
62
5
39
2
10
7.500233
20
167.550552
11
8.778086
21
167.550551
0
LINE
8
boundary
62
5
39
2
10
8.778086
20
167.550551
11
9.708366
21
167.550552
0
LINE
8
boundary
62
5
39
2
10
9.708366
20
167.550552
11
10.264744
21
167.482817
0
LINE
8
boundary
62
5
39
2
10
10.264744
20
167.482817
11
10.977111
21
167.377321
0
LINE
8
boundary
62
5
39
2
10
10.977111
20
167.377321
11
11.513100
21
167.294537
0
LINE
8
boundary
62
5
39
2
10
11.513100
20
167.294537
11
11.904317
21
167.224105
0
LINE
8
boundary
62
5
39
2
10
11.904317
20
167.224105
11
12.174179
21
167.168984
0
LINE
8
boundary
62
5
39
2
10
12.174179
20
167.168984
11
12.345587
21
167.130130
0
LINE
8
boundary
62
5
39
2
10
12.345587
20
167.130130
11
13.481728
21
166.862631
0
LINE
8
boundary
62
5
39
2
10
13.481728
20
166.862631
11
13.650327
21
166.821645
0
LINE
8
boundary
62
5
39
2
10
13.650327
20
166.821645
11
13.746165
21
166.797501
0
LINE
8
boundary
62
5
39
2
10
13.746165
20
166.797501
11
13.784949
21
166.787401
0
LINE
8
boundary
62
5
39
2
10
13.784949
20
166.787401
11
14.010648
21
166.727027
0
LINE
8
boundary
62
5
39
2
10
14.010648
20
166.727027
11
14.427672
21
166.590934
0
LINE
8
boundary
62
5
39
2
10
14.427672
20
166.590934
11
16.094622
21
166.046938
0
LINE
8
boundary
62
5
39
2
10
16.094622
20
166.046938
11
16.498721
21
165.876251
0
LINE
8
boundary
62
5
39
2
10
16.498721
20
165.876251
11
18.114007
21
165.193973
0
LINE
8
boundary
62
5
39
2
10
18.114007
20
165.193973
11
18.502318
21
164.989901
0
LINE
8
boundary
62
5
39
2
10
18.502318
20
164.989901
11
20.054494
21
164.174177
0
LINE
8
boundary
62
5
39
2
10
20.054494
20
164.174177
11
20.424264
21
163.938167
0
LINE
8
boundary
62
5
39
2
10
20.424264
20
163.938167
11
21.902328
21
162.994776
0
LINE
8
boundary
62
5
39
2
10
21.902328
20
162.994776
11
22.250936
21
162.728501
0
LINE
8
boundary
62
5
39
2
10
22.250936
20
162.728501
11
23.644409
21
161.664132
0
LINE
8
boundary
62
5
39
2
10
23.644409
20
161.664132
11
23.969385
21
161.369477
0
LINE
8
boundary
62
5
39
2
10
23.969385
20
161.369477
11
25.268396
21
160.191671
0
LINE
8
boundary
62
5
39
2
10
25.268396
20
160.191671
11
25.567436
21
159.870727
0
LINE
8
boundary
62
5
39
2
10
25.567436
20
159.870727
11
26.762775
21
158.587832
0
LINE
8
boundary
62
5
39
2
10
26.762775
20
158.587832
11
27.033760
21
158.242873
0
LINE
8
boundary
62
5
39
2
10
27.033760
20
158.242873
11
28.116956
21
156.863981
0
LINE
8
boundary
62
5
39
2
10
28.116956
20
156.863981
11
28.357966
21
156.497451
0
LINE
8
boundary
62
5
39
2
10
28.357966
20
156.497451
11
29.321346
21
155.032339
0
LINE
8
boundary
62
5
39
2
10
29.321346
20
155.032339
11
29.530672
21
154.646835
0
LINE
8
boundary
62
5
39
2
10
29.530672
20
154.646835
11
30.367403
21
153.105881
0
LINE
8
boundary
62
5
39
2
10
30.367403
20
153.105881
11
30.543562
21
152.704137
0
LINE
8
boundary
62
5
39
2
10
30.543562
20
152.704137
11
31.247715
21
151.098265
0
LINE
8
boundary
62
5
39
2
10
31.247715
20
151.098265
11
31.389458
21
150.683128
0
LINE
8
boundary
62
5
39
2
10
31.389458
20
150.683128
11
31.956039
21
149.023719
0
LINE
8
boundary
62
5
39
2
10
31.956039
20
149.023719
11
32.062362
21
148.598131
0
LINE
8
boundary
62
5
39
2
10
32.062362
20
148.598131
11
32.487362
21
146.896946
0
LINE
8
boundary
62
5
39
2
10
32.487362
20
146.896946
11
32.557512
21
146.463922
0
LINE
8
boundary
62
5
39
2
10
32.557512
20
146.463922
11
32.837919
21
144.733019
0
LINE
8
boundary
62
5
39
2
10
32.837919
20
144.733019
11
32.871397
21
144.295629
0
LINE
8
boundary
62
5
39
2
10
32.871397
20
144.295629
11
33.005217
21
142.547274
0
LINE
8
boundary
62
5
39
2
10
33.005217
20
142.547274
11
32.971739
21
142.109884
0
LINE
8
boundary
62
5
39
2
10
32.971739
20
142.109884
11
32.837919
21
140.361529
0
LINE
8
boundary
62
5
39
2
10
32.837919
20
140.361529
11
32.767769
21
139.928505
0
LINE
8
boundary
62
5
39
2
10
32.767769
20
139.928505
11
32.487362
21
138.197602
0
LINE
8
boundary
62
5
39
2
10
32.487362
20
138.197602
11
32.381039
21
137.772013
0
LINE
8
boundary
62
5
39
2
10
32.381039
20
137.772013
11
31.956039
21
136.070828
0
LINE
8
boundary
62
5
39
2
10
31.956039
20
136.070828
11
31.814296
21
135.655690
0
LINE
8
boundary
62
5
39
2
10
31.814296
20
135.655690
11
31.247715
21
133.996282
0
LINE
8
boundary
62
5
39
2
10
31.247715
20
133.996282
11
31.071556
21
133.594538
0
LINE
8
boundary
62
5
39
2
10
31.071556
20
133.594538
11
30.367403
21
131.988667
0
LINE
8
boundary
62
5
39
2
10
30.367403
20
131.988667
11
30.158076
21
131.603163
0
LINE
8
boundary
62
5
39
2
10
30.158076
20
131.603163
11
29.321346
21
130.062209
0
LINE
8
boundary
62
5
39
2
10
29.321346
20
130.062209
11
29.080335
21
129.695679
0
LINE
8
boundary
62
5
39
2
10
29.080335
20
129.695679
11
28.116956
21
128.230566
0
LINE
8
boundary
62
5
39
2
10
28.116956
20
128.230566
11
27.845971
21
127.885606
0
LINE
8
boundary
62
5
39
2
10
27.845971
20
127.885606
11
26.762775
21
126.506715
0
LINE
8
boundary
62
5
39
2
10
26.762775
20
126.506715
11
26.463735
21
126.185770
0
LINE
8
annotation
62
1
39
211
10
11.921469
20
111.791939
11
11.921179
21
111.543996
0
LINE
8
annotation
62
1
39
211
10
11.921126
20
173.550552
11
11.921413
21
173.302616
0
LINE
8
annotation
62
1
39
211
10
34.645270
20
142.777150
11
34.645270
21
144.205900
0
LINE
8
annotation
62
1
39
211
10
8.403895
20
114.249775
11
8.403895
21
115.678525
0
LINE
8
annotation
62
1
39
211
10
8.403895
20
114.249775
11
8.403895
21
115.678525
0
LINE
8
annotation
62
1
39
211
10
8.403895
20
115.678525
11
8.403895
21
114.249775
0
LINE
8
annotation
62
1
39
211
10
8.403895
20
114.249775
11
9.832645
21
114.249775
0
LINE
8
annotation
62
1
39
211
10
23.370447
20
176.268338
11
23.370447
21
177.697088
0
LINE
8
annotation
62
1
39
211
10
23.370447
20
176.268338
11
23.370447
21
177.697088
0
LINE
8
annotation
62
1
39
211
10
23.370447
20
177.697088
11
23.370447
21
176.268338
0
LINE
8
annotation
62
1
39
211
10
23.370447
20
176.268338
11
23.370447
21
174.839588
0
LINE
8
annotation
62
1
39
211
10
23.370447
20
108.826209
11
24.799197
21
108.826209
0
LINE
8
annotation
62
1
39
211
10
23.370447
20
108.826209
11
24.799197
21
108.826209
0
LINE
8
annotation
62
1
39
211
10
24.799197
20
108.826209
11
23.370447
21
108.826209
0
LINE
8
annotation
62
1
39
211
10
23.370447
20
108.826209
11
23.370447
21
107.397459
0
LINE
8
annotation
62
1
39
211
10
13.647547
20
109.157600
11
12.232909
21
109.157600
0
LINE
8
annotation
62
1
39
211
10
12.232909
20
109.157600
11
13.540081
21
111.261979
0
LINE
8
annotation
62
1
39
211
10
13.540081
20
111.261979
11
13.540081
21
111.261979
0
LINE
8
annotation
62
1
39
211
10
13.540081
20
111.261979
11
13.541644
21
111.263913
0
LINE
8
annotation
62
1
39
211
10
13.541644
20
111.263913
11
13.543142
21
111.265863
0
LINE
8
annotation
62
1
39
211
10
13.543142
20
111.265863
11
13.544587
21
111.267846
0
LINE
8
annotation
62
1
39
211
10
13.544587
20
111.267846
11
13.545987
21
111.269878
0
LINE
8
annotation
62
1
39
211
10
13.545987
20
111.269878
11
13.547352
21
111.271976
0
LINE
8
annotation
62
1
39
211
10
13.547352
20
111.271976
11
13.548693
21
111.274156
0
LINE
8
annotation
62
1
39
211
10
13.548693
20
111.274156
11
13.550019
21
111.276435
0
LINE
8
annotation
62
1
39
211
10
13.550019
20
111.276435
11
13.551340
21
111.278829
0
LINE
8
annotation
62
1
39
211
10
13.551340
20
111.278829
11
13.552666
21
111.281355
0
LINE
8
annotation
62
1
39
211
10
13.552666
20
111.281355
11
13.552666
21
111.281355
0
LINE
8
annotation
62
1
39
211
10
13.552666
20
111.281355
11
13.606638
21
111.397239
0
LINE
8
annotation
62
1
39
211
10
13.606638
20
111.397239
11
13.638168
21
111.517363
0
LINE
8
annotation
62
1
39
211
10
13.638168
20
111.517363
11
13.648028
21
111.639013
0
LINE
8
annotation
62
1
39
211
10
13.648028
20
111.639013
11
13.636991
21
111.759474
0
LINE
8
annotation
62
1
39
211
10
13.636991
20
111.759474
11
13.605828
21
111.876033
0
LINE
8
annotation
62
1
39
211
10
13.605828
20
111.876033
11
13.555314
21
111.985974
0
LINE
8
annotation
62
1
39
211
10
13.555314
20
111.985974
11
13.486220
21
112.086583
0
LINE
8
annotation
62
1
39
211
10
13.486220
20
112.086583
11
13.399320
21
112.175147
0
LINE
8
annotation
62
1
39
211
10
13.399320
20
112.175147
11
13.295386
21
112.248950
0
LINE
8
annotation
62
1
39
211
10
13.295386
20
112.248950
11
13.295386
21
112.248950
0
LINE
8
annotation
62
1
39
211
10
13.295386
20
112.248950
11
13.179180
21
112.302156
0
LINE
8
annotation
62
1
39
211
10
13.179180
20
112.302156
11
13.058871
21
112.333200
0
LINE
8
annotation
62
1
39
211
10
13.058871
20
112.333200
11
12.937151
21
112.342781
0
LINE
8
annotation
62
1
39
211
10
12.937151
20
112.342781
11
12.816708
21
112.331598
0
LINE
8
annotation
62
1
39
211
10
12.816708
20
112.331598
11
12.700231
21
112.300349
0
LINE
8
annotation
62
1
39
211
10
12.700231
20
112.300349
11
12.590412
21
112.249734
0
LINE
8
annotation
62
1
39
211
10
12.590412
20
112.249734
11
12.489939
21
112.180450
0
LINE
8
annotation
62
1
39
211
10
12.489939
20
112.180450
11
12.401502
21
112.093198
0
LINE
8
annotation
62
1
39
211
10
12.401502
20
112.093198
11
12.327791
21
111.988674
0
LINE
8
annotation
62
1
39
211
10
12.327791
20
111.988674
11
12.234907
21
111.810496
0
LINE
8
annotation
62
1
39
211
10
16.584181
20
110.750242
11
14.842550
21
110.750242
0
LINE
8
annotation
62
1
39
211
10
18.486562
20
109.157626
11
18.486562
21
112.342859
0
LINE
8
annotation
62
1
39
211
10
18.486562
20
112.342859
11
17.778443
21
111.634541
0
LINE
8
hole
62
5
39
2
10
66.140725
20
83.850405
11
66.712225
21
83.850405
0
LINE
8
hole
62
5
39
2
10
66.712225
20
83.850405
11
66.712225
21
84.421905
0
LINE
8
hole
62
5
39
2
10
66.712225
20
84.421905
11
66.140725
21
84.421905
0
LINE
8
hole
62
5
39
2
10
66.140725
20
84.421905
11
66.140725
21
83.850405
0
LINE
8
hole
62
5
39
2
10
66.140725
20
16.841462
11
66.712225
21
16.841462
0
LINE
8
hole
62
5
39
2
10
66.712225
20
16.841462
11
66.712225
21
17.412962
0
LINE
8
hole
62
5
39
2
10
66.712225
20
17.412962
11
66.140725
21
17.412962
0
LINE
8
hole
62
5
39
2
10
66.140725
20
17.412962
11
66.140725
21
16.841462
0
LINE
8
hole
62
5
39
2
10
49.401958
20
50.345934
11
49.973458
21
50.345934
0
LINE
8
hole
62
5
39
2
10
49.973458
20
50.345934
11
49.973458
21
50.917434
0
LINE
8
hole
62
5
39
2
10
49.973458
20
50.917434
11
49.401958
21
50.917434
0
LINE
8
hole
62
5
39
2
10
49.401958
20
50.917434
11
49.401958
21
50.345934
0
LINE
8
hole
62
5
39
2
10
55.133653
20
50.677483
11
55.705153
21
50.677483
0
LINE
8
hole
62
5
39
2
10
55.705153
20
50.677483
11
55.705153
21
51.248983
0
LINE
8
hole
62
5
39
2
10
55.705153
20
51.248983
11
55.133653
21
51.248983
0
LINE
8
hole
62
5
39
2
10
55.133653
20
51.248983
11
55.133653
21
50.677483
0
LINE
8
boundary
62
5
39
2
10
76.222719
20
26.386893
11
76.184847
21
26.396770
0
LINE
8
boundary
62
5
39
2
10
76.184847
20
26.396770
11
75.978641
21
26.451931
0
LINE
8
boundary
62
5
39
2
10
75.978641
20
26.451931
11
74.228048
21
27.023222
0
LINE
8
boundary
62
5
39
2
10
74.228048
20
27.023222
11
73.894667
21
27.132019
0
LINE
8
boundary
62
5
39
2
10
73.894667
20
27.132019
11
72.198330
21
27.848532
0
LINE
8
boundary
62
5
39
2
10
72.198330
20
27.848532
11
71.875282
21
27.984984
0
LINE
8
boundary
62
5
39
2
10
71.875282
20
27.984984
11
70.245222
21
28.841639
0
LINE
8
boundary
62
5
39
2
10
70.245222
20
28.841639
11
69.934795
21
29.004780
0
LINE
8
boundary
62
5
39
2
10
69.934795
20
29.004780
11
68.382566
21
29.995508
0
LINE
8
boundary
62
5
39
2
10
68.382566
20
29.995508
11
68.086961
21
30.184181
0
LINE
8
boundary
62
5
39
2
10
68.086961
20
30.184181
11
66.623567
21
31.301957
0
LINE
8
boundary
62
5
39
2
10
66.623567
20
31.301957
11
66.344879
21
31.514826
0
LINE
8
boundary
62
5
39
2
10
66.344879
20
31.514826
11
64.980688
21
32.751731
0
LINE
8
boundary
62
5
39
2
10
64.980688
20
32.751731
11
64.720893
21
32.987286
0
LINE
8
boundary
62
5
39
2
10
64.720893
20
32.987286
11
63.465575
21
34.334553
0
LINE
8
boundary
62
5
39
2
10
63.465575
20
34.334553
11
63.226513
21
34.591125
0
LINE
8
boundary
62
5
39
2
10
63.226513
20
34.591125
11
62.088966
21
36.039205
0
LINE
8
boundary
62
5
39
2
10
62.088966
20
36.039205
11
61.872333
21
36.314976
0
LINE
8
boundary
62
5
39
2
10
61.872333
20
36.314976
11
60.860614
21
37.853604
0
LINE
8
boundary
62
5
39
2
10
60.860614
20
37.853604
11
60.667943
21
38.146619
0
LINE
8
boundary
62
5
39
2
10
60.667943
20
38.146619
11
59.789227
21
39.764894
0
LINE
8
boundary
62
5
39
2
10
59.789227
20
39.764894
11
59.621886
21
40.073076
0
LINE
8
boundary
62
5
39
2
10
59.621886
20
40.073076
11
58.882400
21
41.759526
0
LINE
8
boundary
62
5
39
2
10
58.882400
20
41.759526
11
58.741573
21
42.080692
0
LINE
8
boundary
62
5
39
2
10
58.741573
20
42.080692
11
58.146563
21
43.823365
0
LINE
8
boundary
62
5
39
2
10
58.146563
20
43.823365
11
58.033250
21
44.155238
0
LINE
8
boundary
62
5
39
2
10
58.033250
20
44.155238
11
57.586924
21
45.941783
0
LINE
8
boundary
62
5
39
2
10
57.586924
20
45.941783
11
57.501926
21
46.282011
0
LINE
8
boundary
62
5
39
2
10
57.501926
20
46.282011
11
57.207449
21
48.099767
0
LINE
8
boundary
62
5
39
2
10
57.207449
20
48.099767
11
57.151370
21
48.445939
0
LINE
8
boundary
62
5
39
2
10
57.151370
20
48.445939
11
57.010835
21
50.282022
0
LINE
8
boundary
62
5
39
2
10
57.010835
20
50.282022
11
56.984071
21
50.631683
0
LINE
8
boundary
62
5
39
2
10
56.984071
20
50.631683
11
57.124606
21
52.467767
0
LINE
8
boundary
62
5
39
2
10
57.124606
20
52.467767
11
57.151370
21
52.817429
0
LINE
8
boundary
62
5
39
2
10
57.151370
20
52.817429
11
57.445847
21
54.635184
0
LINE
8
boundary
62
5
39
2
10
57.445847
20
54.635184
11
57.501927
21
54.981356
0
LINE
8
boundary
62
5
39
2
10
57.501927
20
54.981356
11
57.948252
21
56.767901
0
LINE
8
boundary
62
5
39
2
10
57.948252
20
56.767901
11
58.033250
21
57.108129
0
LINE
8
boundary
62
5
39
2
10
58.033250
20
57.108129
11
58.628260
21
58.850802
0
LINE
8
boundary
62
5
39
2
10
58.628260
20
58.850802
11
58.741573
21
59.182675
0
LINE
8
boundary
62
5
39
2
10
58.741573
20
59.182675
11
59.481059
21
60.869125
0
LINE
8
boundary
62
5
39
2
10
59.481059
20
60.869125
11
59.621886
21
61.190291
0
LINE
8
boundary
62
5
39
2
10
59.621886
20
61.190291
11
60.500601
21
62.808566
0
LINE
8
boundary
62
5
39
2
10
60.500601
20
62.808566
11
60.667943
21
63.116749
0
LINE
8
boundary
62
5
39
2
10
60.667943
20
63.116749
11
61.679662
21
64.655376
0
LINE
8
boundary
62
5
39
2
10
61.679662
20
64.655376
11
61.872333
21
64.948391
0
LINE
8
boundary
62
5
39
2
10
61.872333
20
64.948391
11
63.009880
21
66.396471
0
LINE
8
boundary
62
5
39
2
10
63.009880
20
66.396471
11
63.226513
21
66.672242
0
LINE
8
boundary
62
5
39
2
10
63.226513
20
66.672242
11
64.481831
21
68.019509
0
LINE
8
boundary
62
5
39
2
10
64.481831
20
68.019509
11
64.720893
21
68.276081
0
LINE
8
boundary
62
5
39
2
10
64.720893
20
68.276081
11
66.085084
21
69.512986
0
LINE
8
boundary
62
5
39
2
10
66.085084
20
69.512986
11
66.344879
21
69.748542
0
LINE
8
boundary
62
5
39
2
10
66.344879
20
69.748542
11
67.808273
21
70.866318
0
LINE
8
boundary
62
5
39
2
10
67.808273
20
70.866318
11
68.086961
21
71.079186
0
LINE
8
boundary
62
5
39
2
10
68.086961
20
71.079186
11
69.639190
21
72.069914
0
LINE
8
boundary
62
5
39
2
10
69.639190
20
72.069914
11
69.934795
21
72.258587
0
LINE
8
boundary
62
5
39
2
10
69.934795
20
72.258587
11
71.564855
21
73.115242
0
LINE
8
boundary
62
5
39
2
10
71.564855
20
73.115242
11
71.875282
21
73.278383
0
LINE
8
boundary
62
5
39
2
10
71.875282
20
73.278383
11
73.571618
21
73.994896
0
LINE
8
boundary
62
5
39
2
10
73.571618
20
73.994896
11
73.894667
21
74.131348
0
LINE
8
boundary
62
5
39
2
10
73.894667
20
74.131348
11
75.645259
21
74.702640
0
LINE
8
boundary
62
5
39
2
10
75.645259
20
74.702640
11
75.978641
21
74.811436
0
LINE
8
boundary
62
5
39
2
10
75.978641
20
74.811436
11
76.184847
21
74.866597
0
LINE
8
boundary
62
5
39
2
10
76.184847
20
74.866597
11
76.222719
21
74.876474
0
LINE
8
boundary
62
5
39
2
10
76.222719
20
74.876474
11
76.315121
21
74.899795
0
LINE
8
boundary
62
5
39
2
10
76.315121
20
74.899795
11
76.479489
21
74.939844
0
LINE
8
boundary
62
5
39
2
10
76.479489
20
74.939844
11
77.668579
21
75.219809
0
LINE
8
boundary
62
5
39
2
10
77.668579
20
75.219809
11
77.826249
21
75.255658
0
LINE
8
boundary
62
5
39
2
10
77.826249
20
75.255658
11
78.085489
21
75.308615
0
LINE
8
boundary
62
5
39
2
10
78.085489
20
75.308615
11
78.477404
21
75.379165
0
LINE
8
boundary
62
5
39
2
10
78.477404
20
75.379165
11
79.038993
21
75.466139
0
LINE
8
boundary
62
5
39
2
10
79.038993
20
75.466139
11
79.707962
21
75.565208
0
LINE
8
boundary
62
5
39
2
10
79.707962
20
75.565208
11
80.280922
21
75.634962
0
LINE
8
boundary
62
5
39
2
10
80.280922
20
75.634962
11
81.311159
21
75.634961
0
LINE
8
boundary
62
5
39
2
10
81.311159
20
75.634961
11
81.984556
21
75.634961
0
LINE
8
boundary
62
5
39
2
10
81.984556
20
75.634961
11
81.958032
21
92.501972
0
LINE
8
boundary
62
5
39
2
10
81.958032
20
92.501972
11
81.960898
21
94.595867
0
LINE
8
boundary
62
5
39
2
10
81.960898
20
94.595867
11
80.987355
21
94.372670
0
LINE
8
boundary
62
5
39
2
10
80.987355
20
94.372670
11
80.108185
21
94.148493
0
LINE
8
boundary
62
5
39
2
10
80.108185
20
94.148493
11
79.927539
21
94.100611
0
LINE
8
boundary
62
5
39
2
10
79.927539
20
94.100611
11
79.093691
21
93.869348
0
LINE
8
boundary
62
5
39
2
10
79.093691
20
93.869348
11
78.410770
21
93.666697
0
LINE
8
boundary
62
5
39
2
10
78.410770
20
93.666697
11
77.883987
21
93.500813
0
LINE
8
boundary
62
5
39
2
10
77.883987
20
93.500813
11
77.510293
21
93.376970
0
LINE
8
boundary
62
5
39
2
10
77.510293
20
93.376970
11
76.955928
21
93.190871
0
LINE
8
boundary
62
5
39
2
10
76.955928
20
93.190871
11
76.636632
21
93.081305
0
LINE
8
boundary
62
5
39
2
10
76.636632
20
93.081305
11
76.450447
21
93.016111
0
LINE
8
boundary
62
5
39
2
10
76.450447
20
93.016111
11
76.380362
21
92.991154
0
LINE
8
boundary
62
5
39
2
10
76.380362
20
92.991154
11
75.885234
21
92.811513
0
LINE
8
boundary
62
5
39
2
10
75.885234
20
92.811513
11
74.469069
21
92.231625
0
LINE
8
boundary
62
5
39
2
10
74.469069
20
92.231625
11
73.187860
21
91.706999
0
LINE
8
boundary
62
5
39
2
10
73.187860
20
91.706999
11
71.812201
21
91.036658
0
LINE
8
boundary
62
5
39
2
10
71.812201
20
91.036658
11
70.567638
21
90.430199
0
LINE
8
boundary
62
5
39
2
10
70.567638
20
90.430199
11
69.238256
21
89.672216
0
LINE
8
boundary
62
5
39
2
10
69.238256
20
89.672216
11
68.035560
21
88.986468
0
LINE
8
boundary
62
5
39
2
10
68.035560
20
88.986468
11
66.758029
21
88.144025
0
LINE
8
boundary
62
5
39
2
10
66.758029
20
88.144025
11
65.602244
21
87.381866
0
LINE
8
boundary
62
5
39
2
10
65.602244
20
87.381866
11
64.381922
21
86.458497
0
LINE
8
boundary
62
5
39
2
10
64.381922
20
86.458497
11
63.277894
21
85.623122
0
LINE
8
boundary
62
5
39
2
10
63.277894
20
85.623122
11
62.119904
21
84.622697
0
LINE
8
boundary
62
5
39
2
10
62.119904
20
84.622697
11
61.072266
21
83.717609
0
LINE
8
boundary
62
5
39
2
10
61.072266
20
83.717609
11
59.981458
21
82.644324
0
LINE
8
boundary
62
5
39
2
10
59.981458
20
82.644324
11
58.994601
21
81.673321
0
LINE
8
boundary
62
5
39
2
10
58.994601
20
81.673321
11
57.975557
21
80.531680
0
LINE
8
boundary
62
5
39
2
10
57.975557
20
80.531680
11
57.053625
21
79.498835
0
LINE
8
boundary
62
5
39
2
10
57.053625
20
79.498835
11
56.110615
21
78.293628
0
LINE
8
boundary
62
5
39
2
10
56.110615
20
78.293628
11
55.257472
21
77.203275
0
LINE
8
boundary
62
5
39
2
10
55.257472
20
77.203275
11
54.394453
21
75.939552
0
LINE
8
boundary
62
5
39
2
10
54.394453
20
75.939552
11
53.613677
21
74.796259
0
LINE
8
boundary
62
5
39
2
10
53.613677
20
74.796259
11
52.834268
21
73.479325
0
LINE
8
boundary
62
5
39
2
10
52.834268
20
73.479325
11
52.129135
21
72.287891
0
LINE
8
boundary
62
5
39
2
10
52.129135
20
72.287891
11
51.436605
21
70.923267
0
LINE
8
boundary
62
5
39
2
10
51.436605
20
70.923267
11
50.810072
21
69.688687
0
LINE
8
boundary
62
5
39
2
10
50.810072
20
69.688687
11
50.207327
21
68.282098
0
LINE
8
boundary
62
5
39
2
10
50.207327
20
68.282098
11
49.662022
21
67.009552
0
LINE
8
boundary
62
5
39
2
10
49.662022
20
67.009552
11
49.151590
21
65.566897
0
LINE
8
boundary
62
5
39
2
10
49.151590
20
65.566897
11
48.689801
21
64.261723
0
LINE
8
boundary
62
5
39
2
10
48.689801
20
64.261723
11
48.273821
21
62.789053
0
LINE
8
boundary
62
5
39
2
10
48.273821
20
62.789053
11
47.897483
21
61.456725
0
LINE
8
boundary
62
5
39
2
10
47.897483
20
61.456725
11
47.577701
21
59.960218
0
LINE
8
boundary
62
5
39
2
10
47.577701
20
59.960218
11
47.288394
21
58.606324
0
LINE
8
boundary
62
5
39
2
10
47.288394
20
58.606324
11
47.066151
21
57.092255
0
LINE
8
boundary
62
5
39
2
10
47.066151
20
57.092255
11
46.865088
21
55.722473
0
LINE
8
boundary
62
5
39
2
10
46.865088
20
55.722473
11
46.741317
21
54.197194
0
LINE
8
boundary
62
5
39
2
10
46.741317
20
54.197194
11
46.629340
21
52.817270
0
LINE
8
boundary
62
5
39
2
10
46.629340
20
52.817270
11
46.604562
21
51.287178
0
LINE
8
boundary
62
5
39
2
10
46.604562
20
51.287178
11
46.582144
21
49.902900
0
LINE
8
boundary
62
5
39
2
10
46.582144
20
49.902900
11
46.656460
21
48.374413
0
LINE
8
boundary
62
5
39
2
10
46.656460
20
48.374413
11
46.723693
21
46.991587
0
LINE
8
boundary
62
5
39
2
10
46.723693
20
46.991587
11
46.896790
21
45.471116
0
LINE
8
boundary
62
5
39
2
10
46.896790
20
45.471116
11
47.053391
21
44.095542
0
LINE
8
boundary
62
5
39
2
10
47.053391
20
44.095542
11
47.324544
21
42.589463
0
LINE
8
boundary
62
5
39
2
10
47.324544
20
42.589463
11
47.569857
21
41.226910
0
LINE
8
boundary
62
5
39
2
10
47.569857
20
41.226910
11
47.937929
21
39.741542
0
LINE
8
boundary
62
5
39
2
10
47.937929
20
39.741542
11
48.270925
21
38.397727
0
LINE
8
boundary
62
5
39
2
10
48.270925
20
38.397727
11
48.734375
21
36.939300
0
LINE
8
boundary
62
5
39
2
10
48.734375
20
36.939300
11
49.153659
21
35.619858
0
LINE
8
boundary
62
5
39
2
10
49.153659
20
35.619858
11
49.710541
21
34.194487
0
LINE
8
boundary
62
5
39
2
10
49.710541
20
34.194487
11
50.214354
21
32.904951
0
LINE
8
boundary
62
5
39
2
10
50.214354
20
32.904951
11
50.862332
21
31.518617
0
LINE
8
boundary
62
5
39
2
10
50.862332
20
31.518617
11
51.448559
21
30.264398
0
LINE
8
boundary
62
5
39
2
10
51.448559
20
30.264398
11
52.184912
21
28.922915
0
LINE
8
boundary
62
5
39
2
10
52.184912
20
28.922915
11
52.851093
21
27.709273
0
LINE
8
boundary
62
5
39
2
10
52.851093
20
27.709273
11
53.672739
21
26.418267
0
LINE
8
boundary
62
5
39
2
10
53.672739
20
26.418267
11
54.416084
21
25.250290
0
LINE
8
boundary
62
5
39
2
10
54.416084
20
25.250290
11
55.319570
21
24.015176
0
LINE
8
boundary
62
5
39
2
10
55.319570
20
24.015176
11
56.136957
21
22.897766
0
LINE
8
boundary
62
5
39
2
10
56.136957
20
22.897766
11
57.118500
21
21.723726
0
LINE
8
boundary
62
5
39
2
10
57.118500
20
21.723726
11
58.006504
21
20.661568
0
LINE
8
boundary
62
5
39
2
10
58.006504
20
20.661568
11
59.061985
21
19.553526
0
LINE
8
boundary
62
5
39
2
10
59.061985
20
19.553526
11
60.016880
21
18.551078
0
LINE
8
boundary
62
5
39
2
10
60.016880
20
18.551078
11
61.141870
21
17.513679
0
LINE
8
boundary
62
5
39
2
10
61.141870
20
17.513679
11
62.159652
21
16.575141
0
LINE
8
boundary
62
5
39
2
10
62.159652
20
16.575141
11
63.349430
21
15.612740
0
LINE
8
boundary
62
5
39
2
10
63.349430
20
15.612740
11
64.425826
21
14.742053
0
LINE
8
boundary
62
5
39
2
10
64.425826
20
14.742053
11
65.675407
21
13.858684
0
LINE
8
boundary
62
5
39
2
10
65.675407
20
13.858684
11
66.805907
21
13.059498
0
LINE
8
boundary
62
5
39
2
10
66.805907
20
13.059498
11
68.110049
21
12.258865
0
LINE
8
boundary
62
5
39
2
10
68.110049
20
12.258865
11
69.289909
21
11.534530
0
LINE
8
boundary
62
5
39
2
10
69.289909
20
11.534530
11
70.643140
21
10.819994
0
LINE
8
boundary
62
5
39
2
10
70.643140
20
10.819994
11
71.867412
21
10.173552
0
LINE
8
boundary
62
5
39
2
10
71.867412
20
10.173552
11
73.264056
21
9.548109
0
LINE
8
boundary
62
5
39
2
10
73.264056
20
9.548109
11
74.527604
21
8.982270
0
LINE
8
boundary
62
5
39
2
10
74.527604
20
8.982270
11
75.990010
21
8.424720
0
LINE
8
boundary
62
5
39
2
10
75.990010
20
8.424720
11
76.096273
21
8.385629
0
LINE
8
boundary
62
5
39
2
10
76.096273
20
8.385629
11
76.808917
21
8.120424
0
LINE
8
boundary
62
5
39
2
10
76.808917
20
8.120424
11
76.955168
21
8.069359
0
LINE
8
boundary
62
5
39
2
10
76.955168
20
8.069359
11
77.231603
21
7.974957
0
LINE
8
boundary
62
5
39
2
10
77.231603
20
7.974957
11
77.651046
21
7.836577
0
LINE
8
boundary
62
5
39
2
10
77.651046
20
7.836577
11
78.225259
21
7.655621
0
LINE
8
boundary
62
5
39
2
10
78.225259
20
7.655621
11
78.956476
21
7.437623
0
LINE
8
boundary
62
5
39
2
10
78.956476
20
7.437623
11
79.232246
21
7.354882
0
LINE
8
boundary
62
5
39
2
10
79.232246
20
7.354882
11
80.017475
21
7.137352
0
LINE
8
boundary
62
5
39
2
10
80.017475
20
7.137352
11
80.944221
21
6.901386
0
LINE
8
boundary
62
5
39
2
10
80.944221
20
6.901386
11
81.960898
21
6.667500
0
LINE
8
boundary
62
5
39
2
10
81.960898
20
6.667500
11
81.958032
21
8.761395
0
LINE
8
boundary
62
5
39
2
10
81.958032
20
8.761395
11
81.984556
21
25.628406
0
LINE
8
boundary
62
5
39
2
10
81.984556
20
25.628406
11
81.311159
21
25.628406
0
LINE
8
boundary
62
5
39
2
10
81.311159
20
25.628406
11
80.280922
21
25.628406
0
LINE
8
boundary
62
5
39
2
10
80.280922
20
25.628406
11
79.707962
21
25.698159
0
LINE
8
boundary
62
5
39
2
10
79.707962
20
25.698159
11
79.038993
21
25.797228
0
LINE
8
boundary
62
5
39
2
10
79.038993
20
25.797228
11
78.477404
21
25.884202
0
LINE
8
boundary
62
5
39
2
10
78.477404
20
25.884202
11
78.085489
21
25.954752
0
LINE
8
boundary
62
5
39
2
10
78.085489
20
25.954752
11
77.826249
21
26.007709
0
LINE
8
boundary
62
5
39
2
10
77.826249
20
26.007709
11
77.668579
21
26.043558
0
LINE
8
boundary
62
5
39
2
10
77.668579
20
26.043558
11
76.479489
21
26.323523
0
LINE
8
boundary
62
5
39
2
10
76.479489
20
26.323523
11
76.315121
21
26.363572
0
LINE
8
boundary
62
5
39
2
10
76.315121
20
26.363572
11
76.222719
21
26.386893
0
LINE
8
annotation
62
1
39
211
10
55.419403
20
50.963233
11
55.419403
21
52.391983
0
LINE
8
annotation
62
1
39
211
10
55.419403
20
50.963233
11
55.419403
21
52.391983
0
LINE
8
annotation
62
1
39
211
10
55.419403
20
52.391983
11
55.419403
21
50.963233
0
LINE
8
annotation
62
1
39
211
10
55.419403
20
50.963233
11
56.848153
21
50.963233
0
LINE
8
annotation
62
1
39
211
10
55.419403
20
50.963233
11
55.419403
21
52.391983
0
LINE
8
annotation
62
1
39
211
10
55.419403
20
52.391983
11
55.419403
21
50.963233
0
LINE
8
annotation
62
1
39
211
10
55.419403
20
50.963233
11
56.848153
21
50.963233
0
LINE
8
annotation
62
1
39
211
10
56.848153
20
50.963233
11
55.419403
21
50.963233
0
LINE
8
annotation
62
1
39
211
10
55.419403
20
50.963233
11
55.419403
21
49.534483
0
LINE
8
annotation
62
1
39
211
10
49.687708
20
50.631684
11
48.258958
21
50.631684
0
LINE
8
annotation
62
1
39
211
10
66.426475
20
84.136155
11
66.426475
21
85.564905
0
LINE
8
annotation
62
1
39
211
10
66.426475
20
84.136155
11
66.426475
21
85.564905
0
LINE
8
annotation
62
1
39
211
10
66.426475
20
85.564905
11
66.426475
21
84.136155
0
LINE
8
annotation
62
1
39
211
10
66.426475
20
84.136155
11
67.855225
21
84.136155
0
LINE
8
annotation
62
1
39
211
10
66.426475
20
84.136155
11
66.426475
21
85.564905
0
LINE
8
annotation
62
1
39
211
10
66.426475
20
85.564905
11
66.426475
21
84.136155
0
LINE
8
annotation
62
1
39
211
10
66.426475
20
84.136155
11
67.855225
21
84.136155
0
LINE
8
annotation
62
1
39
211
10
67.855225
20
84.136155
11
66.426475
21
84.136155
0
LINE
8
annotation
62
1
39
211
10
66.426475
20
84.136155
11
64.997725
21
84.136155
0
LINE
8
annotation
62
1
39
211
10
66.426475
20
17.127212
11
66.426475
21
15.698462
0
LINE
8
annotation
62
1
39
211
10
66.426475
20
17.127212
11
66.426475
21
15.698462
0
LINE
8
annotation
62
1
39
211
10
66.426475
20
15.698462
11
66.426475
21
17.127212
0
LINE
8
annotation
62
1
39
211
10
66.426475
20
17.127212
11
64.997725
21
17.127212
0
LINE
8
annotation
62
1
39
211
10
70.124180
20
83.816969
11
70.124180
21
83.816969
0
LINE
8
annotation
62
1
39
211
10
70.124180
20
83.816969
11
69.922791
21
83.741461
0
LINE
8
annotation
62
1
39
211
10
69.922791
20
83.741461
11
69.737990
21
83.639722
0
LINE
8
annotation
62
1
39
211
10
69.737990
20
83.639722
11
69.571674
21
83.514301
0
LINE
8
annotation
62
1
39
211
10
69.571674
20
83.514301
11
69.425741
21
83.367749
0
LINE
8
annotation
62
1
39
211
10
69.425741
20
83.367749
11
69.302087
21
83.202613
0
LINE
8
annotation
62
1
39
211
10
69.302087
20
83.202613
11
69.202610
21
83.021443
0
LINE
8
annotation
62
1
39
211
10
69.202610
20
83.021443
11
69.129206
21
82.826788
0
LINE
8
annotation
62
1
39
211
10
69.129206
20
82.826788
11
69.083772
21
82.621196
0
LINE
8
annotation
62
1
39
211
10
69.083772
20
82.621196
11
69.068206
21
82.407217
0
LINE
8
annotation
62
1
39
211
10
69.068206
20
82.407217
11
69.068206
21
81.355015
0
LINE
8
annotation
62
1
39
211
10
69.068206
20
81.355015
11
69.068206
21
81.355015
0
LINE
8
annotation
62
1
39
211
10
69.068206
20
81.355015
11
69.079556
21
81.228554
0
LINE
8
annotation
62
1
39
211
10
69.079556
20
81.228554
11
69.112270
21
81.109510
0
LINE
8
annotation
62
1
39
211
10
69.112270
20
81.109510
11
69.164345
21
80.999877
0
LINE
8
annotation
62
1
39
211
10
69.164345
20
80.999877
11
69.233778
21
80.901646
0
LINE
8
annotation
62
1
39
211
10
69.233778
20
80.901646
11
69.318566
21
80.816808
0
LINE
8
annotation
62
1
39
211
10
69.318566
20
80.816808
11
69.416704
21
80.747356
0
LINE
8
annotation
62
1
39
211
10
69.416704
20
80.747356
11
69.526191
21
80.695281
0
LINE
8
annotation
62
1
39
211
10
69.526191
20
80.695281
11
69.645023
21
80.662576
0
LINE
8
annotation
62
1
39
211
10
69.645023
20
80.662576
11
69.771196
21
80.651231
0
LINE
8
annotation
62
1
39
211
10
69.771196
20
80.651231
11
69.771196
21
80.651231
0
LINE
8
annotation
62
1
39
211
10
69.771196
20
80.651231
11
69.897630
21
80.662576
0
LINE
8
annotation
62
1
39
211
10
69.897630
20
80.662576
11
70.016601
21
80.695281
0
LINE
8
annotation
62
1
39
211
10
70.016601
20
80.695281
11
70.126128
21
80.747356
0
LINE
8
annotation
62
1
39
211
10
70.126128
20
80.747356
11
70.224234
21
80.816808
0
LINE
8
annotation
62
1
39
211
10
70.224234
20
80.816808
11
70.308940
21
80.901646
0
LINE
8
annotation
62
1
39
211
10
70.308940
20
80.901646
11
70.378267
21
80.999877
0
LINE
8
annotation
62
1
39
211
10
70.378267
20
80.999877
11
70.430236
21
81.109510
0
LINE
8
annotation
62
1
39
211
10
70.430236
20
81.109510
11
70.462868
21
81.228554
0
LINE
8
annotation
62
1
39
211
10
70.462868
20
81.228554
11
70.474186
21
81.355015
0
LINE
8
annotation
62
1
39
211
10
70.474186
20
81.355015
11
70.474186
21
81.705220
0
LINE
8
annotation
62
1
39
211
10
70.474186
20
81.705220
11
70.474186
21
81.705220
0
LINE
8
annotation
62
1
39
211
10
70.474186
20
81.705220
11
70.462868
21
81.831620
0
LINE
8
annotation
62
1
39
211
10
70.462868
20
81.831620
11
70.430236
21
81.950500
0
LINE
8
annotation
62
1
39
211
10
70.430236
20
81.950500
11
70.378267
21
82.059895
0
LINE
8
annotation
62
1
39
211
10
70.378267
20
82.059895
11
70.308940
21
82.157845
0
LINE
8
annotation
62
1
39
211
10
70.308940
20
82.157845
11
70.224234
21
82.242386
0
LINE
8
annotation
62
1
39
211
10
70.224234
20
82.242386
11
70.126128
21
82.311556
0
LINE
8
annotation
62
1
39
211
10
70.126128
20
82.311556
11
70.016601
21
82.363393
0
LINE
8
annotation
62
1
39
211
10
70.016601
20
82.363393
11
69.897630
21
82.395934
0
LINE
8
annotation
62
1
39
211
10
69.897630
20
82.395934
11
69.771196
21
82.407217
0
LINE
8
annotation
62
1
39
211
10
69.771196
20
82.407217
11
69.068206
21
82.407217
0
LINE
8
annotation
62
1
39
211
10
68.980158
20
80.255514
11
70.563027
21
80.255514
0
LINE
8
annotation
62
1
39
211
10
73.392606
20
82.234100
11
71.661635
21
82.234100
0
LINE
8
annotation
62
1
39
211
10
75.985679
20
80.651206
11
74.579699
21
80.651206
0
LINE
8
annotation
62
1
39
211
10
74.579699
20
80.651206
11
75.878871
21
82.742705
0
LINE
8
annotation
62
1
39
211
10
75.878871
20
82.742705
11
75.878871
21
82.742705
0
LINE
8
annotation
62
1
39
211
10
75.878871
20
82.742705
11
75.880424
21
82.744627
0
LINE
8
annotation
62
1
39
211
10
75.880424
20
82.744627
11
75.881913
21
82.746565
0
LINE
8
annotation
62
1
39
211
10
75.881913
20
82.746565
11
75.883349
21
82.748536
0
LINE
8
annotation
62
1
39
211
10
75.883349
20
82.748536
11
75.884740
21
82.750556
0
LINE
8
annotation
62
1
39
211
10
75.884740
20
82.750556
11
75.886097
21
82.752641
0
LINE
8
annotation
62
1
39
211
10
75.886097
20
82.752641
11
75.887429
21
82.754808
0
LINE
8
annotation
62
1
39
211
10
75.887429
20
82.754808
11
75.888747
21
82.757073
0
LINE
8
annotation
62
1
39
211
10
75.888747
20
82.757073
11
75.890060
21
82.759452
0
LINE
8
annotation
62
1
39
211
10
75.890060
20
82.759452
11
75.891378
21
82.761962
0
LINE
8
annotation
62
1
39
211
10
75.891378
20
82.761962
11
75.891378
21
82.761962
0
LINE
8
annotation
62
1
39
211
10
75.891378
20
82.761962
11
75.945020
21
82.877137
0
LINE
8
annotation
62
1
39
211
10
75.945020
20
82.877137
11
75.976357
21
82.996526
0
LINE
8
annotation
62
1
39
211
10
75.976357
20
82.996526
11
75.986157
21
83.117431
0
LINE
8
annotation
62
1
39
211
10
75.986157
20
83.117431
11
75.975187
21
83.237155
0
LINE
8
annotation
62
1
39
211
10
75.975187
20
83.237155
11
75.944215
21
83.353000
0
LINE
8
annotation
62
1
39
211
10
75.944215
20
83.353000
11
75.894010
21
83.462268
0
LINE
8
annotation
62
1
39
211
10
75.894010
20
83.462268
11
75.825340
21
83.562262
0
LINE
8
annotation
62
1
39
211
10
75.825340
20
83.562262
11
75.738971
21
83.650283
0
LINE
8
annotation
62
1
39
211
10
75.738971
20
83.650283
11
75.635673
21
83.723635
0
LINE
8
annotation
62
1
39
211
10
75.635673
20
83.723635
11
75.635673
21
83.723635
0
LINE
8
annotation
62
1
39
211
10
75.635673
20
83.723635
11
75.520178
21
83.776515
0
LINE
8
annotation
62
1
39
211
10
75.520178
20
83.776515
11
75.400606
21
83.807369
0
LINE
8
annotation
62
1
39
211
10
75.400606
20
83.807369
11
75.279630
21
83.816892
0
LINE
8
annotation
62
1
39
211
10
75.279630
20
83.816892
11
75.159924
21
83.805777
0
LINE
8
annotation
62
1
39
211
10
75.159924
20
83.805777
11
75.044161
21
83.774720
0
LINE
8
annotation
62
1
39
211
10
75.044161
20
83.774720
11
74.935014
21
83.724414
0
LINE
8
annotation
62
1
39
211
10
74.935014
20
83.724414
11
74.835156
21
83.655555
0
LINE
8
annotation
62
1
39
211
10
74.835156
20
83.655555
11
74.747260
21
83.568836
0
LINE
8
annotation
62
1
39
211
10
74.747260
20
83.568836
11
74.674000
21
83.464952
0
LINE
8
annotation
62
1
39
211
10
74.674000
20
83.464952
11
74.581685
21
83.287865
0
LINE
8
hole
62
5
39
2
10
63.283225
20
174.001272
11
63.854725
21
174.001272
0
LINE
8
hole
62
5
39
2
10
63.854725
20
174.001272
11
63.854725
21
174.572772
0
LINE
8
hole
62
5
39
2
10
63.854725
20
174.572772
11
63.283225
21
174.572772
0
LINE
8
hole
62
5
39
2
10
63.283225
20
174.572772
11
63.283225
21
174.001272
0
LINE
8
hole
62
5
39
2
10
63.283225
20
108.897329
11
63.854725
21
108.897329
0
LINE
8
hole
62
5
39
2
10
63.854725
20
108.897329
11
63.854725
21
109.468829
0
LINE
8
hole
62
5
39
2
10
63.854725
20
109.468829
11
63.283225
21
109.468829
0
LINE
8
hole
62
5
39
2
10
63.283225
20
109.468829
11
63.283225
21
108.897329
0
LINE
8
hole
62
5
39
2
10
78.593243
20
141.449301
11
79.164743
21
141.449301
0
LINE
8
hole
62
5
39
2
10
79.164743
20
141.449301
11
79.164743
21
142.020801
0
LINE
8
hole
62
5
39
2
10
79.164743
20
142.020801
11
78.593243
21
142.020801
0
LINE
8
hole
62
5
39
2
10
78.593243
20
142.020801
11
78.593243
21
141.449301
0
LINE
8
hole
62
5
39
2
10
72.861548
20
141.780852
11
73.433048
21
141.780852
0
LINE
8
hole
62
5
39
2
10
73.433048
20
141.780852
11
73.433048
21
142.352352
0
LINE
8
hole
62
5
39
2
10
73.433048
20
142.352352
11
72.861548
21
142.352352
0
LINE
8
hole
62
5
39
2
10
72.861548
20
142.352352
11
72.861548
21
141.780852
0
LINE
8
boundary
62
5
39
2
10
64.084869
20
124.347225
11
63.845808
21
124.090653
0
LINE
8
boundary
62
5
39
2
10
63.845808
20
124.090653
11
62.481616
21
122.853748
0
LINE
8
boundary
62
5
39
2
10
62.481616
20
122.853748
11
62.221821
21
122.618193
0
LINE
8
boundary
62
5
39
2
10
62.221821
20
122.618193
11
60.758427
21
121.500416
0
LINE
8
boundary
62
5
39
2
10
60.758427
20
121.500416
11
60.479740
21
121.287548
0
LINE
8
boundary
62
5
39
2
10
60.479740
20
121.287548
11
58.927511
21
120.296820
0
LINE
8
boundary
62
5
39
2
10
58.927511
20
120.296820
11
58.631906
21
120.108147
0
LINE
8
boundary
62
5
39
2
10
58.631906
20
120.108147
11
57.001846
21
119.251492
0
LINE
8
boundary
62
5
39
2
10
57.001846
20
119.251492
11
56.691419
21
119.088351
0
LINE
8
boundary
62
5
39
2
10
56.691419
20
119.088351
11
54.995082
21
118.371838
0
LINE
8
boundary
62
5
39
2
10
54.995082
20
118.371838
11
54.672034
21
118.235386
0
LINE
8
boundary
62
5
39
2
10
54.672034
20
118.235386
11
52.921441
21
117.664094
0
LINE
8
boundary
62
5
39
2
10
52.921441
20
117.664094
11
52.588060
21
117.555298
0
LINE
8
boundary
62
5
39
2
10
52.588060
20
117.555298
11
52.381854
21
117.500137
0
LINE
8
boundary
62
5
39
2
10
52.381854
20
117.500137
11
52.343982
21
117.490260
0
LINE
8
boundary
62
5
39
2
10
52.343982
20
117.490260
11
52.251579
21
117.466939
0
LINE
8
boundary
62
5
39
2
10
52.251579
20
117.466939
11
52.087212
21
117.426890
0
LINE
8
boundary
62
5
39
2
10
52.087212
20
117.426890
11
50.898122
21
117.146925
0
LINE
8
boundary
62
5
39
2
10
50.898122
20
117.146925
11
50.740451
21
117.111076
0
LINE
8
boundary
62
5
39
2
10
50.740451
20
117.111076
11
50.481211
21
117.058119
0
LINE
8
boundary
62
5
39
2
10
50.481211
20
117.058119
11
50.089297
21
116.987569
0
LINE
8
boundary
62
5
39
2
10
50.089297
20
116.987569
11
49.527707
21
116.900595
0
LINE
8
boundary
62
5
39
2
10
49.527707
20
116.900595
11
48.858738
21
116.801526
0
LINE
8
boundary
62
5
39
2
10
48.858738
20
116.801526
11
48.285778
21
116.731773
0
LINE
8
boundary
62
5
39
2
10
48.285778
20
116.731773
11
47.255541
21
116.731773
0
LINE
8
boundary
62
5
39
2
10
47.255541
20
116.731773
11
46.582144
21
116.731773
0
LINE
8
boundary
62
5
39
2
10
46.582144
20
116.731773
11
46.608669
21
99.864762
0
LINE
8
boundary
62
5
39
2
10
46.608669
20
99.864762
11
46.605803
21
97.770867
0
LINE
8
boundary
62
5
39
2
10
46.605803
20
97.770867
11
47.535887
21
97.984778
0
LINE
8
boundary
62
5
39
2
10
47.535887
20
97.984778
11
47.622480
21
98.004753
0
LINE
8
boundary
62
5
39
2
10
47.622480
20
98.004753
11
48.549226
21
98.240719
0
LINE
8
boundary
62
5
39
2
10
48.549226
20
98.240719
11
49.334455
21
98.458249
0
LINE
8
boundary
62
5
39
2
10
49.334455
20
98.458249
11
49.968608
21
98.647125
0
LINE
8
boundary
62
5
39
2
10
49.968608
20
98.647125
11
50.341442
21
98.758988
0
LINE
8
boundary
62
5
39
2
10
50.341442
20
98.758988
11
50.915654
21
98.939944
0
LINE
8
boundary
62
5
39
2
10
50.915654
20
98.939944
11
51.335097
21
99.078324
0
LINE
8
boundary
62
5
39
2
10
51.335097
20
99.078324
11
51.611533
21
99.172726
0
LINE
8
boundary
62
5
39
2
10
51.611533
20
99.172726
11
51.757784
21
99.223791
0
LINE
8
boundary
62
5
39
2
10
51.757784
20
99.223791
11
51.791253
21
99.235792
0
LINE
8
boundary
62
5
39
2
10
51.791253
20
99.235792
11
52.576691
21
99.528087
0
LINE
8
boundary
62
5
39
2
10
52.576691
20
99.528087
11
54.039096
21
100.085637
0
LINE
8
boundary
62
5
39
2
10
54.039096
20
100.085637
11
55.435741
21
100.711079
0
LINE
8
boundary
62
5
39
2
10
55.435741
20
100.711079
11
56.699288
21
101.276919
0
LINE
8
boundary
62
5
39
2
10
56.699288
20
101.276919
11
58.052520
21
101.991455
0
LINE
8
boundary
62
5
39
2
10
58.052520
20
101.991455
11
59.276791
21
102.637897
0
LINE
8
boundary
62
5
39
2
10
59.276791
20
102.637897
11
60.580933
21
103.438530
0
LINE
8
boundary
62
5
39
2
10
60.580933
20
103.438530
11
61.760794
21
104.162865
0
LINE
8
boundary
62
5
39
2
10
61.760794
20
104.162865
11
63.010375
21
105.046234
0
LINE
8
boundary
62
5
39
2
10
63.010375
20
105.046234
11
64.140875
21
105.845420
0
LINE
8
boundary
62
5
39
2
10
64.140875
20
105.845420
11
65.330653
21
106.807821
0
LINE
8
boundary
62
5
39
2
10
65.330653
20
106.807821
11
66.407049
21
107.678508
0
LINE
8
boundary
62
5
39
2
10
66.407049
20
107.678508
11
67.532039
21
108.715907
0
LINE
8
boundary
62
5
39
2
10
67.532039
20
108.715907
11
68.549820
21
109.654444
0
LINE
8
boundary
62
5
39
2
10
68.549820
20
109.654444
11
69.605300
21
110.762487
0
LINE
8
boundary
62
5
39
2
10
69.605300
20
110.762487
11
70.560196
21
111.764935
0
LINE
8
boundary
62
5
39
2
10
70.560196
20
111.764935
11
71.541739
21
112.938976
0
LINE
8
boundary
62
5
39
2
10
71.541739
20
112.938976
11
72.429743
21
114.001133
0
LINE
8
boundary
62
5
39
2
10
72.429743
20
114.001133
11
73.333230
21
115.236247
0
LINE
8
boundary
62
5
39
2
10
73.333230
20
115.236247
11
74.150617
21
116.353657
0
LINE
8
boundary
62
5
39
2
10
74.150617
20
116.353657
11
74.972263
21
117.644663
0
LINE
8
boundary
62
5
39
2
10
74.972263
20
117.644663
11
75.715607
21
118.812640
0
LINE
8
boundary
62
5
39
2
10
75.715607
20
118.812640
11
76.451961
21
120.154122
0
LINE
8
boundary
62
5
39
2
10
76.451961
20
120.154122
11
77.118141
21
121.367765
0
LINE
8
boundary
62
5
39
2
10
77.118141
20
121.367765
11
77.766119
21
122.754098
0
LINE
8
boundary
62
5
39
2
10
77.766119
20
122.754098
11
78.352347
21
124.008318
0
LINE
8
boundary
62
5
39
2
10
78.352347
20
124.008318
11
78.909229
21
125.433688
0
LINE
8
boundary
62
5
39
2
10
78.909229
20
125.433688
11
79.413041
21
126.723225
0
LINE
8
boundary
62
5
39
2
10
79.413041
20
126.723225
11
79.876491
21
128.181651
0
LINE
8
boundary
62
5
39
2
10
79.876491
20
128.181651
11
80.295775
21
129.501094
0
LINE
8
boundary
62
5
39
2
10
80.295775
20
129.501094
11
80.663848
21
130.986461
0
LINE
8
boundary
62
5
39
2
10
80.663848
20
130.986461
11
80.996844
21
132.330277
0
LINE
8
boundary
62
5
39
2
10
80.996844
20
132.330277
11
81.267997
21
133.836356
0
LINE
8
boundary
62
5
39
2
10
81.267997
20
133.836356
11
81.513310
21
135.198909
0
LINE
8
boundary
62
5
39
2
10
81.513310
20
135.198909
11
81.686406
21
136.719380
0
LINE
8
boundary
62
5
39
2
10
81.686406
20
136.719380
11
81.843007
21
138.094954
0
LINE
8
boundary
62
5
39
2
10
81.843007
20
138.094954
11
81.917323
21
139.623441
0
LINE
8
boundary
62
5
39
2
10
81.917323
20
139.623441
11
81.984556
21
141.006267
0
LINE
8
boundary
62
5
39
2
10
81.984556
20
141.006267
11
81.959777
21
142.536359
0
LINE
8
boundary
62
5
39
2
10
81.959777
20
142.536359
11
81.937360
21
143.920637
0
LINE
8
boundary
62
5
39
2
10
81.937360
20
143.920637
11
81.813589
21
145.445916
0
LINE
8
boundary
62
5
39
2
10
81.813589
20
145.445916
11
81.701613
21
146.825840
0
LINE
8
boundary
62
5
39
2
10
81.701613
20
146.825840
11
81.479370
21
148.339909
0
LINE
8
boundary
62
5
39
2
10
81.479370
20
148.339909
11
81.278307
21
149.709691
0
LINE
8
boundary
62
5
39
2
10
81.278307
20
149.709691
11
80.958525
21
151.206198
0
LINE
8
boundary
62
5
39
2
10
80.958525
20
151.206198
11
80.669217
21
152.560091
0
LINE
8
boundary
62
5
39
2
10
80.669217
20
152.560091
11
80.253238
21
154.032762
0
LINE
8
boundary
62
5
39
2
10
80.253238
20
154.032762
11
79.876900
21
155.365090
0
LINE
8
boundary
62
5
39
2
10
79.876900
20
155.365090
11
79.366467
21
156.807745
0
LINE
8
boundary
62
5
39
2
10
79.366467
20
156.807745
11
78.904678
21
158.112919
0
LINE
8
boundary
62
5
39
2
10
78.904678
20
158.112919
11
78.301933
21
159.519509
0
LINE
8
boundary
62
5
39
2
10
78.301933
20
159.519509
11
77.756629
21
160.792054
0
LINE
8
boundary
62
5
39
2
10
77.756629
20
160.792054
11
77.064099
21
162.156679
0
LINE
8
boundary
62
5
39
2
10
77.064099
20
162.156679
11
76.437566
21
163.391258
0
LINE
8
boundary
62
5
39
2
10
76.437566
20
163.391258
11
75.658157
21
164.708192
0
LINE
8
boundary
62
5
39
2
10
75.658157
20
164.708192
11
74.953024
21
165.899626
0
LINE
8
boundary
62
5
39
2
10
74.953024
20
165.899626
11
74.090005
21
167.163349
0
LINE
8
boundary
62
5
39
2
10
74.090005
20
167.163349
11
73.309229
21
168.306642
0
LINE
8
boundary
62
5
39
2
10
73.309229
20
168.306642
11
72.366219
21
169.511849
0
LINE
8
boundary
62
5
39
2
10
72.366219
20
169.511849
11
71.513075
21
170.602202
0
LINE
8
boundary
62
5
39
2
10
71.513075
20
170.602202
11
70.494031
21
171.743843
0
LINE
8
boundary
62
5
39
2
10
70.494031
20
171.743843
11
69.572099
21
172.776688
0
LINE
8
boundary
62
5
39
2
10
69.572099
20
172.776688
11
68.481291
21
173.849973
0
LINE
8
boundary
62
5
39
2
10
68.481291
20
173.849973
11
67.494434
21
174.820976
0
LINE
8
boundary
62
5
39
2
10
67.494434
20
174.820976
11
66.336443
21
175.821402
0
LINE
8
boundary
62
5
39
2
10
66.336443
20
175.821402
11
65.288806
21
176.726489
0
LINE
8
boundary
62
5
39
2
10
65.288806
20
176.726489
11
64.068485
21
177.649858
0
LINE
8
boundary
62
5
39
2
10
64.068485
20
177.649858
11
62.964457
21
178.485233
0
LINE
8
boundary
62
5
39
2
10
62.964457
20
178.485233
11
61.686926
21
179.327675
0
LINE
8
boundary
62
5
39
2
10
61.686926
20
179.327675
11
60.531140
21
180.089834
0
LINE
8
boundary
62
5
39
2
10
60.531140
20
180.089834
11
59.201758
21
180.847817
0
LINE
8
boundary
62
5
39
2
10
59.201758
20
180.847817
11
57.999062
21
181.533566
0
LINE
8
boundary
62
5
39
2
10
57.999062
20
181.533566
11
56.623403
21
182.203907
0
LINE
8
boundary
62
5
39
2
10
56.623403
20
182.203907
11
55.378840
21
182.810366
0
LINE
8
boundary
62
5
39
2
10
55.378840
20
182.810366
11
53.962675
21
183.390254
0
LINE
8
boundary
62
5
39
2
10
53.962675
20
183.390254
11
52.681467
21
183.914880
0
LINE
8
boundary
62
5
39
2
10
52.681467
20
183.914880
11
52.186339
21
184.094521
0
LINE
8
boundary
62
5
39
2
10
52.186339
20
184.094521
11
52.116253
21
184.119478
0
LINE
8
boundary
62
5
39
2
10
52.116253
20
184.119478
11
51.930069
21
184.184672
0
LINE
8
boundary
62
5
39
2
10
51.930069
20
184.184672
11
51.610773
21
184.294238
0
LINE
8
boundary
62
5
39
2
10
51.610773
20
184.294238
11
51.056408
21
184.480337
0
LINE
8
boundary
62
5
39
2
10
51.056408
20
184.480337
11
50.682713
21
184.604180
0
LINE
8
boundary
62
5
39
2
10
50.682713
20
184.604180
11
50.155931
21
184.770064
0
LINE
8
boundary
62
5
39
2
10
50.155931
20
184.770064
11
49.473010
21
184.972715
0
LINE
8
boundary
62
5
39
2
10
49.473010
20
184.972715
11
48.639161
21
185.203978
0
LINE
8
boundary
62
5
39
2
10
48.639161
20
185.203978
11
48.458515
21
185.251860
0
LINE
8
boundary
62
5
39
2
10
48.458515
20
185.251860
11
47.579345
21
185.476037
0
LINE
8
boundary
62
5
39
2
10
47.579345
20
185.476037
11
46.605803
21
185.699234
0
LINE
8
boundary
62
5
39
2
10
46.605803
20
185.699234
11
46.608669
21
183.605339
0
LINE
8
boundary
62
5
39
2
10
46.608669
20
183.605339
11
46.582144
21
166.738329
0
LINE
8
boundary
62
5
39
2
10
46.582144
20
166.738329
11
47.255541
21
166.738328
0
LINE
8
boundary
62
5
39
2
10
47.255541
20
166.738328
11
48.285778
21
166.738329
0
LINE
8
boundary
62
5
39
2
10
48.285778
20
166.738329
11
48.858738
21
166.668575
0
LINE
8
boundary
62
5
39
2
10
48.858738
20
166.668575
11
49.527707
21
166.569506
0
LINE
8
boundary
62
5
39
2
10
49.527707
20
166.569506
11
50.089297
21
166.482532
0
LINE
8
boundary
62
5
39
2
10
50.089297
20
166.482532
11
50.481211
21
166.411982
0
LINE
8
boundary
62
5
39
2
10
50.481211
20
166.411982
11
50.740451
21
166.359025
0
LINE
8
boundary
62
5
39
2
10
50.740451
20
166.359025
11
50.898122
21
166.323176
0
LINE
8
boundary
62
5
39
2
10
50.898122
20
166.323176
11
52.087212
21
166.043211
0
LINE
8
boundary
62
5
39
2
10
52.087212
20
166.043211
11
52.251579
21
166.003162
0
LINE
8
boundary
62
5
39
2
10
52.251579
20
166.003162
11
52.343982
21
165.979841
0
LINE
8
boundary
62
5
39
2
10
52.343982
20
165.979841
11
52.381854
21
165.969964
0
LINE
8
boundary
62
5
39
2
10
52.381854
20
165.969964
11
52.588060
21
165.914803
0
LINE
8
boundary
62
5
39
2
10
52.588060
20
165.914803
11
54.338652
21
165.343512
0
LINE
8
boundary
62
5
39
2
10
54.338652
20
165.343512
11
54.672034
21
165.234715
0
LINE
8
boundary
62
5
39
2
10
54.672034
20
165.234715
11
56.368370
21
164.518202
0
LINE
8
boundary
62
5
39
2
10
56.368370
20
164.518202
11
56.691419
21
164.381750
0
LINE
8
boundary
62
5
39
2
10
56.691419
20
164.381750
11
58.321479
21
163.525094
0
LINE
8
boundary
62
5
39
2
10
58.321479
20
163.525094
11
58.631906
21
163.361954
0
LINE
8
boundary
62
5
39
2
10
58.631906
20
163.361954
11
60.184135
21
162.371227
0
LINE
8
boundary
62
5
39
2
10
60.184135
20
162.371227
11
60.479740
21
162.182553
0
LINE
8
boundary
62
5
39
2
10
60.479740
20
162.182553
11
61.943134
21
161.064777
0
LINE
8
boundary
62
5
39
2
10
61.943134
20
161.064777
11
62.221821
21
160.851908
0
LINE
8
boundary
62
5
39
2
10
62.221821
20
160.851908
11
63.586012
21
159.615003
0
LINE
8
boundary
62
5
39
2
10
63.586012
20
159.615003
11
63.845808
21
159.379448
0
LINE
8
boundary
62
5
39
2
10
63.845808
20
159.379448
11
65.101125
21
158.032182
0
LINE
8
boundary
62
5
39
2
10
65.101125
20
158.032182
11
65.340187
21
157.775609
0
LINE
8
boundary
62
5
39
2
10
65.340187
20
157.775609
11
66.477734
21
156.327529
0
LINE
8
boundary
62
5
39
2
10
66.477734
20
156.327529
11
66.694368
21
156.051758
0
LINE
8
boundary
62
5
39
2
10
66.694368
20
156.051758
11
67.706087
21
154.513130
0
LINE
8
boundary
62
5
39
2
10
67.706087
20
154.513130
11
67.898758
21
154.220115
0
LINE
8
boundary
62
5
39
2
10
67.898758
20
154.220115
11
68.777473
21
152.601840
0
LINE
8
boundary
62
5
39
2
10
68.777473
20
152.601840
11
68.944815
21
152.293658
0
LINE
8
boundary
62
5
39
2
10
68.944815
20
152.293658
11
69.684300
21
150.607208
0
LINE
8
boundary
62
5
39
2
10
69.684300
20
150.607208
11
69.825127
21
150.286042
0
LINE
8
boundary
62
5
39
2
10
69.825127
20
150.286042
11
70.420137
21
148.543369
0
LINE
8
boundary
62
5
39
2
10
70.420137
20
148.543369
11
70.533450
21
148.211496
0
LINE
8
boundary
62
5
39
2
10
70.533450
20
148.211496
11
70.979776
21
146.424951
0
LINE
8
boundary
62
5
39
2
10
70.979776
20
146.424951
11
71.064774
21
146.084723
0
LINE
8
boundary
62
5
39
2
10
71.064774
20
146.084723
11
71.359251
21
144.266967
0
LINE
8
boundary
62
5
39
2
10
71.359251
20
144.266967
11
71.415331
21
143.920796
0
LINE
8
boundary
62
5
39
2
10
71.415331
20
143.920796
11
71.555866
21
142.084713
0
LINE
8
boundary
62
5
39
2
10
71.555866
20
142.084713
11
71.582629
21
141.735051
0
LINE
8
boundary
62
5
39
2
10
71.582629
20
141.735051
11
71.442094
21
139.898967
0
LINE
8
boundary
62
5
39
2
10
71.442094
20
139.898967
11
71.415331
21
139.549305
0
LINE
8
boundary
62
5
39
2
10
71.415331
20
139.549305
11
71.120854
21
137.731550
0
LINE
8
boundary
62
5
39
2
10
71.120854
20
137.731550
11
71.064774
21
137.385379
0
LINE
8
boundary
62
5
39
2
10
71.064774
20
137.385379
11
70.618448
21
135.598833
0
LINE
8
boundary
62
5
39
2
10
70.618448
20
135.598833
11
70.533450
21
135.258605
0
LINE
8
boundary
62
5
39
2
10
70.533450
20
135.258605
11
69.938440
21
133.515932
0
LINE
8
boundary
62
5
39
2
10
69.938440
20
133.515932
11
69.825127
21
133.184059
0
LINE
8
boundary
62
5
39
2
10
69.825127
20
133.184059
11
69.085642
21
131.497609
0
LINE
8
boundary
62
5
39
2
10
69.085642
20
131.497609
11
68.944815
21
131.176444
0
LINE
8
boundary
62
5
39
2
10
68.944815
20
131.176444
11
68.066100
21
129.558168
0
LINE
8
boundary
62
5
39
2
10
68.066100
20
129.558168
11
67.898758
21
129.249986
0
LINE
8
boundary
62
5
39
2
10
67.898758
20
129.249986
11
66.887039
21
127.711358
0
LINE
8
boundary
62
5
39
2
10
66.887039
20
127.711358
11
66.694368
21
127.418343
0
LINE
8
boundary
62
5
39
2
10
66.694368
20
127.418343
11
65.556820
21
125.970263
0
LINE
8
boundary
62
5
39
2
10
65.556820
20
125.970263
11
65.340187
21
125.694492
0
LINE
8
boundary
62
5
39
2
10
65.340187
20
125.694492
11
64.084869
21
124.347225
0
LINE
8
annotation
62
1
39
211
10
78.878993
20
141.735051
11
78.878993
21
143.163800
0
LINE
8
annotation
62
1
39
211
10
78.878993
20
141.735051
11
78.878993
21
143.163800
0
LINE
8
annotation
62
1
39
211
10
78.878993
20
143.163800
11
78.878993
21
141.735051
0
LINE
8
annotation
62
1
39
211
10
78.878993
20
141.735051
11
78.878993
21
140.306301
0
LINE
8
annotation
62
1
39
211
10
73.147298
20
142.066602
11
74.576048
21
142.066602
0
LINE
8
annotation
62
1
39
211
10
73.147298
20
142.066602
11
74.576048
21
142.066602
0
LINE
8
annotation
62
1
39
211
10
74.576048
20
142.066602
11
73.147298
21
142.066602
0
LINE
8
annotation
62
1
39
211
10
73.147298
20
142.066602
11
73.147298
21
140.637852
0
LINE
8
annotation
62
1
39
211
10
63.568975
20
174.287022
11
63.568975
21
175.715772
0
LINE
8
annotation
62
1
39
211
10
63.568975
20
174.287022
11
63.568975
21
175.715772
0
LINE
8
annotation
62
1
39
211
10
63.568975
20
175.715772
11
63.568975
21
174.287022
0
LINE
8
annotation
62
1
39
211
10
63.568975
20
174.287022
11
62.140225
21
174.287022
0
LINE
8
annotation
62
1
39
211
10
63.568975
20
109.183079
11
64.997725
21
109.183079
0
LINE
8
annotation
62
1
39
211
10
63.568975
20
109.183079
11
64.997725
21
109.183079
0
LINE
8
annotation
62
1
39
211
10
64.997725
20
109.183079
11
63.568975
21
109.183079
0
LINE
8
annotation
62
1
39
211
10
63.568975
20
109.183079
11
62.140225
21
109.183079
0
LINE
8
annotation
62
1
39
211
10
53.987299
20
174.920336
11
53.987299
21
174.920336
0
LINE
8
annotation
62
1
39
211
10
53.987299
20
174.920336
11
53.785910
21
174.844828
0
LINE
8
annotation
62
1
39
211
10
53.785910
20
174.844828
11
53.601109
21
174.743089
0
LINE
8
annotation
62
1
39
211
10
53.601109
20
174.743089
11
53.434794
21
174.617668
0
LINE
8
annotation
62
1
39
211
10
53.434794
20
174.617668
11
53.288861
21
174.471116
0
LINE
8
annotation
62
1
39
211
10
53.288861
20
174.471116
11
53.165207
21
174.305980
0
LINE
8
annotation
62
1
39
211
10
53.165207
20
174.305980
11
53.065729
21
174.124810
0
LINE
8
annotation
62
1
39
211
10
53.065729
20
174.124810
11
52.992325
21
173.930155
0
LINE
8
annotation
62
1
39
211
10
52.992325
20
173.930155
11
52.946891
21
173.724563
0
LINE
8
annotation
62
1
39
211
10
52.946891
20
173.724563
11
52.931325
21
173.510584
0
LINE
8
annotation
62
1
39
211
10
52.931325
20
173.510584
11
52.931325
21
172.458383
0
LINE
8
annotation
62
1
39
211
10
52.931325
20
172.458383
11
52.931325
21
172.458383
0
LINE
8
annotation
62
1
39
211
10
52.931325
20
172.458383
11
52.942675
21
172.331921
0
LINE
8
annotation
62
1
39
211
10
52.942675
20
172.331921
11
52.975389
21
172.212878
0
LINE
8
annotation
62
1
39
211
10
52.975389
20
172.212878
11
53.027465
21
172.103244
0
LINE
8
annotation
62
1
39
211
10
53.027465
20
172.103244
11
53.096898
21
172.005013
0
LINE
8
annotation
62
1
39
211
10
53.096898
20
172.005013
11
53.181685
21
171.920175
0
LINE
8
annotation
62
1
39
211
10
53.181685
20
171.920175
11
53.279824
21
171.850723
0
LINE
8
annotation
62
1
39
211
10
53.279824
20
171.850723
11
53.389311
21
171.798648
0
LINE
8
annotation
62
1
39
211
10
53.389311
20
171.798648
11
53.508142
21
171.765943
0
LINE
8
annotation
62
1
39
211
10
53.508142
20
171.765943
11
53.634315
21
171.754599
0
LINE
8
annotation
62
1
39
211
10
53.634315
20
171.754599
11
53.634315
21
171.754599
0
LINE
8
annotation
62
1
39
211
10
53.634315
20
171.754599
11
53.760750
21
171.765943
0
LINE
8
annotation
62
1
39
211
10
53.760750
20
171.765943
11
53.879720
21
171.798648
0
LINE
8
annotation
62
1
39
211
10
53.879720
20
171.798648
11
53.989248
21
171.850723
0
LINE
8
annotation
62
1
39
211
10
53.989248
20
171.850723
11
54.087354
21
171.920175
0
LINE
8
annotation
62
1
39
211
10
54.087354
20
171.920175
11
54.172059
21
172.005013
0
LINE
8
annotation
62
1
39
211
10
54.172059
20
172.005013
11
54.241386
21
172.103244
0
LINE
8
annotation
62
1
39
211
10
54.241386
20
172.103244
11
54.293355
21
172.212878
0
LINE
8
annotation
62
1
39
211
10
54.293355
20
172.212878
11
54.325988
21
172.331921
0
LINE
8
annotation
62
1
39
211
10
54.325988
20
172.331921
11
54.337305
21
172.458383
0
LINE
8
annotation
62
1
39
211
10
54.337305
20
172.458383
11
54.337305
21
172.808587
0
LINE
8
annotation
62
1
39
211
10
54.337305
20
172.808587
11
54.337305
21
172.808587
0
LINE
8
annotation
62
1
39
211
10
54.337305
20
172.808587
11
54.325988
21
172.934987
0
LINE
8
annotation
62
1
39
211
10
54.325988
20
172.934987
11
54.293355
21
173.053867
0
LINE
8
annotation
62
1
39
211
10
54.293355
20
173.053867
11
54.241386
21
173.163262
0
LINE
8
annotation
62
1
39
211
10
54.241386
20
173.163262
11
54.172059
21
173.261212
0
LINE
8
annotation
62
1
39
211
10
54.172059
20
173.261212
11
54.087354
21
173.345753
0
LINE
8
annotation
62
1
39
211
10
54.087354
20
173.345753
11
53.989248
21
173.414923
0
LINE
8
annotation
62
1
39
211
10
53.989248
20
173.414923
11
53.879720
21
173.466760
0
LINE
8
annotation
62
1
39
211
10
53.879720
20
173.466760
11
53.760750
21
173.499301
0
LINE
8
annotation
62
1
39
211
10
53.760750
20
173.499301
11
53.634315
21
173.510584
0
LINE
8
annotation
62
1
39
211
10
53.634315
20
173.510584
11
52.931325
21
173.510584
0
LINE
8
annotation
62
1
39
211
10
52.843278
20
171.358881
11
54.426147
21
171.358881
0
LINE
8
annotation
62
1
39
211
10
57.255726
20
173.337467
11
55.524754
21
173.337467
0
LINE
8
annotation
62
1
39
211
10
59.146463
20
171.754599
11
59.146463
21
174.920336
0
LINE
8
annotation
62
1
39
211
10
59.146463
20
174.920336
11
58.442679
21
174.216354
0
LINE
8
hole
62
5
39
2
10
102.710228
20
81.219516
11
103.281728
21
81.219516
0
LINE
8
hole
62
5
39
2
10
103.281728
20
81.219516
11
103.281728
21
81.791016
0
LINE
8
hole
62
5
39
2
10
103.281728
20
81.791016
11
102.710228
21
81.791016
0
LINE
8
hole
62
5
39
2
10
102.710228
20
81.791016
11
102.710228
21
81.219516
0
LINE
8
hole
62
5
39
2
10
102.236391
20
17.589204
11
102.807891
21
17.589204
0
LINE
8
hole
62
5
39
2
10
102.807891
20
17.589204
11
102.807891
21
18.160704
0
LINE
8
hole
62
5
39
2
10
102.807891
20
18.160704
11
102.236391
21
18.160704
0
LINE
8
hole
62
5
39
2
10
102.236391
20
18.160704
11
102.236391
21
17.589204
0
LINE
8
hole
62
5
39
2
10
87.979370
20
49.172452
11
88.550870
21
49.172452
0
LINE
8
hole
62
5
39
2
10
88.550870
20
49.172452
11
88.550870
21
49.743952
0
LINE
8
hole
62
5
39
2
10
88.550870
20
49.743952
11
87.979370
21
49.743952
0
LINE
8
hole
62
5
39
2
10
87.979370
20
49.743952
11
87.979370
21
49.172452
0
LINE
8
hole
62
5
39
2
10
93.711065
20
49.504001
11
94.282565
21
49.504001
0
LINE
8
hole
62
5
39
2
10
94.282565
20
49.504001
11
94.282565
21
50.075501
0
LINE
8
hole
62
5
39
2
10
94.282565
20
50.075501
11
93.711065
21
50.075501
0
LINE
8
hole
62
5
39
2
10
93.711065
20
50.075501
11
93.711065
21
49.504001
0
LINE
8
boundary
62
5
39
2
10
115.044216
20
25.148372
11
114.968472
21
25.168126
0
LINE
8
boundary
62
5
39
2
10
114.968472
20
25.168126
11
114.556052
21
25.278449
0
LINE
8
boundary
62
5
39
2
10
114.556052
20
25.278449
11
113.138852
21
25.740941
0
LINE
8
boundary
62
5
39
2
10
113.138852
20
25.740941
11
112.472079
21
25.958537
0
LINE
8
boundary
62
5
39
2
10
112.472079
20
25.958537
11
111.098802
21
26.538594
0
LINE
8
boundary
62
5
39
2
10
111.098802
20
26.538594
11
110.452693
21
26.811502
0
LINE
8
boundary
62
5
39
2
10
110.452693
20
26.811502
11
109.133071
21
27.505012
0
LINE
8
boundary
62
5
39
2
10
109.133071
20
27.505012
11
108.512207
21
27.831298
0
LINE
8
boundary
62
5
39
2
10
108.512207
20
27.831298
11
107.255592
21
28.633346
0
LINE
8
boundary
62
5
39
2
10
107.255592
20
28.633346
11
106.664372
21
29.010699
0
LINE
8
boundary
62
5
39
2
10
106.664372
20
29.010699
11
105.479675
21
29.915600
0
LINE
8
boundary
62
5
39
2
10
105.479675
20
29.915600
11
104.922291
21
30.341344
0
LINE
8
boundary
62
5
39
2
10
104.922291
20
30.341344
11
103.817904
21
31.342686
0
LINE
8
boundary
62
5
39
2
10
103.817904
20
31.342686
11
103.298305
21
31.813804
0
LINE
8
boundary
62
5
39
2
10
103.298305
20
31.813804
11
102.282056
21
32.904490
0
LINE
8
boundary
62
5
39
2
10
102.282056
20
32.904490
11
101.803925
21
33.417643
0
LINE
8
boundary
62
5
39
2
10
101.803925
20
33.417643
11
100.883019
21
34.589943
0
LINE
8
boundary
62
5
39
2
10
100.883019
20
34.589943
11
100.449744
21
35.141494
0
LINE
8
boundary
62
5
39
2
10
100.449744
20
35.141494
11
99.630703
21
36.387098
0
LINE
8
boundary
62
5
39
2
10
99.630703
20
36.387098
11
99.245355
21
36.973137
0
LINE
8
boundary
62
5
39
2
10
99.245355
20
36.973137
11
98.533986
21
38.283219
0
LINE
8
boundary
62
5
39
2
10
98.533986
20
38.283219
11
98.199297
21
38.899594
0
LINE
8
boundary
62
5
39
2
10
98.199297
20
38.899594
11
97.600644
21
40.264868
0
LINE
8
boundary
62
5
39
2
10
97.600644
20
40.264868
11
97.318985
21
40.907210
0
LINE
8
boundary
62
5
39
2
10
97.318985
20
40.907210
11
96.837292
21
42.317999
0
LINE
8
boundary
62
5
39
2
10
96.837292
20
42.317999
11
96.610662
21
42.981756
0
LINE
8
boundary
62
5
39
2
10
96.610662
20
42.981756
11
96.249337
21
44.428062
0
LINE
8
boundary
62
5
39
2
10
96.249337
20
44.428062
11
96.079338
21
45.108530
0
LINE
8
boundary
62
5
39
2
10
96.079338
20
45.108530
11
95.840943
21
46.580102
0
LINE
8
boundary
62
5
39
2
10
95.840943
20
46.580102
11
95.728781
21
47.272457
0
LINE
8
boundary
62
5
39
2
10
95.728781
20
47.272457
11
95.615011
21
48.758866
0
LINE
8
boundary
62
5
39
2
10
95.615011
20
48.758866
11
95.561483
21
49.458202
0
LINE
8
boundary
62
5
39
2
10
95.561483
20
49.458202
11
95.675254
21
50.944611
0
LINE
8
boundary
62
5
39
2
10
95.675254
20
50.944611
11
95.728781
21
51.643947
0
LINE
8
boundary
62
5
39
2
10
95.728781
20
51.643947
11
95.967177
21
53.115519
0
LINE
8
boundary
62
5
39
2
10
95.967177
20
53.115519
11
96.079338
21
53.807874
0
LINE
8
boundary
62
5
39
2
10
96.079338
20
53.807874
11
96.440664
21
55.254180
0
LINE
8
boundary
62
5
39
2
10
96.440664
20
55.254180
11
96.610662
21
55.934647
0
LINE
8
boundary
62
5
39
2
10
96.610662
20
55.934647
11
97.092355
21
57.345436
0
LINE
8
boundary
62
5
39
2
10
97.092355
20
57.345436
11
97.318985
21
58.009193
0
LINE
8
boundary
62
5
39
2
10
97.318985
20
58.009193
11
97.917639
21
59.374466
0
LINE
8
boundary
62
5
39
2
10
97.917639
20
59.374466
11
98.199298
21
60.016809
0
LINE
8
boundary
62
5
39
2
10
98.199298
20
60.016809
11
98.910666
21
61.326891
0
LINE
8
boundary
62
5
39
2
10
98.910666
20
61.326891
11
99.245355
21
61.943266
0
LINE
8
boundary
62
5
39
2
10
99.245355
20
61.943266
11
100.064397
21
63.188870
0
LINE
8
boundary
62
5
39
2
10
100.064397
20
63.188870
11
100.449745
21
63.774909
0
LINE
8
boundary
62
5
39
2
10
100.449745
20
63.774909
11
101.370651
21
64.947209
0
LINE
8
boundary
62
5
39
2
10
101.370651
20
64.947209
11
101.803925
21
65.498760
0
LINE
8
boundary
62
5
39
2
10
101.803925
20
65.498760
11
102.820174
21
66.589446
0
LINE
8
boundary
62
5
39
2
10
102.820174
20
66.589446
11
103.298305
21
67.102599
0
LINE
8
boundary
62
5
39
2
10
103.298305
20
67.102599
11
104.402692
21
68.103942
0
LINE
8
boundary
62
5
39
2
10
104.402692
20
68.103942
11
104.922291
21
68.575059
0
LINE
8
boundary
62
5
39
2
10
104.922291
20
68.575059
11
106.106989
21
69.479961
0
LINE
8
boundary
62
5
39
2
10
106.106989
20
69.479961
11
106.664372
21
69.905704
0
LINE
8
boundary
62
5
39
2
10
106.664372
20
69.905704
11
107.920987
21
70.707752
0
LINE
8
boundary
62
5
39
2
10
107.920987
20
70.707752
11
108.512207
21
71.085105
0
LINE
8
boundary
62
5
39
2
10
108.512207
20
71.085105
11
109.831829
21
71.778614
0
LINE
8
boundary
62
5
39
2
10
109.831829
20
71.778614
11
110.452694
21
72.104901
0
LINE
8
boundary
62
5
39
2
10
110.452694
20
72.104901
11
111.825971
21
72.684958
0
LINE
8
boundary
62
5
39
2
10
111.825971
20
72.684958
11
112.472079
21
72.957866
0
LINE
8
boundary
62
5
39
2
10
112.472079
20
72.957866
11
113.889279
21
73.420358
0
LINE
8
boundary
62
5
39
2
10
113.889279
20
73.420358
11
114.556053
21
73.637954
0
LINE
8
boundary
62
5
39
2
10
114.556053
20
73.637954
11
114.968472
21
73.748277
0
LINE
8
boundary
62
5
39
2
10
114.968472
20
73.748277
11
115.044216
21
73.768031
0
LINE
8
boundary
62
5
39
2
10
115.044216
20
73.768031
11
115.229025
21
73.814674
0
LINE
8
boundary
62
5
39
2
10
115.229025
20
73.814674
11
115.557765
21
73.894774
0
LINE
8
boundary
62
5
39
2
10
115.557765
20
73.894774
11
115.802121
21
73.952306
0
LINE
8
boundary
62
5
39
2
10
115.802121
20
73.952306
11
116.117467
21
74.024005
0
LINE
8
boundary
62
5
39
2
10
116.117467
20
74.024005
11
116.214126
21
74.043751
0
LINE
8
boundary
62
5
39
2
10
116.214126
20
74.043751
11
116.205908
21
83.111722
0
LINE
8
boundary
62
5
39
2
10
116.205908
20
83.111722
11
116.215190
21
92.248903
0
LINE
8
boundary
62
5
39
2
10
116.215190
20
92.248903
11
115.848116
21
92.127255
0
LINE
8
boundary
62
5
39
2
10
115.848116
20
92.127255
11
115.758727
21
92.097247
0
LINE
8
boundary
62
5
39
2
10
115.758727
20
92.097247
11
115.372218
21
91.964616
0
LINE
8
boundary
62
5
39
2
10
115.372218
20
91.964616
11
115.146840
21
91.885698
0
LINE
8
boundary
62
5
39
2
10
115.146840
20
91.885698
11
115.062001
21
91.855488
0
LINE
8
boundary
62
5
39
2
10
115.062001
20
91.855488
11
114.462646
21
91.638031
0
LINE
8
boundary
62
5
39
2
10
114.462646
20
91.638031
11
113.316183
21
91.168580
0
LINE
8
boundary
62
5
39
2
10
113.316183
20
91.168580
11
111.765272
21
90.533517
0
LINE
8
boundary
62
5
39
2
10
111.765272
20
90.533517
11
110.651601
21
89.990839
0
LINE
8
boundary
62
5
39
2
10
110.651601
20
89.990839
11
109.145050
21
89.256717
0
LINE
8
boundary
62
5
39
2
10
109.145050
20
89.256717
11
108.068842
21
88.643089
0
LINE
8
boundary
62
5
39
2
10
108.068842
20
88.643089
11
106.612972
21
87.812986
0
LINE
8
boundary
62
5
39
2
10
106.612972
20
87.812986
11
105.578741
21
87.130983
0
LINE
8
boundary
62
5
39
2
10
105.578741
20
87.130983
11
104.179655
21
86.208384
0
LINE
8
boundary
62
5
39
2
10
104.179655
20
86.208384
11
103.191739
21
85.460866
0
LINE
8
boundary
62
5
39
2
10
103.191739
20
85.460866
11
101.855306
21
84.449640
0
LINE
8
boundary
62
5
39
2
10
101.855306
20
84.449640
11
100.917849
21
83.639741
0
LINE
8
boundary
62
5
39
2
10
100.917849
20
83.639741
11
99.649678
21
82.544127
0
LINE
8
boundary
62
5
39
2
10
99.649678
20
82.544127
11
98.766609
21
81.675244
0
LINE
8
boundary
62
5
39
2
10
98.766609
20
81.675244
11
97.572013
21
80.499839
0
LINE
8
boundary
62
5
39
2
10
97.572013
20
80.499839
11
96.747041
21
79.575618
0
LINE
8
boundary
62
5
39
2
10
96.747041
20
79.575618
11
95.631037
21
78.325353
0
LINE
8
boundary
62
5
39
2
10
95.631037
20
78.325353
11
94.867619
21
77.349672
0
LINE
8
boundary
62
5
39
2
10
94.867619
20
77.349672
11
93.834884
21
76.029793
0
LINE
8
boundary
62
5
39
2
10
93.834884
20
76.029793
11
93.136222
21
75.006740
0
LINE
8
boundary
62
5
39
2
10
93.136222
20
75.006740
11
92.191089
21
73.622777
0
LINE
8
boundary
62
5
39
2
10
92.191089
20
73.622777
11
91.560115
21
72.556647
0
LINE
8
boundary
62
5
39
2
10
91.560115
20
72.556647
11
90.706547
21
71.114409
0
LINE
8
boundary
62
5
39
2
10
90.706547
20
71.114409
11
90.145906
21
70.009671
0
LINE
8
boundary
62
5
39
2
10
90.145906
20
70.009671
11
89.387484
21
68.515205
0
LINE
8
boundary
62
5
39
2
10
89.387484
20
68.515205
11
88.899529
21
67.376494
0
LINE
8
boundary
62
5
39
2
10
88.899529
20
67.376494
11
88.239434
21
65.836070
0
LINE
8
boundary
62
5
39
2
10
88.239434
20
65.836070
11
87.826212
21
64.668162
0
LINE
8
boundary
62
5
39
2
10
87.826212
20
64.668162
11
87.267213
21
63.088241
0
LINE
8
boundary
62
5
39
2
10
87.267213
20
63.088241
11
86.930454
21
61.896034
0
LINE
8
boundary
62
5
39
2
10
86.930454
20
61.896034
11
86.474895
21
60.283243
0
LINE
8
boundary
62
5
39
2
10
86.474895
20
60.283243
11
86.216014
21
59.071738
0
LINE
8
boundary
62
5
39
2
10
86.216014
20
59.071738
11
85.865805
21
57.432842
0
LINE
8
boundary
62
5
39
2
10
85.865805
20
57.432842
11
85.685888
21
56.207120
0
LINE
8
boundary
62
5
39
2
10
85.685888
20
56.207120
11
85.442500
21
54.548991
0
LINE
8
boundary
62
5
39
2
10
85.442500
20
54.548991
11
85.342300
21
53.314194
0
LINE
8
boundary
62
5
39
2
10
85.342300
20
53.314194
11
85.206752
21
51.643788
0
LINE
8
boundary
62
5
39
2
10
85.206752
20
51.643788
11
85.186693
21
50.405095
0
LINE
8
boundary
62
5
39
2
10
85.186693
20
50.405095
11
85.159556
21
48.729418
0
LINE
8
boundary
62
5
39
2
10
85.159556
20
48.729418
11
85.219719
21
47.492024
0
LINE
8
boundary
62
5
39
2
10
85.219719
20
47.492024
11
85.301105
21
45.818105
0
LINE
8
boundary
62
5
39
2
10
85.301105
20
45.818105
11
85.441236
21
44.587200
0
LINE
8
boundary
62
5
39
2
10
85.441236
20
44.587200
11
85.630803
21
42.922060
0
LINE
8
boundary
62
5
39
2
10
85.630803
20
42.922060
11
85.850316
21
41.702807
0
LINE
8
boundary
62
5
39
2
10
85.850316
20
41.702807
11
86.147269
21
40.053428
0
LINE
8
boundary
62
5
39
2
10
86.147269
20
40.053428
11
86.445243
21
38.850942
0
LINE
8
boundary
62
5
39
2
10
86.445243
20
38.850942
11
86.848337
21
37.224245
0
LINE
8
boundary
62
5
39
2
10
86.848337
20
37.224245
11
87.223525
21
36.043569
0
LINE
8
boundary
62
5
39
2
10
87.223525
20
36.043569
11
87.731071
21
34.446376
0
LINE
8
boundary
62
5
39
2
10
87.731071
20
34.446376
11
88.181898
21
33.292460
0
LINE
8
boundary
62
5
39
2
10
88.181898
20
33.292460
11
88.791765
21
31.731469
0
LINE
8
boundary
62
5
39
2
10
88.791765
20
31.731469
11
89.316339
21
30.609156
0
LINE
8
boundary
62
5
39
2
10
89.316339
20
30.609156
11
90.025971
21
29.090916
0
LINE
8
boundary
62
5
39
2
10
90.025971
20
29.090916
11
90.622089
21
28.004912
0
LINE
8
boundary
62
5
39
2
10
90.622089
20
28.004912
11
91.428505
21
26.535791
0
LINE
8
boundary
62
5
39
2
10
91.428505
20
26.535791
11
92.093672
21
25.490651
0
LINE
8
boundary
62
5
39
2
10
92.093672
20
25.490651
11
92.993496
21
24.076808
0
LINE
8
boundary
62
5
39
2
10
92.993496
20
24.076808
11
93.724917
21
23.076916
0
LINE
8
boundary
62
5
39
2
10
93.724917
20
23.076916
11
94.714369
21
21.724284
0
LINE
8
boundary
62
5
39
2
10
94.714369
20
21.724284
11
95.508982
21
20.773834
0
LINE
8
boundary
62
5
39
2
10
95.508982
20
20.773834
11
96.583916
21
19.488086
0
LINE
8
boundary
62
5
39
2
10
96.583916
20
19.488086
11
97.438385
21
18.591066
0
LINE
8
boundary
62
5
39
2
10
97.438385
20
18.591066
11
98.594292
21
17.377596
0
LINE
8
boundary
62
5
39
2
10
98.594292
20
17.377596
11
99.505033
21
16.537765
0
LINE
8
boundary
62
5
39
2
10
99.505033
20
16.537765
11
100.737063
21
15.401659
0
LINE
8
boundary
62
5
39
2
10
100.737063
20
15.401659
11
101.700254
21
14.622543
0
LINE
8
boundary
62
5
39
2
10
101.700254
20
14.622543
11
103.003238
21
13.568571
0
LINE
8
boundary
62
5
39
2
10
103.003238
20
13.568571
11
104.014842
21
12.853436
0
LINE
8
boundary
62
5
39
2
10
104.014842
20
12.853436
11
105.383319
21
11.886016
0
LINE
8
boundary
62
5
39
2
10
105.383319
20
11.886016
11
106.439093
21
11.237860
0
LINE
8
boundary
62
5
39
2
10
106.439093
20
11.237860
11
107.867321
21
10.361048
0
LINE
8
boundary
62
5
39
2
10
107.867321
20
10.361048
11
108.962836
21
9.782592
0
LINE
8
boundary
62
5
39
2
10
108.962836
20
9.782592
11
110.444824
21
9.000070
0
LINE
8
boundary
62
5
39
2
10
110.444824
20
9.000070
11
111.575484
21
8.493740
0
LINE
8
boundary
62
5
39
2
10
111.575484
20
8.493740
11
113.105016
21
7.808788
0
LINE
8
boundary
62
5
39
2
10
113.105016
20
7.808788
11
114.875267
21
7.133871
0
LINE
8
boundary
62
5
39
2
10
114.875267
20
7.133871
11
115.003899
21
7.086551
0
LINE
8
boundary
62
5
39
2
10
115.003899
20
7.086551
11
115.291514
21
6.979517
0
LINE
8
boundary
62
5
39
2
10
115.291514
20
6.979517
11
115.468552
21
6.917702
0
LINE
8
boundary
62
5
39
2
10
115.468552
20
6.917702
11
115.803179
21
6.803429
0
LINE
8
boundary
62
5
39
2
10
115.803179
20
6.803429
11
116.215190
21
6.667500
0
LINE
8
boundary
62
5
39
2
10
116.215190
20
6.667500
11
116.205908
21
15.804681
0
LINE
8
boundary
62
5
39
2
10
116.205908
20
15.804681
11
116.214126
21
24.872652
0
LINE
8
boundary
62
5
39
2
10
116.214126
20
24.872652
11
116.117467
21
24.892398
0
LINE
8
boundary
62
5
39
2
10
116.117467
20
24.892398
11
115.802121
21
24.964097
0
LINE
8
boundary
62
5
39
2
10
115.802121
20
24.964097
11
115.557765
21
25.021629
0
LINE
8
boundary
62
5
39
2
10
115.557765
20
25.021629
11
115.229025
21
25.101729
0
LINE
8
boundary
62
5
39
2
10
115.229025
20
25.101729
11
115.044216
21
25.148372
0
LINE
8
annotation
62
1
39
211
10
102.995978
20
81.505266
11
102.995978
21
82.934015
0
LINE
8
annotation
62
1
39
211
10
102.995978
20
81.505266
11
102.995978
21
82.934015
0
LINE
8
annotation
62
1
39
211
10
102.995978
20
82.934015
11
102.995978
21
81.505266
0
LINE
8
annotation
62
1
39
211
10
102.995978
20
81.505266
11
104.424728
21
81.505265
0
LINE
8
annotation
62
1
39
211
10
102.522141
20
17.874954
11
102.522141
21
16.446204
0
LINE
8
annotation
62
1
39
211
10
93.996815
20
49.789751
11
93.996815
21
51.218501
0
LINE
8
annotation
62
1
39
211
10
93.996815
20
49.789751
11
93.996815
21
51.218501
0
LINE
8
annotation
62
1
39
211
10
93.996815
20
51.218501
11
93.996815
21
49.789751
0
LINE
8
annotation
62
1
39
211
10
93.996815
20
49.789751
11
95.425565
21
49.789751
0
LINE
8
annotation
62
1
39
211
10
93.996815
20
49.789751
11
93.996815
21
51.218501
0
LINE
8
annotation
62
1
39
211
10
93.996815
20
51.218501
11
93.996815
21
49.789751
0
LINE
8
annotation
62
1
39
211
10
93.996815
20
49.789751
11
95.425565
21
49.789751
0
LINE
8
annotation
62
1
39
211
10
95.425565
20
49.789751
11
93.996815
21
49.789751
0
LINE
8
annotation
62
1
39
211
10
93.996815
20
49.789751
11
93.996815
21
48.361001
0
LINE
8
annotation
62
1
39
211
10
88.265120
20
49.458202
11
86.836370
21
49.458202
0
LINE
8
annotation
62
1
39
211
10
106.681856
20
78.676475
11
107.366081
21
78.676475
0
LINE
8
annotation
62
1
39
211
10
107.366081
20
78.676475
11
107.366081
21
78.676475
0
LINE
8
annotation
62
1
39
211
10
107.366081
20
78.676475
11
107.488887
21
78.687516
0
LINE
8
annotation
62
1
39
211
10
107.488887
20
78.687516
11
107.604546
21
78.719349
0
LINE
8
annotation
62
1
39
211
10
107.604546
20
78.719349
11
107.711111
21
78.770034
0
LINE
8
annotation
62
1
39
211
10
107.711111
20
78.770034
11
107.806630
21
78.837632
0
LINE
8
annotation
62
1
39
211
10
107.806630
20
78.837632
11
107.889154
21
78.920205
0
LINE
8
annotation
62
1
39
211
10
107.889154
20
78.920205
11
107.956734
21
79.015814
0
LINE
8
annotation
62
1
39
211
10
107.956734
20
79.015814
11
108.007419
21
79.122521
0
LINE
8
annotation
62
1
39
211
10
108.007419
20
79.122521
11
108.039260
21
79.238387
0
LINE
8
annotation
62
1
39
211
10
108.039260
20
79.238387
11
108.050307
21
79.361474
0
LINE
8
annotation
62
1
39
211
10
108.050307
20
79.361474
11
108.050307
21
79.702330
0
LINE
8
annotation
62
1
39
211
10
108.050307
20
79.702330
11
108.050307
21
79.702330
0
LINE
8
annotation
62
1
39
211
10
108.050307
20
79.702330
11
108.039267
21
79.825357
0
LINE
8
annotation
62
1
39
211
10
108.039267
20
79.825357
11
108.007442
21
79.941063
0
LINE
8
annotation
62
1
39
211
10
108.007442
20
79.941063
11
107.956777
21
80.047539
0
LINE
8
annotation
62
1
39
211
10
107.956777
20
80.047539
11
107.889218
21
80.142874
0
LINE
8
annotation
62
1
39
211
10
107.889218
20
80.142874
11
107.806710
21
80.225158
0
LINE
8
annotation
62
1
39
211
10
107.806710
20
80.225158
11
107.711197
21
80.292482
0
LINE
8
annotation
62
1
39
211
10
107.711197
20
80.292482
11
107.604624
21
80.342936
0
LINE
8
annotation
62
1
39
211
10
107.604624
20
80.342936
11
107.488938
21
80.374608
0
LINE
8
annotation
62
1
39
211
10
107.488938
20
80.374608
11
107.366081
21
80.385590
0
LINE
8
annotation
62
1
39
211
10
107.366081
20
80.385590
11
106.681856
21
80.385590
0
LINE
8
annotation
62
1
39
211
10
106.681856
20
80.385590
11
106.681856
21
81.757713
0
LINE
8
annotation
62
1
39
211
10
106.681856
20
81.757713
11
108.050307
21
81.757713
0
LINE
8
annotation
62
1
39
211
10
110.890830
20
80.217094
11
109.206062
21
80.217094
0
LINE
8
annotation
62
1
39
211
10
113.414689
20
78.676450
11
112.046237
21
78.676450
0
LINE
8
annotation
62
1
39
211
10
112.046237
20
78.676450
11
113.310732
21
80.712123
0
LINE
8
annotation
62
1
39
211
10
113.310732
20
80.712123
11
113.310732
21
80.712123
0
LINE
8
annotation
62
1
39
211
10
113.310732
20
80.712123
11
113.312243
21
80.713994
0
LINE
8
annotation
62
1
39
211
10
113.312243
20
80.713994
11
113.313693
21
80.715880
0
LINE
8
annotation
62
1
39
211
10
113.313693
20
80.715880
11
113.315090
21
80.717798
0
LINE
8
annotation
62
1
39
211
10
113.315090
20
80.717798
11
113.316444
21
80.719764
0
LINE
8
annotation
62
1
39
211
10
113.316444
20
80.719764
11
113.317765
21
80.721794
0
LINE
8
annotation
62
1
39
211
10
113.317765
20
80.721794
11
113.319062
21
80.723903
0
LINE
8
annotation
62
1
39
211
10
113.319062
20
80.723903
11
113.320345
21
80.726107
0
LINE
8
annotation
62
1
39
211
10
113.320345
20
80.726107
11
113.321623
21
80.728423
0
LINE
8
annotation
62
1
39
211
10
113.321623
20
80.728423
11
113.322905
21
80.730866
0
LINE
8
annotation
62
1
39
211
10
113.322905
20
80.730866
11
113.322905
21
80.730866
0
LINE
8
annotation
62
1
39
211
10
113.322905
20
80.730866
11
113.375116
21
80.842967
0
LINE
8
annotation
62
1
39
211
10
113.375116
20
80.842967
11
113.405616
21
80.959169
0
LINE
8
annotation
62
1
39
211
10
113.405616
20
80.959169
11
113.415154
21
81.076848
0
LINE
8
annotation
62
1
39
211
10
113.415154
20
81.076848
11
113.404477
21
81.193376
0
LINE
8
annotation
62
1
39
211
10
113.404477
20
81.193376
11
113.374332
21
81.306129
0
LINE
8
annotation
62
1
39
211
10
113.374332
20
81.306129
11
113.325467
21
81.412480
0
LINE
8
annotation
62
1
39
211
10
113.325467
20
81.412480
11
113.258629
21
81.509805
0
LINE
8
annotation
62
1
39
211
10
113.258629
20
81.509805
11
113.174566
21
81.595477
0
LINE
8
annotation
62
1
39
211
10
113.174566
20
81.595477
11
113.074026
21
81.666870
0
LINE
8
annotation
62
1
39
211
10
113.074026
20
81.666870
11
113.074026
21
81.666870
0
LINE
8
annotation
62
1
39
211
10
113.074026
20
81.666870
11
112.961613
21
81.718339
0
LINE
8
annotation
62
1
39
211
10
112.961613
20
81.718339
11
112.845233
21
81.748370
0
LINE
8
annotation
62
1
39
211
10
112.845233
20
81.748370
11
112.727486
21
81.757638
0
LINE
8
annotation
62
1
39
211
10
112.727486
20
81.757638
11
112.610975
21
81.746820
0
LINE
8
annotation
62
1
39
211
10
112.610975
20
81.746820
11
112.498302
21
81.716592
0
LINE
8
annotation
62
1
39
211
10
112.498302
20
81.716592
11
112.392068
21
81.667629
0
LINE
8
annotation
62
1
39
211
10
112.392068
20
81.667629
11
112.294876
21
81.600608
0
LINE
8
annotation
62
1
39
211
10
112.294876
20
81.600608
11
112.209326
21
81.516203
0
LINE
8
annotation
62
1
39
211
10
112.209326
20
81.516203
11
112.138022
21
81.415092
0
LINE
8
annotation
62
1
39
211
10
112.138022
20
81.415092
11
112.048170
21
81.242732
0
LINE
8
hole
62
5
39
2
10
102.710228
20
169.625695
11
103.281728
21
169.625695
0
LINE
8
hole
62
5
39
2
10
103.281728
20
169.625695
11
103.281728
21
170.197195
0
LINE
8
hole
62
5
39
2
10
103.281728
20
170.197195
11
102.710228
21
170.197195
0
LINE
8
hole
62
5
39
2
10
102.710228
20
170.197195
11
102.710228
21
169.625695
0
LINE
8
hole
62
5
39
2
10
102.236391
20
105.995384
11
102.807891
21
105.995384
0
LINE
8
hole
62
5
39
2
10
102.807891
20
105.995384
11
102.807891
21
106.566884
0
LINE
8
hole
62
5
39
2
10
102.807891
20
106.566884
11
102.236391
21
106.566884
0
LINE
8
hole
62
5
39
2
10
102.236391
20
106.566884
11
102.236391
21
105.995384
0
LINE
8
hole
62
5
39
2
10
93.713394
20
137.879754
11
94.284894
21
137.879754
0
LINE
8
hole
62
5
39
2
10
94.284894
20
137.879754
11
94.284894
21
138.451254
0
LINE
8
hole
62
5
39
2
10
94.284894
20
138.451254
11
93.713394
21
138.451254
0
LINE
8
hole
62
5
39
2
10
93.713394
20
138.451254
11
93.713394
21
137.879754
0
LINE
8
hole
62
5
39
2
10
88.023798
20
137.578631
11
88.595298
21
137.578631
0
LINE
8
hole
62
5
39
2
10
88.595298
20
137.578631
11
88.595298
21
138.150131
0
LINE
8
hole
62
5
39
2
10
88.595298
20
138.150131
11
88.023798
21
138.150131
0
LINE
8
hole
62
5
39
2
10
88.023798
20
138.150131
11
88.023798
21
137.578631
0
LINE
8
boundary
62
5
39
2
10
113.105016
20
96.214967
11
115.106534
21
95.451878
0
LINE
8
boundary
62
5
39
2
10
115.106534
20
95.451878
11
115.181651
21
95.423903
0
LINE
8
boundary
62
5
39
2
10
115.181651
20
95.423903
11
115.179400
21
102.313390
0
LINE
8
boundary
62
5
39
2
10
115.179400
20
102.313390
11
115.179400
21
113.518143
0
LINE
8
boundary
62
5
39
2
10
115.179400
20
113.518143
11
115.142624
21
113.527719
0
LINE
8
boundary
62
5
39
2
10
115.142624
20
113.527719
11
114.556053
21
113.684628
0
LINE
8
boundary
62
5
39
2
10
114.556053
20
113.684628
11
113.472244
21
114.038320
0
LINE
8
boundary
62
5
39
2
10
113.472244
20
114.038320
11
112.472079
21
114.364716
0
LINE
8
boundary
62
5
39
2
10
112.472079
20
114.364716
11
111.421861
21
114.808316
0
LINE
8
boundary
62
5
39
2
10
111.421861
20
114.808316
11
110.452693
21
115.217682
0
LINE
8
boundary
62
5
39
2
10
110.452693
20
115.217682
11
109.443508
21
115.748045
0
LINE
8
boundary
62
5
39
2
10
109.443508
20
115.748045
11
108.512207
21
116.237478
0
LINE
8
boundary
62
5
39
2
10
108.512207
20
116.237478
11
107.551207
21
116.850846
0
LINE
8
boundary
62
5
39
2
10
107.551207
20
116.850846
11
106.664373
21
117.416878
0
LINE
8
boundary
62
5
39
2
10
106.664373
20
117.416878
11
105.758372
21
118.108904
0
LINE
8
boundary
62
5
39
2
10
105.758372
20
118.108904
11
104.922291
21
118.747523
0
LINE
8
boundary
62
5
39
2
10
104.922291
20
118.747523
11
104.077708
21
119.513303
0
LINE
8
boundary
62
5
39
2
10
104.077708
20
119.513303
11
103.298305
21
120.219984
0
LINE
8
boundary
62
5
39
2
10
103.298305
20
120.219984
11
102.521126
21
121.054089
0
LINE
8
boundary
62
5
39
2
10
102.521126
20
121.054089
11
101.803926
21
121.823822
0
LINE
8
boundary
62
5
39
2
10
101.803926
20
121.823822
11
101.099659
21
122.720343
0
LINE
8
boundary
62
5
39
2
10
101.099659
20
122.720343
11
100.449745
21
123.547674
0
LINE
8
boundary
62
5
39
2
10
100.449745
20
123.547674
11
99.823380
21
124.500253
0
LINE
8
boundary
62
5
39
2
10
99.823380
20
124.500253
11
99.245355
21
125.379316
0
LINE
8
boundary
62
5
39
2
10
99.245355
20
125.379316
11
98.701334
21
126.381205
0
LINE
8
boundary
62
5
39
2
10
98.701334
20
126.381205
11
98.199298
21
127.305774
0
LINE
8
boundary
62
5
39
2
10
98.199298
20
127.305774
11
97.741475
21
128.349871
0
LINE
8
boundary
62
5
39
2
10
97.741475
20
128.349871
11
97.318985
21
129.313390
0
LINE
8
boundary
62
5
39
2
10
97.318985
20
129.313390
11
96.950609
21
130.392295
0
LINE
8
boundary
62
5
39
2
10
96.950609
20
130.392295
11
96.610662
21
131.387935
0
LINE
8
boundary
62
5
39
2
10
96.610662
20
131.387935
11
96.334338
21
132.494003
0
LINE
8
boundary
62
5
39
2
10
96.334338
20
132.494003
11
96.079338
21
133.514709
0
LINE
8
boundary
62
5
39
2
10
96.079338
20
133.514709
11
95.897025
21
134.640099
0
LINE
8
boundary
62
5
39
2
10
95.897025
20
134.640099
11
95.728781
21
135.678636
0
LINE
8
boundary
62
5
39
2
10
95.728781
20
135.678636
11
95.641775
21
136.815372
0
LINE
8
boundary
62
5
39
2
10
95.641775
20
136.815372
11
95.561483
21
137.864381
0
LINE
8
boundary
62
5
39
2
10
95.561483
20
137.864381
11
95.648490
21
139.001117
0
LINE
8
boundary
62
5
39
2
10
95.648490
20
139.001117
11
95.728782
21
140.050126
0
LINE
8
boundary
62
5
39
2
10
95.728782
20
140.050126
11
95.911095
21
141.175516
0
LINE
8
boundary
62
5
39
2
10
95.911095
20
141.175516
11
96.079338
21
142.214053
0
LINE
8
boundary
62
5
39
2
10
96.079338
20
142.214053
11
96.355663
21
143.320120
0
LINE
8
boundary
62
5
39
2
10
96.355663
20
143.320120
11
96.610662
21
144.340827
0
LINE
8
boundary
62
5
39
2
10
96.610662
20
144.340827
11
96.979038
21
145.419732
0
LINE
8
boundary
62
5
39
2
10
96.979038
20
145.419732
11
97.318985
21
146.415372
0
LINE
8
boundary
62
5
39
2
10
97.318985
20
146.415372
11
97.776808
21
147.459469
0
LINE
8
boundary
62
5
39
2
10
97.776808
20
147.459469
11
98.199297
21
148.422988
0
LINE
8
boundary
62
5
39
2
10
98.199297
20
148.422988
11
98.743318
21
149.424878
0
LINE
8
boundary
62
5
39
2
10
98.743318
20
149.424878
11
99.245355
21
150.349446
0
LINE
8
boundary
62
5
39
2
10
99.245355
20
150.349446
11
99.871719
21
151.302025
0
LINE
8
boundary
62
5
39
2
10
99.871719
20
151.302025
11
100.449745
21
152.181088
0
LINE
8
boundary
62
5
39
2
10
100.449745
20
152.181088
11
101.154011
21
153.077609
0
LINE
8
boundary
62
5
39
2
10
101.154011
20
153.077609
11
101.803925
21
153.904940
0
LINE
8
boundary
62
5
39
2
10
101.803925
20
153.904940
11
102.581105
21
154.739045
0
LINE
8
boundary
62
5
39
2
10
102.581105
20
154.739045
11
103.298305
21
155.508779
0
LINE
8
boundary
62
5
39
2
10
103.298305
20
155.508779
11
104.142888
21
156.274558
0
LINE
8
boundary
62
5
39
2
10
104.142888
20
156.274558
11
104.922291
21
156.981239
0
LINE
8
boundary
62
5
39
2
10
104.922291
20
156.981239
11
105.828292
21
157.673265
0
LINE
8
boundary
62
5
39
2
10
105.828292
20
157.673265
11
106.664372
21
158.311884
0
LINE
8
boundary
62
5
39
2
10
106.664372
20
158.311884
11
107.625372
21
158.925253
0
LINE
8
boundary
62
5
39
2
10
107.625372
20
158.925253
11
108.512207
21
159.491284
0
LINE
8
boundary
62
5
39
2
10
108.512207
20
159.491284
11
109.521392
21
160.021648
0
LINE
8
boundary
62
5
39
2
10
109.521392
20
160.021648
11
110.452694
21
160.511081
0
LINE
8
boundary
62
5
39
2
10
110.452694
20
160.511081
11
111.502911
21
160.954681
0
LINE
8
boundary
62
5
39
2
10
111.502911
20
160.954681
11
112.472079
21
161.364046
0
LINE
8
boundary
62
5
39
2
10
112.472079
20
161.364046
11
113.555887
21
161.717738
0
LINE
8
boundary
62
5
39
2
10
113.555887
20
161.717738
11
114.556053
21
162.044134
0
LINE
8
boundary
62
5
39
2
10
114.556053
20
162.044134
11
115.142624
21
162.201043
0
LINE
8
boundary
62
5
39
2
10
115.142624
20
162.201043
11
115.179400
21
162.210620
0
LINE
8
boundary
62
5
39
2
10
115.179400
20
162.210620
11
115.179400
21
173.415372
0
LINE
8
boundary
62
5
39
2
10
115.179400
20
173.415372
11
115.181651
21
180.304859
0
LINE
8
boundary
62
5
39
2
10
115.181651
20
180.304859
11
115.140301
21
180.290077
0
LINE
8
boundary
62
5
39
2
10
115.140301
20
180.290077
11
114.462646
21
180.044210
0
LINE
8
boundary
62
5
39
2
10
114.462646
20
180.044210
11
113.585885
21
179.685196
0
LINE
8
boundary
62
5
39
2
10
113.585885
20
179.685196
11
111.765272
21
178.939696
0
LINE
8
boundary
62
5
39
2
10
111.765272
20
178.939696
11
110.913589
21
178.524682
0
LINE
8
boundary
62
5
39
2
10
110.913589
20
178.524682
11
109.145050
21
177.662897
0
LINE
8
boundary
62
5
39
2
10
109.145050
20
177.662897
11
108.322017
21
177.193622
0
LINE
8
boundary
62
5
39
2
10
108.322017
20
177.193622
11
106.612972
21
176.219165
0
LINE
8
boundary
62
5
39
2
10
106.612972
20
176.219165
11
105.822041
21
175.697601
0
LINE
8
boundary
62
5
39
2
10
105.822041
20
175.697601
11
104.179656
21
174.614563
0
LINE
8
boundary
62
5
39
2
10
104.179656
20
174.614563
11
103.424143
21
174.042897
0
LINE
8
boundary
62
5
39
2
10
103.424143
20
174.042897
11
101.855306
21
172.855820
0
LINE
8
boundary
62
5
39
2
10
101.855306
20
172.855820
11
101.138383
21
172.236447
0
LINE
8
boundary
62
5
39
2
10
101.138383
20
172.236447
11
99.649678
21
170.950307
0
LINE
8
boundary
62
5
39
2
10
99.649678
20
170.950307
11
98.974349
21
170.285826
0
LINE
8
boundary
62
5
39
2
10
98.974349
20
170.285826
11
97.572013
21
168.906018
0
LINE
8
boundary
62
5
39
2
10
97.572013
20
168.906018
11
96.941113
21
168.199218
0
LINE
8
boundary
62
5
39
2
10
96.941113
20
168.199218
11
95.631037
21
166.731533
0
LINE
8
boundary
62
5
39
2
10
95.631037
20
166.731533
11
95.047211
21
165.985378
0
LINE
8
boundary
62
5
39
2
10
95.047211
20
165.985378
11
93.834884
21
164.435973
0
LINE
8
boundary
62
5
39
2
10
93.834884
20
164.435973
11
93.300580
21
163.653590
0
LINE
8
boundary
62
5
39
2
10
93.300580
20
163.653590
11
92.191089
21
162.028957
0
LINE
8
boundary
62
5
39
2
10
92.191089
20
162.028957
11
91.708549
21
161.213630
0
LINE
8
boundary
62
5
39
2
10
91.708549
20
161.213630
11
90.706547
21
159.520589
0
LINE
8
boundary
62
5
39
2
10
90.706547
20
159.520589
11
90.277795
21
158.675737
0
LINE
8
boundary
62
5
39
2
10
90.277795
20
158.675737
11
89.387484
21
156.921385
0
LINE
8
boundary
62
5
39
2
10
89.387484
20
156.921385
11
89.014319
21
156.050552
0
LINE
8
boundary
62
5
39
2
10
89.014319
20
156.050552
11
88.239434
21
154.242250
0
LINE
8
boundary
62
5
39
2
10
88.239434
20
154.242250
11
87.923421
21
153.349088
0
LINE
8
boundary
62
5
39
2
10
87.923421
20
153.349088
11
87.267213
21
151.494421
0
LINE
8
boundary
62
5
39
2
10
87.267213
20
151.494421
11
87.009676
21
150.582677
0
LINE
8
boundary
62
5
39
2
10
87.009676
20
150.582677
11
86.474895
21
148.689422
0
LINE
8
boundary
62
5
39
2
10
86.474895
20
148.689422
11
86.276915
21
147.762921
0
LINE
8
boundary
62
5
39
2
10
86.276915
20
147.762921
11
85.865806
21
145.839022
0
LINE
8
boundary
62
5
39
2
10
85.865806
20
145.839022
11
85.728213
21
144.901647
0
LINE
8
boundary
62
5
39
2
10
85.728213
20
144.901647
11
85.442500
21
142.955170
0
LINE
8
boundary
62
5
39
2
10
85.442500
20
142.955170
11
85.365872
21
142.010856
0
LINE
8
boundary
62
5
39
2
10
85.365872
20
142.010856
11
85.206752
21
140.049968
0
LINE
8
boundary
62
5
39
2
10
85.206752
20
140.049968
11
85.191412
21
139.102673
0
LINE
8
boundary
62
5
39
2
10
85.191412
20
139.102673
11
85.159556
21
137.135597
0
LINE
8
boundary
62
5
39
2
10
85.159556
20
137.135597
11
85.205566
21
136.189297
0
LINE
8
boundary
62
5
39
2
10
85.205566
20
136.189297
11
85.301105
21
134.224284
0
LINE
8
boundary
62
5
39
2
10
85.301105
20
134.224284
11
85.408271
21
133.282946
0
LINE
8
boundary
62
5
39
2
10
85.408271
20
133.282946
11
85.630803
21
131.328239
0
LINE
8
boundary
62
5
39
2
10
85.630803
20
131.328239
11
85.798676
21
130.395812
0
LINE
8
boundary
62
5
39
2
10
85.798676
20
130.395812
11
86.147269
21
128.459607
0
LINE
8
boundary
62
5
39
2
10
86.147269
20
128.459607
11
86.375146
21
127.540003
0
LINE
8
boundary
62
5
39
2
10
86.375146
20
127.540003
11
86.848337
21
125.630424
0
LINE
8
boundary
62
5
39
2
10
86.848337
20
125.630424
11
87.135263
21
124.727499
0
LINE
8
boundary
62
5
39
2
10
87.135263
20
124.727499
11
87.731071
21
122.852555
0
LINE
8
boundary
62
5
39
2
10
87.731071
20
122.852555
11
88.075842
21
121.970095
0
LINE
8
boundary
62
5
39
2
10
88.075842
20
121.970095
11
88.791765
21
120.137649
0
LINE
8
boundary
62
5
39
2
10
88.791765
20
120.137649
11
89.192935
21
119.279356
0
LINE
8
boundary
62
5
39
2
10
89.192935
20
119.279356
11
90.025971
21
117.497095
0
LINE
8
boundary
62
5
39
2
10
90.025971
20
117.497095
11
90.481854
21
116.666571
0
LINE
8
boundary
62
5
39
2
10
90.481854
20
116.666571
11
91.428505
21
114.941970
0
LINE
8
boundary
62
5
39
2
10
91.428505
20
114.941970
11
91.937194
21
114.142696
0
LINE
8
boundary
62
5
39
2
10
91.937194
20
114.142696
11
92.993495
21
112.482988
0
LINE
8
boundary
62
5
39
2
10
92.993495
20
112.482988
11
93.552853
21
111.718317
0
LINE
8
boundary
62
5
39
2
10
93.552853
20
111.718317
11
94.714369
21
110.130463
0
LINE
8
boundary
62
5
39
2
10
94.714369
20
110.130463
11
95.322052
21
109.403604
0
LINE
8
boundary
62
5
39
2
10
95.322052
20
109.403604
11
96.583916
21
107.894266
0
LINE
8
boundary
62
5
39
2
10
96.583916
20
107.894266
11
97.237374
21
107.208267
0
LINE
8
boundary
62
5
39
2
10
97.237374
20
107.208267
11
98.594292
21
105.783775
0
LINE
8
boundary
62
5
39
2
10
98.594292
20
105.783775
11
99.290784
21
105.141512
0
LINE
8
boundary
62
5
39
2
10
99.290784
20
105.141512
11
100.737063
21
103.807839
0
LINE
8
boundary
62
5
39
2
10
100.737063
20
103.807839
11
101.473666
21
103.212007
0
LINE
8
boundary
62
5
39
2
10
101.473666
20
103.212007
11
103.003238
21
101.974751
0
LINE
8
boundary
62
5
39
2
10
103.003238
20
101.974751
11
103.776865
21
101.427849
0
LINE
8
boundary
62
5
39
2
10
103.776865
20
101.427849
11
105.383319
21
100.292195
0
LINE
8
boundary
62
5
39
2
10
105.383319
20
100.292195
11
106.190725
21
99.796516
0
LINE
8
boundary
62
5
39
2
10
106.190725
20
99.796516
11
107.867321
21
98.767228
0
LINE
8
boundary
62
5
39
2
10
107.867321
20
98.767228
11
108.705119
21
98.324852
0
LINE
8
boundary
62
5
39
2
10
108.705119
20
98.324852
11
110.444824
21
97.406249
0
LINE
8
boundary
62
5
39
2
10
110.444824
20
97.406249
11
111.309500
21
97.019032
0
LINE
8
boundary
62
5
39
2
10
111.309500
20
97.019032
11
113.105016
21
96.214967
0
LINE
8
annotation
62
1
39
211
10
93.999144
20
138.165504
11
93.999144
21
139.594254
0
LINE
8
annotation
62
1
39
211
10
93.999144
20
138.165504
11
93.999144
21
139.594254
0
LINE
8
annotation
62
1
39
211
10
93.999144
20
139.594254
11
93.999144
21
138.165504
0
LINE
8
annotation
62
1
39
211
10
93.999144
20
138.165504
11
95.427894
21
138.165504
0
LINE
8
annotation
62
1
39
211
10
93.999144
20
138.165504
11
93.999144
21
139.594254
0
LINE
8
annotation
62
1
39
211
10
93.999144
20
139.594254
11
93.999144
21
138.165504
0
LINE
8
annotation
62
1
39
211
10
93.999144
20
138.165504
11
95.427894
21
138.165504
0
LINE
8
annotation
62
1
39
211
10
95.427894
20
138.165504
11
93.999144
21
138.165504
0
LINE
8
annotation
62
1
39
211
10
93.999144
20
138.165504
11
92.570394
21
138.165504
0
LINE
8
annotation
62
1
39
211
10
88.309548
20
137.864381
11
88.309548
21
136.435631
0
LINE
8
annotation
62
1
39
211
10
88.309548
20
137.864381
11
88.309548
21
136.435631
0
LINE
8
annotation
62
1
39
211
10
88.309548
20
136.435631
11
88.309548
21
137.864381
0
LINE
8
annotation
62
1
39
211
10
88.309548
20
137.864381
11
86.880798
21
137.864381
0
LINE
8
annotation
62
1
39
211
10
102.995978
20
169.911445
11
102.995978
21
171.340195
0
LINE
8
annotation
62
1
39
211
10
102.995978
20
169.911445
11
102.995978
21
171.340195
0
LINE
8
annotation
62
1
39
211
10
102.995978
20
171.340195
11
102.995978
21
169.911445
0
LINE
8
annotation
62
1
39
211
10
102.995978
20
169.911445
11
104.424728
21
169.911445
0
LINE
8
annotation
62
1
39
211
10
102.522141
20
106.281134
11
102.522141
21
104.852384
0
LINE
8
annotation
62
1
39
211
10
107.643076
20
106.508620
11
105.946224
21
106.508620
0
LINE
8
annotation
62
1
39
211
10
105.946224
20
106.508620
11
106.623891
21
108.885247
0
LINE
8
annotation
62
1
39
211
10
107.134442
20
105.829227
11
107.134442
21
107.186479
0
LINE
8
annotation
62
1
39
211
10
110.460350
20
107.357237
11
108.789371
21
107.357237
0
LINE
8
annotation
62
1
39
211
10
112.963552
20
105.829202
11
111.606301
21
105.829202
0
LINE
8
annotation
62
1
39
211
10
111.606301
20
105.829202
11
112.860446
21
107.848215
0
LINE
8
annotation
62
1
39
211
10
112.860446
20
107.848215
11
112.860446
21
107.848215
0
LINE
8
annotation
62
1
39
211
10
112.860446
20
107.848215
11
112.861945
21
107.850070
0
LINE
8
annotation
62
1
39
211
10
112.861945
20
107.850070
11
112.863383
21
107.851941
0
LINE
8
annotation
62
1
39
211
10
112.863383
20
107.851941
11
112.864768
21
107.853844
0
LINE
8
annotation
62
1
39
211
10
112.864768
20
107.853844
11
112.866112
21
107.855793
0
LINE
8
annotation
62
1
39
211
10
112.866112
20
107.855793
11
112.867422
21
107.857806
0
LINE
8
annotation
62
1
39
211
10
112.867422
20
107.857806
11
112.868708
21
107.859898
0
LINE
8
annotation
62
1
39
211
10
112.868708
20
107.859898
11
112.869980
21
107.862085
0
LINE
8
annotation
62
1
39
211
10
112.869980
20
107.862085
11
112.871247
21
107.864382
0
LINE
8
annotation
62
1
39
211
10
112.871247
20
107.864382
11
112.872520
21
107.866805
0
LINE
8
annotation
62
1
39
211
10
112.872520
20
107.866805
11
112.872520
21
107.866805
0
LINE
8
annotation
62
1
39
211
10
112.872520
20
107.866805
11
112.924303
21
107.977988
0
LINE
8
annotation
62
1
39
211
10
112.924303
20
107.977988
11
112.954554
21
108.093239
0
LINE
8
annotation
62
1
39
211
10
112.954554
20
108.093239
11
112.964014
21
108.209954
0
LINE
8
annotation
62
1
39
211
10
112.964014
20
108.209954
11
112.953424
21
108.325529
0
LINE
8
annotation
62
1
39
211
10
112.953424
20
108.325529
11
112.923526
21
108.437359
0
LINE
8
annotation
62
1
39
211
10
112.923526
20
108.437359
11
112.875061
21
108.542840
0
LINE
8
annotation
62
1
39
211
10
112.875061
20
108.542840
11
112.808770
21
108.639368
0
LINE
8
annotation
62
1
39
211
10
112.808770
20
108.639368
11
112.725395
21
108.724338
0
LINE
8
annotation
62
1
39
211
10
112.725395
20
108.724338
11
112.625677
21
108.795148
0
LINE
8
annotation
62
1
39
211
10
112.625677
20
108.795148
11
112.625677
21
108.795148
0
LINE
8
annotation
62
1
39
211
10
112.625677
20
108.795148
11
112.514184
21
108.846195
0
LINE
8
annotation
62
1
39
211
10
112.514184
20
108.846195
11
112.398757
21
108.875980
0
LINE
8
annotation
62
1
39
211
10
112.398757
20
108.875980
11
112.281974
21
108.885173
0
LINE
8
annotation
62
1
39
211
10
112.281974
20
108.885173
11
112.166417
21
108.874443
0
LINE
8
annotation
62
1
39
211
10
112.166417
20
108.874443
11
112.054665
21
108.844462
0
LINE
8
annotation
62
1
39
211
10
112.054665
20
108.844462
11
111.949301
21
108.795900
0
LINE
8
annotation
62
1
39
211
10
111.949301
20
108.795900
11
111.852904
21
108.729427
0
LINE
8
annotation
62
1
39
211
10
111.852904
20
108.729427
11
111.768055
21
108.645714
0
LINE
8
annotation
62
1
39
211
10
111.768055
20
108.645714
11
111.697334
21
108.545430
0
LINE
8
annotation
62
1
39
211
10
111.697334
20
108.545430
11
111.608217
21
108.374480
0
LINE
8
hole
62
5
39
2
10
97.059480
20
257.681651
11
97.630980
21
257.681651
0
LINE
8
hole
62
5
39
2
10
97.630980
20
257.681651
11
97.630980
21
258.253151
0
LINE
8
hole
62
5
39
2
10
97.630980
20
258.253151
11
97.059480
21
258.253151
0
LINE
8
hole
62
5
39
2
10
97.059480
20
258.253151
11
97.059480
21
257.681651
0
LINE
8
hole
62
5
39
2
10
97.533316
20
194.051339
11
98.104816
21
194.051339
0
LINE
8
hole
62
5
39
2
10
98.104816
20
194.051339
11
98.104816
21
194.622839
0
LINE
8
hole
62
5
39
2
10
98.104816
20
194.622839
11
97.533316
21
194.622839
0
LINE
8
hole
62
5
39
2
10
97.533316
20
194.622839
11
97.533316
21
194.051339
0
LINE
8
hole
62
5
39
2
10
111.745909
20
225.634587
11
112.317409
21
225.634587
0
LINE
8
hole
62
5
39
2
10
112.317409
20
225.634587
11
112.317409
21
226.206087
0
LINE
8
hole
62
5
39
2
10
112.317409
20
226.206087
11
111.745909
21
226.206087
0
LINE
8
hole
62
5
39
2
10
111.745909
20
226.206087
11
111.745909
21
225.634587
0
LINE
8
hole
62
5
39
2
10
106.056314
20
225.935711
11
106.627814
21
225.935711
0
LINE
8
hole
62
5
39
2
10
106.627814
20
225.935711
11
106.627814
21
226.507211
0
LINE
8
hole
62
5
39
2
10
106.627814
20
226.507211
11
106.056314
21
226.507211
0
LINE
8
hole
62
5
39
2
10
106.056314
20
226.507211
11
106.056314
21
225.935711
0
LINE
8
boundary
62
5
39
2
10
97.760103
20
209.045672
11
97.042903
21
208.275939
0
LINE
8
boundary
62
5
39
2
10
97.042903
20
208.275939
11
96.198319
21
207.510160
0
LINE
8
boundary
62
5
39
2
10
96.198319
20
207.510160
11
95.418916
21
206.803479
0
LINE
8
boundary
62
5
39
2
10
95.418916
20
206.803479
11
94.512915
21
206.111453
0
LINE
8
boundary
62
5
39
2
10
94.512915
20
206.111453
11
93.676835
21
205.472834
0
LINE
8
boundary
62
5
39
2
10
93.676835
20
205.472834
11
92.715836
21
204.859465
0
LINE
8
boundary
62
5
39
2
10
92.715836
20
204.859465
11
91.829001
21
204.293433
0
LINE
8
boundary
62
5
39
2
10
91.829001
20
204.293433
11
90.819816
21
203.763070
0
LINE
8
boundary
62
5
39
2
10
90.819816
20
203.763070
11
89.888514
21
203.273637
0
LINE
8
boundary
62
5
39
2
10
89.888514
20
203.273637
11
88.838296
21
202.830037
0
LINE
8
boundary
62
5
39
2
10
88.838296
20
202.830037
11
87.869129
21
202.420672
0
LINE
8
boundary
62
5
39
2
10
87.869129
20
202.420672
11
86.785321
21
202.066980
0
LINE
8
boundary
62
5
39
2
10
86.785321
20
202.066980
11
85.785155
21
201.740584
0
LINE
8
boundary
62
5
39
2
10
85.785155
20
201.740584
11
85.198583
21
201.583675
0
LINE
8
boundary
62
5
39
2
10
85.198583
20
201.583675
11
85.161807
21
201.574098
0
LINE
8
boundary
62
5
39
2
10
85.161807
20
201.574098
11
85.161807
21
190.369346
0
LINE
8
boundary
62
5
39
2
10
85.161807
20
190.369346
11
85.159556
21
183.479859
0
LINE
8
boundary
62
5
39
2
10
85.159556
20
183.479859
11
85.166730
21
183.482549
0
LINE
8
boundary
62
5
39
2
10
85.166730
20
183.482549
11
85.234674
21
183.507834
0
LINE
8
boundary
62
5
39
2
10
85.234674
20
183.507834
11
87.236191
21
184.270923
0
LINE
8
boundary
62
5
39
2
10
87.236191
20
184.270923
11
88.100867
21
184.658140
0
LINE
8
boundary
62
5
39
2
10
88.100867
20
184.658140
11
89.896384
21
185.462205
0
LINE
8
boundary
62
5
39
2
10
89.896384
20
185.462205
11
90.734182
21
185.904581
0
LINE
8
boundary
62
5
39
2
10
90.734182
20
185.904581
11
92.473887
21
186.823184
0
LINE
8
boundary
62
5
39
2
10
92.473887
20
186.823184
11
93.281293
21
187.318863
0
LINE
8
boundary
62
5
39
2
10
93.281293
20
187.318863
11
94.957889
21
188.348151
0
LINE
8
boundary
62
5
39
2
10
94.957889
20
188.348151
11
95.731517
21
188.895053
0
LINE
8
boundary
62
5
39
2
10
95.731517
20
188.895053
11
97.337970
21
190.030706
0
LINE
8
boundary
62
5
39
2
10
97.337970
20
190.030706
11
98.074573
21
190.626538
0
LINE
8
boundary
62
5
39
2
10
98.074573
20
190.626538
11
99.604144
21
191.863794
0
LINE
8
boundary
62
5
39
2
10
99.604144
20
191.863794
11
100.300636
21
192.506058
0
LINE
8
boundary
62
5
39
2
10
100.300636
20
192.506058
11
101.746916
21
193.839731
0
LINE
8
boundary
62
5
39
2
10
101.746916
20
193.839731
11
102.400373
21
194.525730
0
LINE
8
boundary
62
5
39
2
10
102.400373
20
194.525730
11
103.757291
21
195.950221
0
LINE
8
boundary
62
5
39
2
10
103.757291
20
195.950221
11
104.364974
21
196.677081
0
LINE
8
boundary
62
5
39
2
10
104.364974
20
196.677081
11
105.626838
21
198.186419
0
LINE
8
boundary
62
5
39
2
10
105.626838
20
198.186419
11
106.186196
21
198.951090
0
LINE
8
boundary
62
5
39
2
10
106.186196
20
198.951090
11
107.347712
21
200.538943
0
LINE
8
boundary
62
5
39
2
10
107.347712
20
200.538943
11
107.856401
21
201.338217
0
LINE
8
boundary
62
5
39
2
10
107.856401
20
201.338217
11
108.912703
21
202.997926
0
LINE
8
boundary
62
5
39
2
10
108.912703
20
202.997926
11
109.368586
21
203.828450
0
LINE
8
boundary
62
5
39
2
10
109.368586
20
203.828450
11
110.315236
21
205.553051
0
LINE
8
boundary
62
5
39
2
10
110.315236
20
205.553051
11
110.716406
21
206.411343
0
LINE
8
boundary
62
5
39
2
10
110.716406
20
206.411343
11
111.549442
21
208.193604
0
LINE
8
boundary
62
5
39
2
10
111.549442
20
208.193604
11
111.894213
21
209.076064
0
LINE
8
boundary
62
5
39
2
10
111.894213
20
209.076064
11
112.610136
21
210.908511
0
LINE
8
boundary
62
5
39
2
10
112.610136
20
210.908511
11
112.897062
21
211.811437
0
LINE
8
boundary
62
5
39
2
10
112.897062
20
211.811437
11
113.492871
21
213.686380
0
LINE
8
boundary
62
5
39
2
10
113.492871
20
213.686380
11
113.720748
21
214.605985
0
LINE
8
boundary
62
5
39
2
10
113.720748
20
214.605985
11
114.193939
21
216.515563
0
LINE
8
boundary
62
5
39
2
10
114.193939
20
216.515563
11
114.361812
21
217.447991
0
LINE
8
boundary
62
5
39
2
10
114.361812
20
217.447991
11
114.710405
21
219.384195
0
LINE
8
boundary
62
5
39
2
10
114.710405
20
219.384195
11
114.817571
21
220.325533
0
LINE
8
boundary
62
5
39
2
10
114.817571
20
220.325533
11
115.040102
21
222.280240
0
LINE
8
boundary
62
5
39
2
10
115.040102
20
222.280240
11
115.086112
21
223.226541
0
LINE
8
boundary
62
5
39
2
10
115.086112
20
223.226541
11
115.181651
21
225.191553
0
LINE
8
boundary
62
5
39
2
10
115.181651
20
225.191553
11
115.166311
21
226.138847
0
LINE
8
boundary
62
5
39
2
10
115.166311
20
226.138847
11
115.134455
21
228.105923
0
LINE
8
boundary
62
5
39
2
10
115.134455
20
228.105923
11
115.057827
21
229.050238
0
LINE
8
boundary
62
5
39
2
10
115.057827
20
229.050238
11
114.898708
21
231.011126
0
LINE
8
boundary
62
5
39
2
10
114.898708
20
231.011126
11
114.761115
21
231.948500
0
LINE
8
boundary
62
5
39
2
10
114.761115
20
231.948500
11
114.475402
21
233.894977
0
LINE
8
boundary
62
5
39
2
10
114.475402
20
233.894977
11
114.277422
21
234.821479
0
LINE
8
boundary
62
5
39
2
10
114.277422
20
234.821479
11
113.866313
21
236.745378
0
LINE
8
boundary
62
5
39
2
10
113.866313
20
236.745378
11
113.608776
21
237.657122
0
LINE
8
boundary
62
5
39
2
10
113.608776
20
237.657122
11
113.073995
21
239.550376
0
LINE
8
boundary
62
5
39
2
10
113.073995
20
239.550376
11
112.757981
21
240.443538
0
LINE
8
boundary
62
5
39
2
10
112.757981
20
240.443538
11
112.101773
21
242.298206
0
LINE
8
boundary
62
5
39
2
10
112.101773
20
242.298206
11
111.728608
21
243.169038
0
LINE
8
boundary
62
5
39
2
10
111.728608
20
243.169038
11
110.953724
21
244.977340
0
LINE
8
boundary
62
5
39
2
10
110.953724
20
244.977340
11
110.524972
21
245.822192
0
LINE
8
boundary
62
5
39
2
10
110.524972
20
245.822192
11
109.634661
21
247.576544
0
LINE
8
boundary
62
5
39
2
10
109.634661
20
247.576544
11
109.152122
21
248.391871
0
LINE
8
boundary
62
5
39
2
10
109.152122
20
248.391871
11
108.150119
21
250.084912
0
LINE
8
boundary
62
5
39
2
10
108.150119
20
250.084912
11
107.615816
21
250.867295
0
LINE
8
boundary
62
5
39
2
10
107.615816
20
250.867295
11
106.506324
21
252.491928
0
LINE
8
boundary
62
5
39
2
10
106.506324
20
252.491928
11
105.922498
21
253.238083
0
LINE
8
boundary
62
5
39
2
10
105.922498
20
253.238083
11
104.710170
21
254.787488
0
LINE
8
boundary
62
5
39
2
10
104.710170
20
254.787488
11
104.079270
21
255.494289
0
LINE
8
boundary
62
5
39
2
10
104.079270
20
255.494289
11
102.769194
21
256.961974
0
LINE
8
boundary
62
5
39
2
10
102.769194
20
256.961974
11
102.093865
21
257.626455
0
LINE
8
boundary
62
5
39
2
10
102.093865
20
257.626455
11
100.691529
21
259.006262
0
LINE
8
boundary
62
5
39
2
10
100.691529
20
259.006262
11
99.974606
21
259.625635
0
LINE
8
boundary
62
5
39
2
10
99.974606
20
259.625635
11
98.485902
21
260.911775
0
LINE
8
boundary
62
5
39
2
10
98.485902
20
260.911775
11
97.730389
21
261.483442
0
LINE
8
boundary
62
5
39
2
10
97.730389
20
261.483442
11
96.161552
21
262.670519
0
LINE
8
boundary
62
5
39
2
10
96.161552
20
262.670519
11
95.370621
21
263.192083
0
LINE
8
boundary
62
5
39
2
10
95.370621
20
263.192083
11
93.728236
21
264.275121
0
LINE
8
boundary
62
5
39
2
10
93.728236
20
264.275121
11
92.905202
21
264.744395
0
LINE
8
boundary
62
5
39
2
10
92.905202
20
264.744395
11
91.196157
21
265.718852
0
LINE
8
boundary
62
5
39
2
10
91.196157
20
265.718852
11
90.344474
21
266.133866
0
LINE
8
boundary
62
5
39
2
10
90.344474
20
266.133866
11
88.575935
21
266.995652
0
LINE
8
boundary
62
5
39
2
10
88.575935
20
266.995652
11
87.699174
21
267.354666
0
LINE
8
boundary
62
5
39
2
10
87.699174
20
267.354666
11
85.878562
21
268.100166
0
LINE
8
boundary
62
5
39
2
10
85.878562
20
268.100166
11
85.200906
21
268.346032
0
LINE
8
boundary
62
5
39
2
10
85.200906
20
268.346032
11
85.159556
21
268.360814
0
LINE
8
boundary
62
5
39
2
10
85.159556
20
268.360814
11
85.161807
21
261.471328
0
LINE
8
boundary
62
5
39
2
10
85.161807
20
261.471328
11
85.161807
21
250.266575
0
LINE
8
boundary
62
5
39
2
10
85.161807
20
250.266575
11
85.198583
21
250.256999
0
LINE
8
boundary
62
5
39
2
10
85.198583
20
250.256999
11
85.785155
21
250.100090
0
LINE
8
boundary
62
5
39
2
10
85.785155
20
250.100090
11
86.868963
21
249.746397
0
LINE
8
boundary
62
5
39
2
10
86.868963
20
249.746397
11
87.869129
21
249.420002
0
LINE
8
boundary
62
5
39
2
10
87.869129
20
249.420002
11
88.919347
21
248.976401
0
LINE
8
boundary
62
5
39
2
10
88.919347
20
248.976401
11
89.888514
21
248.567036
0
LINE
8
boundary
62
5
39
2
10
89.888514
20
248.567036
11
90.897700
21
248.036673
0
LINE
8
boundary
62
5
39
2
10
90.897700
20
248.036673
11
91.829001
21
247.547240
0
LINE
8
boundary
62
5
39
2
10
91.829001
20
247.547240
11
92.790001
21
246.933871
0
LINE
8
boundary
62
5
39
2
10
92.790001
20
246.933871
11
93.676835
21
246.367840
0
LINE
8
boundary
62
5
39
2
10
93.676835
20
246.367840
11
94.582836
21
245.675814
0
LINE
8
boundary
62
5
39
2
10
94.582836
20
245.675814
11
95.418916
21
245.037195
0
LINE
8
boundary
62
5
39
2
10
95.418916
20
245.037195
11
96.263500
21
244.271415
0
LINE
8
boundary
62
5
39
2
10
96.263500
20
244.271415
11
97.042903
21
243.564734
0
LINE
8
boundary
62
5
39
2
10
97.042903
20
243.564734
11
97.820082
21
242.730629
0
LINE
8
boundary
62
5
39
2
10
97.820082
20
242.730629
11
98.537282
21
241.960896
0
LINE
8
boundary
62
5
39
2
10
98.537282
20
241.960896
11
99.241548
21
241.064375
0
LINE
8
boundary
62
5
39
2
10
99.241548
20
241.064375
11
99.891463
21
240.237044
0
LINE
8
boundary
62
5
39
2
10
99.891463
20
240.237044
11
100.517828
21
239.284465
0
LINE
8
boundary
62
5
39
2
10
100.517828
20
239.284465
11
101.095853
21
238.405402
0
LINE
8
boundary
62
5
39
2
10
101.095853
20
238.405402
11
101.639874
21
237.403512
0
LINE
8
boundary
62
5
39
2
10
101.639874
20
237.403512
11
102.141910
21
236.478944
0
LINE
8
boundary
62
5
39
2
10
102.141910
20
236.478944
11
102.599732
21
235.434847
0
LINE
8
boundary
62
5
39
2
10
102.599732
20
235.434847
11
103.022222
21
234.471328
0
LINE
8
boundary
62
5
39
2
10
103.022222
20
234.471328
11
103.390599
21
233.392423
0
LINE
8
boundary
62
5
39
2
10
103.390599
20
233.392423
11
103.730546
21
232.396783
0
LINE
8
boundary
62
5
39
2
10
103.730546
20
232.396783
11
104.006870
21
231.290715
0
LINE
8
boundary
62
5
39
2
10
104.006870
20
231.290715
11
104.261869
21
230.270009
0
LINE
8
boundary
62
5
39
2
10
104.261869
20
230.270009
11
104.444183
21
229.144619
0
LINE
8
boundary
62
5
39
2
10
104.444183
20
229.144619
11
104.612426
21
228.106082
0
LINE
8
boundary
62
5
39
2
10
104.612426
20
228.106082
11
104.699433
21
226.969346
0
LINE
8
boundary
62
5
39
2
10
104.699433
20
226.969346
11
104.779725
21
225.920337
0
LINE
8
boundary
62
5
39
2
10
104.779725
20
225.920337
11
104.692718
21
224.783600
0
LINE
8
boundary
62
5
39
2
10
104.692718
20
224.783600
11
104.612426
21
223.734592
0
LINE
8
boundary
62
5
39
2
10
104.612426
20
223.734592
11
104.430113
21
222.609202
0
LINE
8
boundary
62
5
39
2
10
104.430113
20
222.609202
11
104.261869
21
221.570665
0
LINE
8
boundary
62
5
39
2
10
104.261869
20
221.570665
11
103.985545
21
220.464597
0
LINE
8
boundary
62
5
39
2
10
103.985545
20
220.464597
11
103.730546
21
219.443891
0
LINE
8
boundary
62
5
39
2
10
103.730546
20
219.443891
11
103.362169
21
218.364986
0
LINE
8
boundary
62
5
39
2
10
103.362169
20
218.364986
11
103.022222
21
217.369345
0
LINE
8
boundary
62
5
39
2
10
103.022222
20
217.369345
11
102.564400
21
216.325249
0
LINE
8
boundary
62
5
39
2
10
102.564400
20
216.325249
11
102.141910
21
215.361730
0
LINE
8
boundary
62
5
39
2
10
102.141910
20
215.361730
11
101.597889
21
214.359840
0
LINE
8
boundary
62
5
39
2
10
101.597889
20
214.359840
11
101.095853
21
213.435272
0
LINE
8
boundary
62
5
39
2
10
101.095853
20
213.435272
11
100.469488
21
212.482693
0
LINE
8
boundary
62
5
39
2
10
100.469488
20
212.482693
11
99.891463
21
211.603629
0
LINE
8
boundary
62
5
39
2
10
99.891463
20
211.603629
11
99.187197
21
210.707109
0
LINE
8
boundary
62
5
39
2
10
99.187197
20
210.707109
11
98.537282
21
209.879778
0
LINE
8
boundary
62
5
39
2
10
98.537282
20
209.879778
11
97.760103
21
209.045672
0
LINE
8
annotation
62
1
39
211
10
112.031659
20
225.920337
11
112.031659
21
227.349087
0
LINE
8
annotation
62
1
39
211
10
112.031659
20
225.920337
11
112.031659
21
227.349087
0
LINE
8
annotation
62
1
39
211
10
112.031659
20
227.349087
11
112.031659
21
225.920337
0
LINE
8
annotation
62
1
39
211
10
112.031659
20
225.920337
11
110.602909
21
225.920337
0
LINE
8
annotation
62
1
39
211
10
106.342064
20
226.221461
11
107.770814
21
226.221461
0
LINE
8
annotation
62
1
39
211
10
106.342064
20
226.221461
11
107.770814
21
226.221461
0
LINE
8
annotation
62
1
39
211
10
107.770814
20
226.221461
11
106.342064
21
226.221461
0
LINE
8
annotation
62
1
39
211
10
106.342064
20
226.221461
11
104.913314
21
226.221461
0
LINE
8
annotation
62
1
39
211
10
97.345230
20
257.967401
11
97.345230
21
259.396151
0
LINE
8
annotation
62
1
39
211
10
97.819066
20
194.337089
11
99.247816
21
194.337089
0
LINE
8
annotation
62
1
39
211
10
89.412670
20
255.578863
11
87.715818
21
255.578863
0
LINE
8
annotation
62
1
39
211
10
87.715818
20
255.578863
11
88.393486
21
257.955490
0
LINE
8
annotation
62
1
39
211
10
88.904036
20
254.899471
11
88.904036
21
256.256722
0
LINE
8
annotation
62
1
39
211
10
92.229945
20
256.427481
11
90.558965
21
256.427481
0
LINE
8
annotation
62
1
39
211
10
94.055153
20
254.899471
11
94.055153
21
257.955490
0
LINE
8
annotation
62
1
39
211
10
94.055153
20
257.955490
11
93.375760
21
257.275906
0
LINE
8
frame
62
5
39
2
10
0.000000
20
0.000000
11
215.900000
21
0.000000
0
LINE
8
frame
62
5
39
2
10
215.900000
20
0.000000
11
215.900000
21
279.400000
0
LINE
8
frame
62
5
39
2
10
215.900000
20
279.400000
11
0.000000
21
279.400000
0
LINE
8
frame
62
5
39
2
10
0.000000
20
279.400000
11
0.000000
21
0.000000
0
ENDSEC
0
EOF
