0
SECTION
2
HEADER
9
$ACADVER
1
AC1009
0
ENDSEC
0
SECTION
2
TABLES
0
TABLE
2
VPORT
70
1
0
VPORT
2
ACTIVE
70
0
10
0.0
20
0.0
11
0.0
21
0.0
12
0.0
22
0.0
13
0.0
23
0.0
14
0.0
24
0.0
15
0.0
25
0.0
16
0.0
26
0.0
36
0.0
17
0.0
27
0.0
37
0.0
40
0.0
41
0.0
42
0.0
43
0.0
44
0.0
50
0.0
51
0.0
71
0
72
1000
73
1
74
3
75
0
76
0
77
0
78
0
0
ENDTAB
0
ENDSEC
0
SECTION
2
ENTITIES
0
LINE
8
hole
62
5
39
2
10
15.381749
20
51.380805
11
15.953249
21
51.380805
0
LINE
8
hole
62
5
39
2
10
15.953249
20
51.380805
11
15.953249
21
51.952305
0
LINE
8
hole
62
5
39
2
10
15.953249
20
51.952305
11
15.381749
21
51.952305
0
LINE
8
hole
62
5
39
2
10
15.381749
20
51.952305
11
15.381749
21
51.380805
0
LINE
8
hole
62
5
39
2
10
51.381747
20
87.374952
11
51.953247
21
87.374952
0
LINE
8
hole
62
5
39
2
10
51.953247
20
87.374952
11
51.953247
21
87.946452
0
LINE
8
hole
62
5
39
2
10
51.953247
20
87.946452
11
51.381747
21
87.946452
0
LINE
8
hole
62
5
39
2
10
51.381747
20
87.946452
11
51.381747
21
87.374952
0
LINE
8
hole
62
5
39
2
10
87.381744
20
51.380805
11
87.953244
21
51.380805
0
LINE
8
hole
62
5
39
2
10
87.953244
20
51.380805
11
87.953244
21
51.952305
0
LINE
8
hole
62
5
39
2
10
87.953244
20
51.952305
11
87.381744
21
51.952305
0
LINE
8
hole
62
5
39
2
10
87.381744
20
51.952305
11
87.381744
21
51.380805
0
LINE
8
hole
62
5
39
2
10
51.381747
20
15.380995
11
51.953247
21
15.380995
0
LINE
8
hole
62
5
39
2
10
51.953247
20
15.380995
11
51.953247
21
15.952495
0
LINE
8
hole
62
5
39
2
10
51.953247
20
15.952495
11
51.381747
21
15.952495
0
LINE
8
hole
62
5
39
2
10
51.381747
20
15.952495
11
51.381747
21
15.380995
0
LINE
8
boundary
62
5
39
2
10
83.232758
20
19.592792
11
85.092283
21
21.544920
0
LINE
8
boundary
62
5
39
2
10
85.092283
20
21.544920
11
85.243133
21
21.703283
0
LINE
8
boundary
62
5
39
2
10
85.243133
20
21.703283
11
86.972397
21
23.771685
0
LINE
8
boundary
62
5
39
2
10
86.972397
20
23.771685
11
87.112681
21
23.939480
0
LINE
8
boundary
62
5
39
2
10
87.112681
20
23.939480
11
88.704427
21
26.115480
0
LINE
8
boundary
62
5
39
2
10
88.704427
20
26.115480
11
88.833554
21
26.292005
0
LINE
8
boundary
62
5
39
2
10
88.833554
20
26.292005
11
90.281114
21
28.566475
0
LINE
8
boundary
62
5
39
2
10
90.281114
20
28.566475
11
90.398545
21
28.750987
0
LINE
8
boundary
62
5
39
2
10
90.398545
20
28.750987
11
91.695838
21
31.114386
0
LINE
8
boundary
62
5
39
2
10
91.695838
20
31.114386
11
91.801078
21
31.306112
0
LINE
8
boundary
62
5
39
2
10
91.801078
20
31.306112
11
92.942674
21
33.748529
0
LINE
8
boundary
62
5
39
2
10
92.942674
20
33.748529
11
93.035284
21
33.946666
0
LINE
8
boundary
62
5
39
2
10
93.035284
20
33.946666
11
94.016388
21
36.457856
0
LINE
8
boundary
62
5
39
2
10
94.016388
20
36.457856
11
94.095978
21
36.661572
0
LINE
8
boundary
62
5
39
2
10
94.095978
20
36.661572
11
94.912476
21
39.231001
0
LINE
8
boundary
62
5
39
2
10
94.912476
20
39.231001
11
94.978713
21
39.439441
0
LINE
8
boundary
62
5
39
2
10
94.978713
20
39.439441
11
95.627176
21
42.056334
0
LINE
8
boundary
62
5
39
2
10
95.627176
20
42.056334
11
95.679781
21
42.268624
0
LINE
8
boundary
62
5
39
2
10
95.679781
20
42.268624
11
96.157493
21
44.922005
0
LINE
8
boundary
62
5
39
2
10
96.157493
20
44.922005
11
96.196247
21
45.137256
0
LINE
8
boundary
62
5
39
2
10
96.196247
20
45.137256
11
96.501205
21
47.815993
0
LINE
8
boundary
62
5
39
2
10
96.501205
20
47.815993
11
96.525944
21
48.033301
0
LINE
8
boundary
62
5
39
2
10
96.525944
20
48.033301
11
96.656872
21
50.726161
0
LINE
8
boundary
62
5
39
2
10
96.656872
20
50.726161
11
96.667494
21
50.944614
0
LINE
8
boundary
62
5
39
2
10
96.667494
20
50.944614
11
96.623839
21
53.640302
0
LINE
8
boundary
62
5
39
2
10
96.623839
20
53.640302
11
96.620297
21
53.858985
0
LINE
8
boundary
62
5
39
2
10
96.620297
20
53.858985
11
96.402239
21
56.546192
0
LINE
8
boundary
62
5
39
2
10
96.402239
20
56.546192
11
96.384550
21
56.764187
0
LINE
8
boundary
62
5
39
2
10
96.384550
20
56.764187
11
95.993007
21
59.431646
0
LINE
8
boundary
62
5
39
2
10
95.993007
20
59.431646
11
95.961244
21
59.648038
0
LINE
8
boundary
62
5
39
2
10
95.961244
20
59.648038
11
95.397858
21
62.284556
0
LINE
8
boundary
62
5
39
2
10
95.397858
20
62.284556
11
95.352155
21
62.498439
0
LINE
8
boundary
62
5
39
2
10
95.352155
20
62.498439
11
94.619289
21
65.092962
0
LINE
8
boundary
62
5
39
2
10
94.619289
20
65.092962
11
94.559837
21
65.303437
0
LINE
8
boundary
62
5
39
2
10
94.559837
20
65.303437
11
93.660567
21
67.845081
0
LINE
8
boundary
62
5
39
2
10
93.660567
20
67.845081
11
93.587615
21
68.051267
0
LINE
8
boundary
62
5
39
2
10
93.587615
20
68.051267
11
92.525711
21
70.529370
0
LINE
8
boundary
62
5
39
2
10
92.525711
20
70.529370
11
92.439566
21
70.730402
0
LINE
8
boundary
62
5
39
2
10
92.439566
20
70.730402
11
91.219480
21
73.134571
0
LINE
8
boundary
62
5
39
2
10
91.219480
20
73.134571
11
91.120503
21
73.329606
0
LINE
8
boundary
62
5
39
2
10
91.120503
20
73.329606
11
89.747355
21
75.649755
0
LINE
8
boundary
62
5
39
2
10
89.747355
20
75.649755
11
89.635961
21
75.837973
0
LINE
8
boundary
62
5
39
2
10
89.635961
20
75.837973
11
88.115510
21
78.064376
0
LINE
8
boundary
62
5
39
2
10
88.115510
20
78.064376
11
87.992166
21
78.244989
0
LINE
8
boundary
62
5
39
2
10
87.992166
20
78.244989
11
86.330789
21
80.368300
0
LINE
8
boundary
62
5
39
2
10
86.330789
20
80.368300
11
86.196012
21
80.540550
0
LINE
8
boundary
62
5
39
2
10
86.196012
20
80.540550
11
84.400680
21
82.551870
0
LINE
8
boundary
62
5
39
2
10
84.400680
20
82.551870
11
84.255036
21
82.715035
0
LINE
8
boundary
62
5
39
2
10
84.255036
20
82.715035
11
82.333271
21
84.605928
0
LINE
8
boundary
62
5
39
2
10
82.333271
20
84.605928
11
82.177371
21
84.759324
0
LINE
8
boundary
62
5
39
2
10
82.177371
20
84.759324
11
80.137245
21
86.521854
0
LINE
8
boundary
62
5
39
2
10
80.137245
20
86.521854
11
79.971744
21
86.664836
0
LINE
8
boundary
62
5
39
2
10
79.971744
20
86.664836
11
77.821804
21
88.291611
0
LINE
8
boundary
62
5
39
2
10
77.821804
20
88.291611
11
77.647394
21
88.423580
0
LINE
8
boundary
62
5
39
2
10
77.647394
20
88.423580
11
75.396664
21
89.907779
0
LINE
8
boundary
62
5
39
2
10
75.396664
20
89.907779
11
75.214078
21
90.028182
0
LINE
8
boundary
62
5
39
2
10
75.214078
20
90.028182
11
72.871997
21
91.363582
0
LINE
8
boundary
62
5
39
2
10
72.871997
20
91.363582
11
72.681999
21
91.471914
0
LINE
8
boundary
62
5
39
2
10
72.681999
20
91.471914
11
70.258389
21
92.652907
0
LINE
8
boundary
62
5
39
2
10
70.258389
20
92.652907
11
70.061777
21
92.748713
0
LINE
8
boundary
62
5
39
2
10
70.061777
20
92.748713
11
67.566804
21
93.770349
0
LINE
8
boundary
62
5
39
2
10
67.566804
20
93.770349
11
67.364404
21
93.853227
0
LINE
8
boundary
62
5
39
2
10
67.364404
20
93.853227
11
67.286185
21
93.881606
0
LINE
8
boundary
62
5
39
2
10
67.286185
20
93.881606
11
67.275114
21
93.885549
0
LINE
8
boundary
62
5
39
2
10
67.275114
20
93.885549
11
67.245701
21
93.895848
0
LINE
8
boundary
62
5
39
2
10
67.245701
20
93.895848
11
67.195260
21
93.913157
0
LINE
8
boundary
62
5
39
2
10
67.195260
20
93.913157
11
64.780992
21
94.723619
0
LINE
8
boundary
62
5
39
2
10
64.780992
20
94.723619
11
64.721958
21
94.743183
0
LINE
8
boundary
62
5
39
2
10
64.721958
20
94.743183
11
64.638738
21
94.769389
0
LINE
8
boundary
62
5
39
2
10
64.638738
20
94.769389
11
64.530853
21
94.801403
0
LINE
8
boundary
62
5
39
2
10
64.530853
20
94.801403
11
64.399125
21
94.837937
0
LINE
8
boundary
62
5
39
2
10
64.399125
20
94.837937
11
61.998219
21
95.474316
0
LINE
8
boundary
62
5
39
2
10
61.998219
20
95.474316
11
61.859331
21
95.509731
0
LINE
8
boundary
62
5
39
2
10
61.859331
20
95.509731
11
61.694677
21
95.547480
0
LINE
8
boundary
62
5
39
2
10
61.694677
20
95.547480
11
61.500509
21
95.586947
0
LINE
8
boundary
62
5
39
2
10
61.500509
20
95.586947
11
59.107728
21
96.057869
0
LINE
8
boundary
62
5
39
2
10
59.107728
20
96.057869
11
58.899693
21
96.094282
0
LINE
8
boundary
62
5
39
2
10
58.899693
20
96.094282
11
58.666633
21
96.128074
0
LINE
8
boundary
62
5
39
2
10
58.666633
20
96.128074
11
56.273912
21
96.439795
0
LINE
8
boundary
62
5
39
2
10
56.273912
20
96.439795
11
56.030808
21
96.467262
0
LINE
8
boundary
62
5
39
2
10
56.030808
20
96.467262
11
55.772819
21
96.488143
0
LINE
8
boundary
62
5
39
2
10
55.772819
20
96.488143
11
53.382117
21
96.643221
0
LINE
8
boundary
62
5
39
2
10
53.382117
20
96.643221
11
53.122207
21
96.655756
0
LINE
8
boundary
62
5
39
2
10
53.122207
20
96.655756
11
52.862419
21
96.659947
0
LINE
8
boundary
62
5
39
2
10
52.862419
20
96.659947
11
50.472575
21
96.659947
0
LINE
8
boundary
62
5
39
2
10
50.472575
20
96.659947
11
50.212786
21
96.655756
0
LINE
8
boundary
62
5
39
2
10
50.212786
20
96.655756
11
49.952876
21
96.643221
0
LINE
8
boundary
62
5
39
2
10
49.952876
20
96.643221
11
47.562174
21
96.488143
0
LINE
8
boundary
62
5
39
2
10
47.562174
20
96.488143
11
47.304185
21
96.467262
0
LINE
8
boundary
62
5
39
2
10
47.304185
20
96.467262
11
47.061081
21
96.439795
0
LINE
8
boundary
62
5
39
2
10
47.061081
20
96.439795
11
44.668360
21
96.128074
0
LINE
8
boundary
62
5
39
2
10
44.668360
20
96.128074
11
44.435300
21
96.094281
0
LINE
8
boundary
62
5
39
2
10
44.435300
20
96.094281
11
44.227266
21
96.057869
0
LINE
8
boundary
62
5
39
2
10
44.227266
20
96.057869
11
41.834484
21
95.586947
0
LINE
8
boundary
62
5
39
2
10
41.834484
20
95.586947
11
41.640317
21
95.547480
0
LINE
8
boundary
62
5
39
2
10
41.640317
20
95.547480
11
41.475662
21
95.509731
0
LINE
8
boundary
62
5
39
2
10
41.475662
20
95.509731
11
41.336775
21
95.474316
0
LINE
8
boundary
62
5
39
2
10
41.336775
20
95.474316
11
38.935868
21
94.837937
0
LINE
8
boundary
62
5
39
2
10
38.935868
20
94.837937
11
38.804140
21
94.801403
0
LINE
8
boundary
62
5
39
2
10
38.804140
20
94.801403
11
38.696255
21
94.769389
0
LINE
8
boundary
62
5
39
2
10
38.696255
20
94.769389
11
38.613036
21
94.743183
0
LINE
8
boundary
62
5
39
2
10
38.613036
20
94.743183
11
38.554001
21
94.723619
0
LINE
8
boundary
62
5
39
2
10
38.554001
20
94.723619
11
36.139734
21
93.913157
0
LINE
8
boundary
62
5
39
2
10
36.139734
20
93.913157
11
36.089293
21
93.895848
0
LINE
8
boundary
62
5
39
2
10
36.089293
20
93.895848
11
36.059880
21
93.885549
0
LINE
8
boundary
62
5
39
2
10
36.059880
20
93.885549
11
36.048808
21
93.881606
0
LINE
8
boundary
62
5
39
2
10
36.048808
20
93.881606
11
35.970590
21
93.853227
0
LINE
8
boundary
62
5
39
2
10
35.970590
20
93.853227
11
33.475616
21
92.831591
0
LINE
8
boundary
62
5
39
2
10
33.475616
20
92.831591
11
33.273216
21
92.748713
0
LINE
8
boundary
62
5
39
2
10
33.273216
20
92.748713
11
30.849605
21
91.567720
0
LINE
8
boundary
62
5
39
2
10
30.849605
20
91.567720
11
30.652994
21
91.471914
0
LINE
8
boundary
62
5
39
2
10
30.652994
20
91.471914
11
28.310913
21
90.136514
0
LINE
8
boundary
62
5
39
2
10
28.310913
20
90.136514
11
28.120916
21
90.028182
0
LINE
8
boundary
62
5
39
2
10
28.120916
20
90.028182
11
25.870186
21
88.543983
0
LINE
8
boundary
62
5
39
2
10
25.870186
20
88.543983
11
25.687599
21
88.423580
0
LINE
8
boundary
62
5
39
2
10
25.687599
20
88.423580
11
23.537660
21
86.796806
0
LINE
8
boundary
62
5
39
2
10
23.537660
20
86.796806
11
23.363250
21
86.664837
0
LINE
8
boundary
62
5
39
2
10
23.363250
20
86.664837
11
21.323124
21
84.902306
0
LINE
8
boundary
62
5
39
2
10
21.323124
20
84.902306
11
21.157622
21
84.759324
0
LINE
8
boundary
62
5
39
2
10
21.157622
20
84.759324
11
19.235857
21
82.868431
0
LINE
8
boundary
62
5
39
2
10
19.235857
20
82.868431
11
19.079957
21
82.715035
0
LINE
8
boundary
62
5
39
2
10
19.079957
20
82.715035
11
17.284624
21
80.703714
0
LINE
8
boundary
62
5
39
2
10
17.284624
20
80.703714
11
17.138981
21
80.540549
0
LINE
8
boundary
62
5
39
2
10
17.138981
20
80.540549
11
15.477604
21
78.417239
0
LINE
8
boundary
62
5
39
2
10
15.477604
20
78.417239
11
15.342827
21
78.244990
0
LINE
8
boundary
62
5
39
2
10
15.342827
20
78.244990
11
13.822376
21
76.018587
0
LINE
8
boundary
62
5
39
2
10
13.822376
20
76.018587
11
13.699032
21
75.837973
0
LINE
8
boundary
62
5
39
2
10
13.699032
20
75.837973
11
12.325885
21
73.517824
0
LINE
8
boundary
62
5
39
2
10
12.325885
20
73.517824
11
12.214491
21
73.329605
0
LINE
8
boundary
62
5
39
2
10
12.214491
20
73.329605
11
10.994405
21
70.925436
0
LINE
8
boundary
62
5
39
2
10
10.994405
20
70.925436
11
10.895427
21
70.730402
0
LINE
8
boundary
62
5
39
2
10
10.895427
20
70.730402
11
9.833523
21
68.252298
0
LINE
8
boundary
62
5
39
2
10
9.833523
20
68.252298
11
9.747378
21
68.051267
0
LINE
8
boundary
62
5
39
2
10
9.747378
20
68.051267
11
8.848108
21
65.509624
0
LINE
8
boundary
62
5
39
2
10
8.848108
20
65.509624
11
8.775157
21
65.303438
0
LINE
8
boundary
62
5
39
2
10
8.775157
20
65.303438
11
8.042291
21
62.708915
0
LINE
8
boundary
62
5
39
2
10
8.042291
20
62.708915
11
7.982839
21
62.498439
0
LINE
8
boundary
62
5
39
2
10
7.982839
20
62.498439
11
7.419453
21
59.861921
0
LINE
8
boundary
62
5
39
2
10
7.419453
20
59.861921
11
7.373749
21
59.648038
0
LINE
8
boundary
62
5
39
2
10
7.373749
20
59.648038
11
6.982207
21
56.980580
0
LINE
8
boundary
62
5
39
2
10
6.982207
20
56.980580
11
6.950444
21
56.764187
0
LINE
8
boundary
62
5
39
2
10
6.950444
20
56.764187
11
6.732386
21
54.076980
0
LINE
8
boundary
62
5
39
2
10
6.732386
20
54.076980
11
6.714696
21
53.858985
0
LINE
8
boundary
62
5
39
2
10
6.714696
20
53.858985
11
6.671041
21
51.163297
0
LINE
8
boundary
62
5
39
2
10
6.671041
20
51.163297
11
6.667500
21
50.944614
0
LINE
8
boundary
62
5
39
2
10
6.667500
20
50.944614
11
6.798428
21
48.251755
0
LINE
8
boundary
62
5
39
2
10
6.798428
20
48.251755
11
6.809049
21
48.033301
0
LINE
8
boundary
62
5
39
2
10
6.809049
20
48.033301
11
7.114007
21
45.354564
0
LINE
8
boundary
62
5
39
2
10
7.114007
20
45.354564
11
7.138747
21
45.137256
0
LINE
8
boundary
62
5
39
2
10
7.138747
20
45.137256
11
7.616459
21
42.483875
0
LINE
8
boundary
62
5
39
2
10
7.616459
20
42.483875
11
7.655212
21
42.268625
0
LINE
8
boundary
62
5
39
2
10
7.655212
20
42.268625
11
8.303675
21
39.651732
0
LINE
8
boundary
62
5
39
2
10
8.303675
20
39.651732
11
8.356281
21
39.439441
0
LINE
8
boundary
62
5
39
2
10
8.356281
20
39.439441
11
9.172778
21
36.870012
0
LINE
8
boundary
62
5
39
2
10
9.172778
20
36.870012
11
9.239015
21
36.661572
0
LINE
8
boundary
62
5
39
2
10
9.239015
20
36.661572
11
10.220119
21
34.150381
0
LINE
8
boundary
62
5
39
2
10
10.220119
20
34.150381
11
10.299709
21
33.946666
0
LINE
8
boundary
62
5
39
2
10
10.299709
20
33.946666
11
11.441305
21
31.504249
0
LINE
8
boundary
62
5
39
2
10
11.441305
20
31.504249
11
11.533915
21
31.306112
0
LINE
8
boundary
62
5
39
2
10
11.533915
20
31.306112
11
12.831208
21
28.942714
0
LINE
8
boundary
62
5
39
2
10
12.831208
20
28.942714
11
12.936449
21
28.750987
0
LINE
8
boundary
62
5
39
2
10
12.936449
20
28.750987
11
14.384008
21
26.476517
0
LINE
8
boundary
62
5
39
2
10
14.384008
20
26.476517
11
14.501439
21
26.292005
0
LINE
8
boundary
62
5
39
2
10
14.501439
20
26.292005
11
16.093185
21
24.116005
0
LINE
8
boundary
62
5
39
2
10
16.093185
20
24.116005
11
16.222313
21
23.939480
0
LINE
8
boundary
62
5
39
2
10
16.222313
20
23.939480
11
17.951577
21
21.871078
0
LINE
8
boundary
62
5
39
2
10
17.951577
20
21.871078
11
18.091860
21
21.703283
0
LINE
8
boundary
62
5
39
2
10
18.091860
20
21.703283
11
19.951385
21
19.751155
0
LINE
8
boundary
62
5
39
2
10
19.951385
20
19.751155
11
20.102236
21
19.592792
0
LINE
8
boundary
62
5
39
2
10
20.102236
20
19.592792
11
22.084222
21
17.765122
0
LINE
8
boundary
62
5
39
2
10
22.084222
20
17.765122
11
22.245007
21
17.616856
0
LINE
8
boundary
62
5
39
2
10
22.245007
20
17.616856
11
24.341137
21
15.921315
0
LINE
8
boundary
62
5
39
2
10
24.341137
20
15.921315
11
24.511181
21
15.783768
0
LINE
8
boundary
62
5
39
2
10
24.511181
20
15.783768
11
26.712671
21
14.227465
0
LINE
8
boundary
62
5
39
2
10
26.712671
20
14.227465
11
26.891262
21
14.101212
0
LINE
8
boundary
62
5
39
2
10
26.891262
20
14.101212
11
29.188875
21
12.690672
0
LINE
8
boundary
62
5
39
2
10
29.188875
20
12.690672
11
29.375265
21
12.576245
0
LINE
8
boundary
62
5
39
2
10
29.375265
20
12.576245
11
31.759362
21
11.317389
0
LINE
8
boundary
62
5
39
2
10
31.759362
20
11.317389
11
31.952768
21
11.215266
0
LINE
8
boundary
62
5
39
2
10
31.952768
20
11.215266
11
34.413350
21
10.113373
0
LINE
8
boundary
62
5
39
2
10
34.413350
20
10.113373
11
34.612960
21
10.023984
0
LINE
8
boundary
62
5
39
2
10
34.612960
20
10.023984
11
34.843985
21
9.935905
0
LINE
8
boundary
62
5
39
2
10
34.843985
20
9.935905
11
34.860772
21
9.929729
0
LINE
8
boundary
62
5
39
2
10
34.860772
20
9.929729
11
37.273531
21
9.031838
0
LINE
8
boundary
62
5
39
2
10
37.273531
20
9.031838
11
37.296635
21
9.023771
0
LINE
8
boundary
62
5
39
2
10
37.296635
20
9.023771
11
37.340305
21
9.008858
0
LINE
8
boundary
62
5
39
2
10
37.340305
20
9.008858
11
37.406567
21
8.986997
0
LINE
8
boundary
62
5
39
2
10
37.406567
20
8.986997
11
37.497279
21
8.958410
0
LINE
8
boundary
62
5
39
2
10
37.497279
20
8.958410
11
37.612794
21
8.923972
0
LINE
8
boundary
62
5
39
2
10
37.612794
20
8.923972
11
40.007121
21
8.205591
0
LINE
8
boundary
62
5
39
2
10
40.007121
20
8.205591
11
40.131168
21
8.171226
0
LINE
8
boundary
62
5
39
2
10
40.131168
20
8.171226
11
40.277572
21
8.133949
0
LINE
8
boundary
62
5
39
2
10
40.277572
20
8.133949
11
40.449522
21
8.094392
0
LINE
8
boundary
62
5
39
2
10
40.449522
20
8.094392
11
42.840044
21
7.542950
0
LINE
8
boundary
62
5
39
2
10
42.840044
20
7.542950
11
43.027062
21
7.505010
0
LINE
8
boundary
62
5
39
2
10
43.027062
20
7.505010
11
43.241822
21
7.467387
0
LINE
8
boundary
62
5
39
2
10
43.241822
20
7.467387
11
45.635112
21
7.076402
0
LINE
8
boundary
62
5
39
2
10
45.635112
20
7.076402
11
45.862197
21
7.043487
0
LINE
8
boundary
62
5
39
2
10
45.862197
20
7.043487
11
46.110218
21
7.015460
0
LINE
8
boundary
62
5
39
2
10
46.110218
20
7.015460
11
48.501928
21
6.782339
0
LINE
8
boundary
62
5
39
2
10
48.501928
20
6.782339
11
48.756270
21
6.761754
0
LINE
8
boundary
62
5
39
2
10
48.756270
20
6.761754
11
49.018388
21
6.749112
0
LINE
8
boundary
62
5
39
2
10
49.018388
20
6.749112
11
51.408439
21
6.671679
0
LINE
8
boundary
62
5
39
2
10
51.408439
20
6.671679
11
51.667497
21
6.667500
0
LINE
8
boundary
62
5
39
2
10
51.667497
20
6.667500
11
51.926554
21
6.671679
0
LINE
8
boundary
62
5
39
2
10
51.926554
20
6.671679
11
54.316606
21
6.749112
0
LINE
8
boundary
62
5
39
2
10
54.316606
20
6.749112
11
54.578724
21
6.761754
0
LINE
8
boundary
62
5
39
2
10
54.578724
20
6.761754
11
54.833066
21
6.782339
0
LINE
8
boundary
62
5
39
2
10
54.833066
20
6.782339
11
57.224776
21
7.015460
0
LINE
8
boundary
62
5
39
2
10
57.224776
20
7.015460
11
57.472797
21
7.043487
0
LINE
8
boundary
62
5
39
2
10
57.472797
20
7.043487
11
57.699882
21
7.076402
0
LINE
8
boundary
62
5
39
2
10
57.699882
20
7.076402
11
60.093172
21
7.467387
0
LINE
8
boundary
62
5
39
2
10
60.093172
20
7.467387
11
60.307931
21
7.505010
0
LINE
8
boundary
62
5
39
2
10
60.307931
20
7.505010
11
60.494950
21
7.542950
0
LINE
8
boundary
62
5
39
2
10
60.494950
20
7.542950
11
60.652254
21
7.579129
0
LINE
8
boundary
62
5
39
2
10
60.652254
20
7.579129
11
63.057421
21
8.133949
0
LINE
8
boundary
62
5
39
2
10
63.057421
20
8.133949
11
63.203825
21
8.171226
0
LINE
8
boundary
62
5
39
2
10
63.203825
20
8.171226
11
63.327872
21
8.205591
0
LINE
8
boundary
62
5
39
2
10
63.327872
20
8.205591
11
63.428054
21
8.235428
0
LINE
8
boundary
62
5
39
2
10
63.428054
20
8.235428
11
65.837714
21
8.958410
0
LINE
8
boundary
62
5
39
2
10
65.837714
20
8.958410
11
65.928426
21
8.986997
0
LINE
8
boundary
62
5
39
2
10
65.928426
20
8.986997
11
65.994688
21
9.008858
0
LINE
8
boundary
62
5
39
2
10
65.994688
20
9.008858
11
66.038359
21
9.023771
0
LINE
8
boundary
62
5
39
2
10
66.038359
20
9.023771
11
66.061463
21
9.031838
0
LINE
8
boundary
62
5
39
2
10
66.061463
20
9.031838
11
66.066750
21
9.033734
0
LINE
8
boundary
62
5
39
2
10
66.066750
20
9.033734
11
68.491008
21
9.935905
0
LINE
8
boundary
62
5
39
2
10
68.491008
20
9.935905
11
68.722033
21
10.023984
0
LINE
8
boundary
62
5
39
2
10
68.722033
20
10.023984
11
71.182615
21
11.125877
0
LINE
8
boundary
62
5
39
2
10
71.182615
20
11.125877
11
71.382226
21
11.215266
0
LINE
8
boundary
62
5
39
2
10
71.382226
20
11.215266
11
73.766323
21
12.474122
0
LINE
8
boundary
62
5
39
2
10
73.766323
20
12.474122
11
73.959729
21
12.576245
0
LINE
8
boundary
62
5
39
2
10
73.959729
20
12.576245
11
76.257341
21
13.986785
0
LINE
8
boundary
62
5
39
2
10
76.257341
20
13.986785
11
76.443731
21
14.101212
0
LINE
8
boundary
62
5
39
2
10
76.443731
20
14.101212
11
78.645220
21
15.657515
0
LINE
8
boundary
62
5
39
2
10
78.645220
20
15.657515
11
78.823812
21
15.783768
0
LINE
8
boundary
62
5
39
2
10
78.823812
20
15.783768
11
80.919941
21
17.479308
0
LINE
8
boundary
62
5
39
2
10
80.919941
20
17.479308
11
81.089986
21
17.616856
0
LINE
8
boundary
62
5
39
2
10
81.089986
20
17.616856
11
83.071972
21
19.444526
0
LINE
8
boundary
62
5
39
2
10
83.071972
20
19.444526
11
83.232758
21
19.592792
0
LINE
8
annotation
62
1
39
211
10
87.667494
20
51.666555
11
87.667494
21
53.095305
0
LINE
8
annotation
62
1
39
211
10
87.667494
20
51.666555
11
87.667494
21
53.095305
0
LINE
8
annotation
62
1
39
211
10
87.667494
20
53.095305
11
87.667494
21
51.666555
0
LINE
8
annotation
62
1
39
211
10
87.667494
20
51.666555
11
87.667494
21
50.237805
0
LINE
8
annotation
62
1
39
211
10
15.667499
20
51.666555
11
17.096249
21
51.666555
0
LINE
8
annotation
62
1
39
211
10
15.667499
20
51.666555
11
17.096249
21
51.666555
0
LINE
8
annotation
62
1
39
211
10
17.096249
20
51.666555
11
15.667499
21
51.666555
0
LINE
8
annotation
62
1
39
211
10
15.667499
20
51.666555
11
15.667499
21
50.237805
0
LINE
8
annotation
62
1
39
211
10
51.667497
20
87.660702
11
51.667497
21
89.089452
0
LINE
8
annotation
62
1
39
211
10
51.667497
20
15.666745
11
53.096247
21
15.666745
0
LINE
8
annotation
62
1
39
211
10
39.656494
20
35.248333
11
39.656494
21
70.891895
0
LINE
8
annotation
62
1
39
211
10
39.656494
20
70.891895
11
31.732474
21
62.965639
0
LINE
8
annotation
62
1
39
211
10
58.747017
20
35.718484
11
58.747017
21
35.718484
0
LINE
8
annotation
62
1
39
211
10
58.747017
20
35.718484
11
59.575417
21
35.408806
0
LINE
8
annotation
62
1
39
211
10
59.575417
20
35.408806
11
60.425012
21
35.254953
0
LINE
8
annotation
62
1
39
211
10
60.425012
20
35.254953
11
61.276593
21
35.250651
0
LINE
8
annotation
62
1
39
211
10
61.276593
20
35.250651
11
62.110955
21
35.389627
0
LINE
8
annotation
62
1
39
211
10
62.110955
20
35.389627
11
62.908890
21
35.665607
0
LINE
8
annotation
62
1
39
211
10
62.908890
20
35.665607
11
63.651191
21
36.072319
0
LINE
8
annotation
62
1
39
211
10
63.651191
20
36.072319
11
64.318653
21
36.603487
0
LINE
8
annotation
62
1
39
211
10
64.318653
20
36.603487
11
64.892068
21
37.252840
0
LINE
8
annotation
62
1
39
211
10
64.892068
20
37.252840
11
65.352229
21
38.014103
0
LINE
8
annotation
62
1
39
211
10
65.352229
20
38.014103
11
65.352229
21
38.014103
0
LINE
8
annotation
62
1
39
211
10
65.352229
20
38.014103
11
66.725180
21
41.227831
0
LINE
8
annotation
62
1
39
211
10
66.725180
20
41.227831
11
67.754893
21
44.534575
0
LINE
8
annotation
62
1
39
211
10
67.754893
20
44.534575
11
68.441368
21
47.907973
0
LINE
8
annotation
62
1
39
211
10
68.441368
20
47.907973
11
68.784605
21
51.321660
0
LINE
8
annotation
62
1
39
211
10
68.784605
20
51.321660
11
68.784605
21
54.749274
0
LINE
8
annotation
62
1
39
211
10
68.784605
20
54.749274
11
68.441368
21
58.164452
0
LINE
8
annotation
62
1
39
211
10
68.441368
20
58.164452
11
67.754893
21
61.540830
0
LINE
8
annotation
62
1
39
211
10
67.754893
20
61.540830
11
66.725180
21
64.852045
0
LINE
8
annotation
62
1
39
211
10
66.725180
20
64.852045
11
65.352229
21
68.071733
0
LINE
8
annotation
62
1
39
211
10
65.352229
20
68.071733
11
65.352229
21
68.071733
0
LINE
8
annotation
62
1
39
211
10
65.352229
20
68.071733
11
65.177630
21
68.396669
0
LINE
8
annotation
62
1
39
211
10
65.177630
20
68.396669
11
64.979685
21
68.707328
0
LINE
8
annotation
62
1
39
211
10
64.979685
20
68.707328
11
64.759884
21
69.002184
0
LINE
8
annotation
62
1
39
211
10
64.759884
20
69.002184
11
64.519717
21
69.279709
0
LINE
8
annotation
62
1
39
211
10
64.519717
20
69.279709
11
64.260674
21
69.538378
0
LINE
8
annotation
62
1
39
211
10
64.260674
20
69.538378
11
63.984246
21
69.776662
0
LINE
8
annotation
62
1
39
211
10
63.984246
20
69.776662
11
63.691923
21
69.993035
0
LINE
8
annotation
62
1
39
211
10
63.691923
20
69.993035
11
63.385195
21
70.185970
0
LINE
8
annotation
62
1
39
211
10
63.385195
20
70.185970
11
63.065552
21
70.353940
0
LINE
8
annotation
62
1
39
211
10
63.065552
20
70.353940
11
63.065552
21
70.353940
0
LINE
8
annotation
62
1
39
211
10
63.065552
20
70.353940
11
62.230574
21
70.670330
0
LINE
8
annotation
62
1
39
211
10
62.230574
20
70.670330
11
61.376003
21
70.829442
0
LINE
8
annotation
62
1
39
211
10
61.376003
20
70.829442
11
60.520825
21
70.837586
0
LINE
8
annotation
62
1
39
211
10
60.520825
20
70.837586
11
59.684026
21
70.701072
0
LINE
8
annotation
62
1
39
211
10
59.684026
20
70.701072
11
58.884591
21
70.426211
0
LINE
8
annotation
62
1
39
211
10
58.884591
20
70.426211
11
58.141508
21
70.019313
0
LINE
8
annotation
62
1
39
211
10
58.141508
20
70.019313
11
57.473761
21
69.486688
0
LINE
8
annotation
62
1
39
211
10
57.473761
20
69.486688
11
56.900337
21
68.834646
0
LINE
8
annotation
62
1
39
211
10
56.900337
20
68.834646
11
56.440221
21
68.069498
0
LINE
8
annotation
62
1
39
211
10
56.440221
20
68.069498
11
56.440221
21
68.069498
0
LINE
8
annotation
62
1
39
211
10
56.440221
20
68.069498
11
55.073894
21
64.856432
0
LINE
8
annotation
62
1
39
211
10
55.073894
20
64.856432
11
54.049148
21
61.550185
0
LINE
8
annotation
62
1
39
211
10
54.049148
20
61.550185
11
53.365985
21
58.177119
0
LINE
8
annotation
62
1
39
211
10
53.365985
20
58.177119
11
53.024403
21
54.763597
0
LINE
8
annotation
62
1
39
211
10
53.024403
20
54.763597
11
53.024403
21
51.335982
0
LINE
8
annotation
62
1
39
211
10
53.024403
20
51.335982
11
53.365985
21
47.920639
0
LINE
8
annotation
62
1
39
211
10
53.365985
20
47.920639
11
54.049148
21
44.543930
0
LINE
8
annotation
62
1
39
211
10
54.049148
20
44.543930
11
55.073894
21
41.232218
0
LINE
8
annotation
62
1
39
211
10
55.073894
20
41.232218
11
56.440221
21
38.011868
0
LINE
8
annotation
62
1
39
211
10
56.440221
20
38.011868
11
56.440221
21
38.011868
0
LINE
8
annotation
62
1
39
211
10
56.440221
20
38.011868
11
56.614186
21
37.687579
0
LINE
8
annotation
62
1
39
211
10
56.614186
20
37.687579
11
56.810669
21
37.378469
0
LINE
8
annotation
62
1
39
211
10
56.810669
20
37.378469
11
57.028842
21
37.085474
0
LINE
8
annotation
62
1
39
211
10
57.028842
20
37.085474
11
57.267877
21
36.809533
0
LINE
8
annotation
62
1
39
211
10
57.267877
20
36.809533
11
57.526947
21
36.551586
0
LINE
8
annotation
62
1
39
211
10
57.526947
20
36.551586
11
57.805224
21
36.312568
0
LINE
8
annotation
62
1
39
211
10
57.805224
20
36.312568
11
58.101880
21
36.093420
0
LINE
8
annotation
62
1
39
211
10
58.101880
20
36.093420
11
58.416087
21
35.895079
0
LINE
8
annotation
62
1
39
211
10
58.416087
20
35.895079
11
58.747017
21
35.718484
0
LINE
8
hole
62
5
39
2
10
144.556740
20
15.380570
11
145.128240
21
15.380570
0
LINE
8
hole
62
5
39
2
10
145.128240
20
15.380570
11
145.128240
21
15.952070
0
LINE
8
hole
62
5
39
2
10
145.128240
20
15.952070
11
144.556740
21
15.952070
0
LINE
8
hole
62
5
39
2
10
144.556740
20
15.952070
11
144.556740
21
15.380570
0
LINE
8
hole
62
5
39
2
10
144.556740
20
87.371127
11
145.128240
21
87.371127
0
LINE
8
hole
62
5
39
2
10
145.128240
20
87.371127
11
145.128240
21
87.942627
0
LINE
8
hole
62
5
39
2
10
145.128240
20
87.942627
11
144.556740
21
87.942627
0
LINE
8
hole
62
5
39
2
10
144.556740
20
87.942627
11
144.556740
21
87.371127
0
LINE
8
boundary
62
5
39
2
10
174.524424
20
17.848588
11
175.352365
21
18.563873
0
LINE
8
boundary
62
5
39
2
10
175.352365
20
18.563873
11
176.650123
21
19.840783
0
LINE
8
boundary
62
5
39
2
10
176.650123
20
19.840783
11
177.430030
21
20.608161
0
LINE
8
boundary
62
5
39
2
10
177.430030
20
20.608161
11
178.642409
21
21.966396
0
LINE
8
boundary
62
5
39
2
10
178.642409
20
21.966396
11
179.371006
21
22.782647
0
LINE
8
boundary
62
5
39
2
10
179.371006
20
22.782647
11
180.492925
21
24.216507
0
LINE
8
boundary
62
5
39
2
10
180.492925
20
24.216507
11
181.167160
21
25.078207
0
LINE
8
boundary
62
5
39
2
10
181.167160
20
25.078207
11
182.193912
21
26.581685
0
LINE
8
boundary
62
5
39
2
10
182.193912
20
26.581685
11
182.810955
21
27.485223
0
LINE
8
boundary
62
5
39
2
10
182.810955
20
27.485223
11
183.738234
21
29.052008
0
LINE
8
boundary
62
5
39
2
10
183.738234
20
29.052008
11
184.295496
21
29.993591
0
LINE
8
boundary
62
5
39
2
10
184.295496
20
29.993591
11
185.119414
21
31.617114
0
LINE
8
boundary
62
5
39
2
10
185.119414
20
31.617114
11
185.614560
21
32.592795
0
LINE
8
boundary
62
5
39
2
10
185.614560
20
32.592795
11
186.331658
21
34.266245
0
LINE
8
boundary
62
5
39
2
10
186.331658
20
34.266245
11
186.762609
21
35.271930
0
LINE
8
boundary
62
5
39
2
10
186.762609
20
35.271930
11
187.369881
21
36.988288
0
LINE
8
boundary
62
5
39
2
10
187.369881
20
36.988288
11
187.734830
21
38.019759
0
LINE
8
boundary
62
5
39
2
10
187.734830
20
38.019759
11
188.229731
21
39.771826
0
LINE
8
boundary
62
5
39
2
10
188.229731
20
39.771826
11
188.527148
21
40.824758
0
LINE
8
boundary
62
5
39
2
10
188.527148
20
40.824758
11
188.907600
21
42.605184
0
LINE
8
boundary
62
5
39
2
10
188.907600
20
42.605184
11
189.136238
21
43.675158
0
LINE
8
boundary
62
5
39
2
10
189.136238
20
43.675158
11
189.400644
21
45.476479
0
LINE
8
boundary
62
5
39
2
10
189.400644
20
45.476479
11
189.559543
21
46.559009
0
LINE
8
boundary
62
5
39
2
10
189.559543
20
46.559009
11
189.706797
21
48.373667
0
LINE
8
boundary
62
5
39
2
10
189.706797
20
48.373667
11
189.795291
21
49.464212
0
LINE
8
boundary
62
5
39
2
10
189.795291
20
49.464212
11
189.824771
21
51.284596
0
LINE
8
boundary
62
5
39
2
10
189.824771
20
51.284596
11
189.842487
21
52.378582
0
LINE
8
boundary
62
5
39
2
10
189.842487
20
52.378582
11
189.754072
21
54.197056
0
LINE
8
boundary
62
5
39
2
10
189.754072
20
54.197056
11
189.700938
21
55.289896
0
LINE
8
boundary
62
5
39
2
10
189.700938
20
55.289896
11
189.495001
21
57.098833
0
LINE
8
boundary
62
5
39
2
10
189.495001
20
57.098833
11
189.371240
21
58.185941
0
LINE
8
boundary
62
5
39
2
10
189.371240
20
58.185941
11
189.048644
21
59.977755
0
LINE
8
boundary
62
5
39
2
10
189.048644
20
59.977755
11
188.854775
21
61.054572
0
LINE
8
boundary
62
5
39
2
10
188.854775
20
61.054572
11
188.416871
21
62.821746
0
LINE
8
boundary
62
5
39
2
10
188.416871
20
62.821746
11
188.153706
21
63.883756
0
LINE
8
boundary
62
5
39
2
10
188.153706
20
63.883756
11
187.602330
21
65.618877
0
LINE
8
boundary
62
5
39
2
10
187.602330
20
65.618877
11
187.270972
21
66.661624
0
LINE
8
boundary
62
5
39
2
10
187.270972
20
66.661624
11
186.608438
21
68.357419
0
LINE
8
boundary
62
5
39
2
10
186.608438
20
68.357419
11
186.210278
21
69.376531
0
LINE
8
boundary
62
5
39
2
10
186.210278
20
69.376531
11
185.439364
21
71.025882
0
LINE
8
boundary
62
5
39
2
10
185.439364
20
71.025882
11
184.976072
21
72.017084
0
LINE
8
boundary
62
5
39
2
10
184.976072
20
72.017084
11
184.100017
21
73.613075
0
LINE
8
boundary
62
5
39
2
10
184.100017
20
73.613075
11
183.573538
21
74.572209
0
LINE
8
boundary
62
5
39
2
10
183.573538
20
74.572209
11
182.596009
21
76.108147
0
LINE
8
boundary
62
5
39
2
10
182.596009
20
76.108147
11
182.008548
21
77.031192
0
LINE
8
boundary
62
5
39
2
10
182.008548
20
77.031192
11
180.933650
21
78.500633
0
LINE
8
boundary
62
5
39
2
10
180.933650
20
78.500633
11
180.287674
21
79.383716
0
LINE
8
boundary
62
5
39
2
10
180.287674
20
79.383716
11
179.119911
21
80.780497
0
LINE
8
boundary
62
5
39
2
10
179.119911
20
80.780497
11
178.418127
21
81.619914
0
LINE
8
boundary
62
5
39
2
10
178.418127
20
81.619914
11
177.162399
21
82.938176
0
LINE
8
boundary
62
5
39
2
10
177.162399
20
82.938176
11
176.407751
21
83.730405
0
LINE
8
boundary
62
5
39
2
10
176.407751
20
83.730405
11
175.069326
21
84.964620
0
LINE
8
boundary
62
5
39
2
10
175.069326
20
84.964620
11
174.264980
21
85.706341
0
LINE
8
boundary
62
5
39
2
10
174.264980
20
85.706341
11
172.849475
21
86.851330
0
LINE
8
boundary
62
5
39
2
10
172.849475
20
86.851330
11
171.998806
21
87.539429
0
LINE
8
boundary
62
5
39
2
10
171.998806
20
87.539429
11
170.512152
21
88.590392
0
LINE
8
boundary
62
5
39
2
10
170.512152
20
88.590392
11
169.618725
21
89.221984
0
LINE
8
boundary
62
5
39
2
10
169.618725
20
89.221984
11
168.067159
21
90.174515
0
LINE
8
boundary
62
5
39
2
10
168.067159
20
90.174515
11
167.134722
21
90.746952
0
LINE
8
boundary
62
5
39
2
10
167.134722
20
90.746952
11
165.524754
21
91.597051
0
LINE
8
boundary
62
5
39
2
10
165.524754
20
91.597051
11
164.557219
21
92.107931
0
LINE
8
boundary
62
5
39
2
10
164.557219
20
92.107931
11
162.895601
21
92.852033
0
LINE
8
boundary
62
5
39
2
10
162.895601
20
92.852033
11
161.897027
21
93.299213
0
LINE
8
boundary
62
5
39
2
10
161.897027
20
93.299213
11
160.190728
21
93.934200
0
LINE
8
boundary
62
5
39
2
10
160.190728
20
93.934200
11
159.165302
21
94.315805
0
LINE
8
boundary
62
5
39
2
10
159.165302
20
94.315805
11
157.421479
21
94.839012
0
LINE
8
boundary
62
5
39
2
10
157.421479
20
94.839012
11
156.373502
21
95.153442
0
LINE
8
boundary
62
5
39
2
10
156.373502
20
95.153442
11
154.599468
21
95.562673
0
LINE
8
boundary
62
5
39
2
10
154.599468
20
95.562673
11
153.533336
21
95.808607
0
LINE
8
boundary
62
5
39
2
10
153.533336
20
95.808607
11
151.736534
21
96.102145
0
LINE
8
boundary
62
5
39
2
10
151.736534
20
96.102145
11
150.656718
21
96.278552
0
LINE
8
boundary
62
5
39
2
10
150.656718
20
96.278552
11
148.844683
21
96.455171
0
LINE
8
boundary
62
5
39
2
10
148.844683
20
96.455171
11
147.755714
21
96.561314
0
LINE
8
boundary
62
5
39
2
10
147.755714
20
96.561314
11
145.936047
21
96.620267
0
LINE
8
boundary
62
5
39
2
10
145.936047
20
96.620267
11
144.842490
21
96.655697
0
LINE
8
boundary
62
5
39
2
10
144.842490
20
96.655697
11
143.022823
21
96.596743
0
LINE
8
boundary
62
5
39
2
10
143.022823
20
96.596743
11
141.929267
21
96.561314
0
LINE
8
boundary
62
5
39
2
10
141.929267
20
96.561314
11
140.117232
21
96.384694
0
LINE
8
boundary
62
5
39
2
10
140.117232
20
96.384694
11
139.028262
21
96.278552
0
LINE
8
boundary
62
5
39
2
10
139.028262
20
96.278552
11
137.231460
21
95.985013
0
LINE
8
boundary
62
5
39
2
10
137.231460
20
95.985013
11
136.151645
21
95.808607
0
LINE
8
boundary
62
5
39
2
10
136.151645
20
95.808607
11
134.377611
21
95.399376
0
LINE
8
boundary
62
5
39
2
10
134.377611
20
95.399376
11
133.311479
21
95.153442
0
LINE
8
boundary
62
5
39
2
10
133.311479
20
95.153442
11
131.567655
21
94.630234
0
LINE
8
boundary
62
5
39
2
10
131.567655
20
94.630234
11
130.519679
21
94.315805
0
LINE
8
boundary
62
5
39
2
10
130.519679
20
94.315805
11
128.813380
21
93.680818
0
LINE
8
boundary
62
5
39
2
10
128.813380
20
93.680818
11
127.787954
21
93.299213
0
LINE
8
boundary
62
5
39
2
10
127.787954
20
93.299213
11
126.126336
21
92.555110
0
LINE
8
boundary
62
5
39
2
10
126.126336
20
92.555110
11
125.127761
21
92.107930
0
LINE
8
boundary
62
5
39
2
10
125.127761
20
92.107930
11
123.517793
21
91.257832
0
LINE
8
boundary
62
5
39
2
10
123.517793
20
91.257832
11
122.550258
21
90.746952
0
LINE
8
boundary
62
5
39
2
10
122.550258
20
90.746952
11
120.998693
21
89.794422
0
LINE
8
boundary
62
5
39
2
10
120.998693
20
89.794422
11
120.066256
21
89.221984
0
LINE
8
boundary
62
5
39
2
10
120.066256
20
89.221984
11
118.579602
21
88.171021
0
LINE
8
boundary
62
5
39
2
10
118.579602
20
88.171021
11
117.686175
21
87.539429
0
LINE
8
boundary
62
5
39
2
10
117.686175
20
87.539429
11
116.270670
21
86.394439
0
LINE
8
boundary
62
5
39
2
10
116.270670
20
86.394439
11
115.420001
21
85.706341
0
LINE
8
boundary
62
5
39
2
10
115.420001
20
85.706341
11
114.081576
21
84.472125
0
LINE
8
boundary
62
5
39
2
10
114.081576
20
84.472125
11
113.277229
21
83.730405
0
LINE
8
boundary
62
5
39
2
10
113.277229
20
83.730405
11
112.021502
21
82.412143
0
LINE
8
boundary
62
5
39
2
10
112.021502
20
82.412143
11
111.266854
21
81.619914
0
LINE
8
boundary
62
5
39
2
10
111.266854
20
81.619914
11
110.099091
21
80.223133
0
LINE
8
boundary
62
5
39
2
10
110.099091
20
80.223133
11
109.397306
21
79.383716
0
LINE
8
boundary
62
5
39
2
10
109.397306
20
79.383716
11
108.322409
21
77.914275
0
LINE
8
boundary
62
5
39
2
10
108.322409
20
77.914275
11
107.676433
21
77.031192
0
LINE
8
boundary
62
5
39
2
10
107.676433
20
77.031192
11
106.698903
21
75.495254
0
LINE
8
boundary
62
5
39
2
10
106.698903
20
75.495254
11
106.111442
21
74.572209
0
LINE
8
boundary
62
5
39
2
10
106.111442
20
74.572209
11
105.235387
21
72.976219
0
LINE
8
boundary
62
5
39
2
10
105.235387
20
72.976219
11
104.708909
21
72.017084
0
LINE
8
boundary
62
5
39
2
10
104.708909
20
72.017084
11
103.937995
21
70.367733
0
LINE
8
boundary
62
5
39
2
10
103.937995
20
70.367733
11
103.474703
21
69.376531
0
LINE
8
boundary
62
5
39
2
10
103.474703
20
69.376531
11
102.812169
21
67.680737
0
LINE
8
boundary
62
5
39
2
10
102.812169
20
67.680737
11
102.414009
21
66.661625
0
LINE
8
boundary
62
5
39
2
10
102.414009
20
66.661625
11
101.862632
21
64.926503
0
LINE
8
boundary
62
5
39
2
10
101.862632
20
64.926503
11
101.531274
21
63.883755
0
LINE
8
boundary
62
5
39
2
10
101.531274
20
63.883755
11
101.093371
21
62.116582
0
LINE
8
boundary
62
5
39
2
10
101.093371
20
62.116582
11
100.830206
21
61.054572
0
LINE
8
boundary
62
5
39
2
10
100.830206
20
61.054572
11
100.507610
21
59.262758
0
LINE
8
boundary
62
5
39
2
10
100.507610
20
59.262758
11
100.313740
21
58.185941
0
LINE
8
boundary
62
5
39
2
10
100.313740
20
58.185941
11
100.107803
21
56.377003
0
LINE
8
boundary
62
5
39
2
10
100.107803
20
56.377003
11
99.984043
21
55.289896
0
LINE
8
boundary
62
5
39
2
10
99.984043
20
55.289896
11
99.895628
21
53.471422
0
LINE
8
boundary
62
5
39
2
10
99.895628
20
53.471422
11
99.842494
21
52.378582
0
LINE
8
boundary
62
5
39
2
10
99.842494
20
52.378582
11
99.871973
21
50.558199
0
LINE
8
boundary
62
5
39
2
10
99.871973
20
50.558199
11
99.889690
21
49.464212
0
LINE
8
boundary
62
5
39
2
10
99.889690
20
49.464212
11
100.036943
21
47.649555
0
LINE
8
boundary
62
5
39
2
10
100.036943
20
47.649555
11
100.125437
21
46.559009
0
LINE
8
boundary
62
5
39
2
10
100.125437
20
46.559009
11
100.389844
21
44.757689
0
LINE
8
boundary
62
5
39
2
10
100.389844
20
44.757689
11
100.548743
21
43.675158
0
LINE
8
boundary
62
5
39
2
10
100.548743
20
43.675158
11
100.929194
21
41.894732
0
LINE
8
boundary
62
5
39
2
10
100.929194
20
41.894732
11
101.157832
21
40.824758
0
LINE
8
boundary
62
5
39
2
10
101.157832
20
40.824758
11
101.652733
21
39.072690
0
LINE
8
boundary
62
5
39
2
10
101.652733
20
39.072690
11
101.950150
21
38.019759
0
LINE
8
boundary
62
5
39
2
10
101.950150
20
38.019759
11
102.557422
21
36.303401
0
LINE
8
boundary
62
5
39
2
10
102.557422
20
36.303401
11
102.922372
21
35.271930
0
LINE
8
boundary
62
5
39
2
10
102.922372
20
35.271930
11
103.639470
21
33.598480
0
LINE
8
boundary
62
5
39
2
10
103.639470
20
33.598480
11
104.070421
21
32.592795
0
LINE
8
boundary
62
5
39
2
10
104.070421
20
32.592795
11
104.894339
21
30.969272
0
LINE
8
boundary
62
5
39
2
10
104.894339
20
30.969272
11
105.389484
21
29.993591
0
LINE
8
boundary
62
5
39
2
10
105.389484
20
29.993591
11
106.316764
21
28.426806
0
LINE
8
boundary
62
5
39
2
10
106.316764
20
28.426806
11
106.874026
21
27.485223
0
LINE
8
boundary
62
5
39
2
10
106.874026
20
27.485223
11
107.900779
21
25.981745
0
LINE
8
boundary
62
5
39
2
10
107.900779
20
25.981745
11
108.517821
21
25.078207
0
LINE
8
boundary
62
5
39
2
10
108.517821
20
25.078207
11
109.639740
21
23.644347
0
LINE
8
boundary
62
5
39
2
10
109.639740
20
23.644347
11
110.313975
21
22.782647
0
LINE
8
boundary
62
5
39
2
10
110.313975
20
22.782647
11
111.526353
21
21.424413
0
LINE
8
boundary
62
5
39
2
10
111.526353
20
21.424413
11
112.254951
21
20.608161
0
LINE
8
boundary
62
5
39
2
10
112.254951
20
20.608161
11
113.552709
21
19.331251
0
LINE
8
boundary
62
5
39
2
10
113.552709
20
19.331251
11
114.332616
21
18.563873
0
LINE
8
boundary
62
5
39
2
10
114.332616
20
18.563873
11
115.710302
21
17.373645
0
LINE
8
boundary
62
5
39
2
10
115.710302
20
17.373645
11
116.538244
21
16.658360
0
LINE
8
boundary
62
5
39
2
10
116.538244
20
16.658360
11
117.990086
21
15.559808
0
LINE
8
boundary
62
5
39
2
10
117.990086
20
15.559808
11
118.862593
21
14.899616
0
LINE
8
boundary
62
5
39
2
10
118.862593
20
14.899616
11
120.382499
21
13.897345
0
LINE
8
boundary
62
5
39
2
10
120.382499
20
13.897345
11
121.295909
21
13.295015
0
LINE
8
boundary
62
5
39
2
10
121.295909
20
13.295015
11
122.877504
21
12.393226
0
LINE
8
boundary
62
5
39
2
10
122.877504
20
12.393226
11
123.827987
21
11.851283
0
LINE
8
boundary
62
5
39
2
10
123.827987
20
11.851283
11
125.464639
21
11.053764
0
LINE
8
boundary
62
5
39
2
10
125.464639
20
11.053764
11
126.448210
21
10.574484
0
LINE
8
boundary
62
5
39
2
10
126.448210
20
10.574484
11
128.133052
21
9.884578
0
LINE
8
boundary
62
5
39
2
10
128.133052
20
9.884578
11
129.145583
21
9.469970
0
LINE
8
boundary
62
5
39
2
10
129.145583
20
9.469970
11
130.871550
21
8.890568
0
LINE
8
boundary
62
5
39
2
10
130.871550
20
8.890568
11
131.908796
21
8.542367
0
LINE
8
boundary
62
5
39
2
10
131.908796
20
8.542367
11
133.668647
21
8.075905
0
LINE
8
boundary
62
5
39
2
10
133.668647
20
8.075905
11
134.726256
21
7.795577
0
LINE
8
boundary
62
5
39
2
10
134.726256
20
7.795577
11
136.512611
21
7.444006
0
LINE
8
boundary
62
5
39
2
10
136.512611
20
7.444006
11
137.586148
21
7.232724
0
LINE
8
boundary
62
5
39
2
10
137.586148
20
7.232724
11
139.391513
21
6.997523
0
LINE
8
boundary
62
5
39
2
10
139.391513
20
6.997523
11
140.476475
21
6.856176
0
LINE
8
boundary
62
5
39
2
10
140.476475
20
6.856176
11
142.293279
21
6.738324
0
LINE
8
boundary
62
5
39
2
10
142.293279
20
6.738324
11
143.385114
21
6.667500
0
LINE
8
boundary
62
5
39
2
10
143.385114
20
6.667500
11
145.205736
21
6.667500
0
LINE
8
boundary
62
5
39
2
10
145.205736
20
6.667500
11
146.299867
21
6.667500
0
LINE
8
boundary
62
5
39
2
10
146.299867
20
6.667500
11
148.116670
21
6.785351
0
LINE
8
boundary
62
5
39
2
10
148.116670
20
6.785351
11
149.208506
21
6.856176
0
LINE
8
boundary
62
5
39
2
10
149.208506
20
6.856176
11
151.013871
21
7.091377
0
LINE
8
boundary
62
5
39
2
10
151.013871
20
7.091377
11
152.098833
21
7.232724
0
LINE
8
boundary
62
5
39
2
10
152.098833
20
7.232724
11
153.885188
21
7.584295
0
LINE
8
boundary
62
5
39
2
10
153.885188
20
7.584295
11
154.958725
21
7.795577
0
LINE
8
boundary
62
5
39
2
10
154.958725
20
7.795577
11
156.718576
21
8.262040
0
LINE
8
boundary
62
5
39
2
10
156.718576
20
8.262040
11
157.776185
21
8.542368
0
LINE
8
boundary
62
5
39
2
10
157.776185
20
8.542368
11
159.502152
21
9.121769
0
LINE
8
boundary
62
5
39
2
10
159.502152
20
9.121769
11
160.539397
21
9.469970
0
LINE
8
boundary
62
5
39
2
10
160.539397
20
9.469970
11
162.224240
21
10.159875
0
LINE
8
boundary
62
5
39
2
10
162.224240
20
10.159875
11
163.236771
21
10.574484
0
LINE
8
boundary
62
5
39
2
10
163.236771
20
10.574484
11
164.873423
21
11.372002
0
LINE
8
boundary
62
5
39
2
10
164.873423
20
11.372002
11
165.856993
21
11.851283
0
LINE
8
boundary
62
5
39
2
10
165.856993
20
11.851283
11
167.438588
21
12.753071
0
LINE
8
boundary
62
5
39
2
10
167.438588
20
12.753071
11
168.389071
21
13.295015
0
LINE
8
boundary
62
5
39
2
10
168.389071
20
13.295015
11
169.908977
21
14.297286
0
LINE
8
boundary
62
5
39
2
10
169.908977
20
14.297286
11
170.822388
21
14.899616
0
LINE
8
boundary
62
5
39
2
10
170.822388
20
14.899616
11
172.274230
21
15.998169
0
LINE
8
boundary
62
5
39
2
10
172.274230
20
15.998169
11
173.146737
21
16.658360
0
LINE
8
boundary
62
5
39
2
10
173.146737
20
16.658360
11
174.524424
21
17.848588
0
LINE
8
annotation
62
1
39
211
10
144.842490
20
87.656877
11
144.842490
21
89.085627
0
LINE
8
annotation
62
1
39
211
10
144.842490
20
87.656877
11
144.842490
21
89.085627
0
LINE
8
annotation
62
1
39
211
10
144.842490
20
89.085627
11
144.842490
21
87.656877
0
LINE
8
annotation
62
1
39
211
10
144.842490
20
87.656877
11
144.842490
21
86.228127
0
LINE
8
annotation
62
1
39
211
10
144.842490
20
15.666320
11
146.271240
21
15.666320
0
LINE
8
annotation
62
1
39
211
10
144.842490
20
15.666320
11
146.271240
21
15.666320
0
LINE
8
annotation
62
1
39
211
10
146.271240
20
15.666320
11
144.842490
21
15.666320
0
LINE
8
annotation
62
1
39
211
10
144.842490
20
15.666320
11
144.842490
21
14.237570
0
LINE
8
annotation
62
1
39
211
10
135.609291
20
32.433427
11
135.609291
21
68.076989
0
LINE
8
annotation
62
1
39
211
10
135.609291
20
68.076989
11
127.685271
21
60.150733
0
LINE
8
annotation
62
1
39
211
10
148.974509
20
32.434545
11
156.889588
21
32.434545
0
LINE
8
annotation
62
1
39
211
10
156.889588
20
32.434545
11
156.889588
21
32.434545
0
LINE
8
annotation
62
1
39
211
10
156.889588
20
32.434545
11
158.313134
21
32.562246
0
LINE
8
annotation
62
1
39
211
10
158.313134
20
32.562246
11
159.652641
21
32.930289
0
LINE
8
annotation
62
1
39
211
10
159.652641
20
32.930289
11
160.885831
21
33.516083
0
LINE
8
annotation
62
1
39
211
10
160.885831
20
33.516083
11
161.990424
21
34.297034
0
LINE
8
annotation
62
1
39
211
10
161.990424
20
34.297034
11
162.944140
21
35.250551
0
LINE
8
annotation
62
1
39
211
10
162.944140
20
35.250551
11
163.724702
21
36.354043
0
LINE
8
annotation
62
1
39
211
10
163.724702
20
36.354043
11
164.309830
21
37.584918
0
LINE
8
annotation
62
1
39
211
10
164.309830
20
37.584918
11
164.677245
21
38.920583
0
LINE
8
annotation
62
1
39
211
10
164.677245
20
38.920583
11
164.804667
21
40.338447
0
LINE
8
annotation
62
1
39
211
10
164.804667
20
40.338447
11
164.804667
21
44.301575
0
LINE
8
annotation
62
1
39
211
10
164.804667
20
44.301575
11
164.804667
21
44.301575
0
LINE
8
annotation
62
1
39
211
10
164.804667
20
44.301575
11
164.677245
21
45.718851
0
LINE
8
annotation
62
1
39
211
10
164.677245
20
45.718851
11
164.309830
21
47.054203
0
LINE
8
annotation
62
1
39
211
10
164.309830
20
47.054203
11
163.724702
21
48.284986
0
LINE
8
annotation
62
1
39
211
10
163.724702
20
48.284986
11
162.944140
21
49.388551
0
LINE
8
annotation
62
1
39
211
10
162.944140
20
49.388551
11
161.990424
21
50.342253
0
LINE
8
annotation
62
1
39
211
10
161.990424
20
50.342253
11
160.885831
21
51.123443
0
LINE
8
annotation
62
1
39
211
10
160.885831
20
51.123443
11
159.652641
21
51.709476
0
LINE
8
annotation
62
1
39
211
10
159.652641
20
51.709476
11
158.313134
21
52.077703
0
LINE
8
annotation
62
1
39
211
10
158.313134
20
52.077703
11
156.889588
21
52.205478
0
LINE
8
annotation
62
1
39
211
10
156.889588
20
52.205478
11
152.926460
21
52.205478
0
LINE
8
annotation
62
1
39
211
10
152.926460
20
52.205478
11
156.889588
21
52.205478
0
LINE
8
annotation
62
1
39
211
10
156.889588
20
52.205478
11
156.889588
21
52.205478
0
LINE
8
annotation
62
1
39
211
10
156.889588
20
52.205478
11
158.313134
21
52.333284
0
LINE
8
annotation
62
1
39
211
10
158.313134
20
52.333284
11
159.652641
21
52.701726
0
LINE
8
annotation
62
1
39
211
10
159.652641
20
52.701726
11
160.885831
21
53.288340
0
LINE
8
annotation
62
1
39
211
10
160.885831
20
53.288340
11
161.990424
21
54.070665
0
LINE
8
annotation
62
1
39
211
10
161.990424
20
54.070665
11
162.944140
21
55.026237
0
LINE
8
annotation
62
1
39
211
10
162.944140
20
55.026237
11
163.724702
21
56.132593
0
LINE
8
annotation
62
1
39
211
10
163.724702
20
56.132593
11
164.309830
21
57.367270
0
LINE
8
annotation
62
1
39
211
10
164.309830
20
57.367270
11
164.677245
21
58.707804
0
LINE
8
annotation
62
1
39
211
10
164.677245
20
58.707804
11
164.804667
21
60.131733
0
LINE
8
annotation
62
1
39
211
10
164.804667
20
60.131733
11
164.804667
21
60.131733
0
LINE
8
annotation
62
1
39
211
10
164.804667
20
60.131733
11
164.677245
21
61.549009
0
LINE
8
annotation
62
1
39
211
10
164.677245
20
61.549009
11
164.309830
21
62.884361
0
LINE
8
annotation
62
1
39
211
10
164.309830
20
62.884361
11
163.724702
21
64.115144
0
LINE
8
annotation
62
1
39
211
10
163.724702
20
64.115144
11
162.944140
21
65.218710
0
LINE
8
annotation
62
1
39
211
10
162.944140
20
65.218710
11
161.990424
21
66.172411
0
LINE
8
annotation
62
1
39
211
10
161.990424
20
66.172411
11
160.885831
21
66.953601
0
LINE
8
annotation
62
1
39
211
10
160.885831
20
66.953601
11
159.652641
21
67.539634
0
LINE
8
annotation
62
1
39
211
10
159.652641
20
67.539634
11
158.313134
21
67.907861
0
LINE
8
annotation
62
1
39
211
10
158.313134
20
67.907861
11
156.889588
21
68.035636
0
LINE
8
annotation
62
1
39
211
10
156.889588
20
68.035636
11
148.974509
21
68.035636
0
LINE
8
hole
62
5
39
2
10
51.381747
20
108.548016
11
51.953247
21
108.548016
0
LINE
8
hole
62
5
39
2
10
51.953247
20
108.548016
11
51.953247
21
109.119516
0
LINE
8
hole
62
5
39
2
10
51.953247
20
109.119516
11
51.381747
21
109.119516
0
LINE
8
hole
62
5
39
2
10
51.381747
20
109.119516
11
51.381747
21
108.548016
0
LINE
8
hole
62
5
39
2
10
84.567558
20
144.531495
11
85.139058
21
144.531495
0
LINE
8
hole
62
5
39
2
10
85.139058
20
144.531495
11
85.139058
21
145.102995
0
LINE
8
hole
62
5
39
2
10
85.139058
20
145.102995
11
84.567558
21
145.102995
0
LINE
8
hole
62
5
39
2
10
84.567558
20
145.102995
11
84.567558
21
144.531495
0
LINE
8
hole
62
5
39
2
10
18.195936
20
144.531495
11
18.767436
21
144.531495
0
LINE
8
hole
62
5
39
2
10
18.767436
20
144.531495
11
18.767436
21
145.102995
0
LINE
8
hole
62
5
39
2
10
18.767436
20
145.102995
11
18.195936
21
145.102995
0
LINE
8
hole
62
5
39
2
10
18.195936
20
145.102995
11
18.195936
21
144.531495
0
LINE
8
hole
62
5
39
2
10
51.381747
20
180.538574
11
51.953247
21
180.538574
0
LINE
8
hole
62
5
39
2
10
51.953247
20
180.538574
11
51.953247
21
181.110074
0
LINE
8
hole
62
5
39
2
10
51.953247
20
181.110074
11
51.381747
21
181.110074
0
LINE
8
hole
62
5
39
2
10
51.381747
20
181.110074
11
51.381747
21
180.538574
0
LINE
8
boundary
62
5
39
2
10
80.246761
20
110.063403
11
82.177371
21
111.731320
0
LINE
8
boundary
62
5
39
2
10
82.177371
20
111.731320
11
82.436433
21
111.986219
0
LINE
8
boundary
62
5
39
2
10
82.436433
20
111.986219
11
84.255036
21
113.775608
0
LINE
8
boundary
62
5
39
2
10
84.255036
20
113.775608
11
84.497054
21
114.046742
0
LINE
8
boundary
62
5
39
2
10
84.497054
20
114.046742
11
86.196012
21
115.950094
0
LINE
8
boundary
62
5
39
2
10
86.196012
20
115.950094
11
86.419973
21
116.236324
0
LINE
8
boundary
62
5
39
2
10
86.419973
20
116.236324
11
87.992166
21
118.245654
0
LINE
8
boundary
62
5
39
2
10
87.992166
20
118.245654
11
88.197129
21
118.545782
0
LINE
8
boundary
62
5
39
2
10
88.197129
20
118.545782
11
89.635961
21
120.652670
0
LINE
8
boundary
62
5
39
2
10
89.635961
20
120.652670
11
89.821067
21
120.965435
0
LINE
8
boundary
62
5
39
2
10
89.821067
20
120.965435
11
91.120503
21
123.161038
0
LINE
8
boundary
62
5
39
2
10
91.120503
20
123.161038
11
91.284975
21
123.485129
0
LINE
8
boundary
62
5
39
2
10
91.284975
20
123.485129
11
92.439566
21
125.760242
0
LINE
8
boundary
62
5
39
2
10
92.439566
20
125.760242
11
92.582715
21
126.094300
0
LINE
8
boundary
62
5
39
2
10
92.582715
20
126.094300
11
93.587616
21
128.439376
0
LINE
8
boundary
62
5
39
2
10
93.587616
20
128.439376
11
93.708841
21
128.782000
0
LINE
8
boundary
62
5
39
2
10
93.708841
20
128.782000
11
94.559837
21
131.187206
0
LINE
8
boundary
62
5
39
2
10
94.559837
20
131.187206
11
94.658630
21
131.536957
0
LINE
8
boundary
62
5
39
2
10
94.658630
20
131.536957
11
95.352155
21
133.992204
0
LINE
8
boundary
62
5
39
2
10
95.352155
20
133.992204
11
95.428101
21
134.347617
0
LINE
8
boundary
62
5
39
2
10
95.428101
20
134.347617
11
95.961244
21
136.842605
0
LINE
8
boundary
62
5
39
2
10
95.961244
20
136.842605
11
96.014026
21
137.202189
0
LINE
8
boundary
62
5
39
2
10
96.014026
20
137.202189
11
96.384550
21
139.726456
0
LINE
8
boundary
62
5
39
2
10
96.384550
20
139.726456
11
96.413945
21
140.088702
0
LINE
8
boundary
62
5
39
2
10
96.413945
20
140.088702
11
96.620297
21
142.631659
0
LINE
8
boundary
62
5
39
2
10
96.620297
20
142.631659
11
96.626182
21
142.995048
0
LINE
8
boundary
62
5
39
2
10
96.626182
20
142.995048
11
96.667494
21
145.546029
0
LINE
8
boundary
62
5
39
2
10
96.667494
20
145.546029
11
96.649844
21
145.909037
0
LINE
8
boundary
62
5
39
2
10
96.649844
20
145.909037
11
96.525945
21
148.457342
0
LINE
8
boundary
62
5
39
2
10
96.525945
20
148.457342
11
96.484835
21
148.818446
0
LINE
8
boundary
62
5
39
2
10
96.484835
20
148.818446
11
96.196247
21
151.353387
0
LINE
8
boundary
62
5
39
2
10
96.196247
20
151.353387
11
96.131849
21
151.711073
0
LINE
8
boundary
62
5
39
2
10
96.131849
20
151.711073
11
95.679781
21
154.222019
0
LINE
8
boundary
62
5
39
2
10
95.679781
20
154.222019
11
95.592366
21
154.574786
0
LINE
8
boundary
62
5
39
2
10
95.592366
20
154.574786
11
94.978713
21
157.051202
0
LINE
8
boundary
62
5
39
2
10
94.978713
20
157.051202
11
94.868646
21
157.397571
0
LINE
8
boundary
62
5
39
2
10
94.868646
20
157.397571
11
94.095978
21
159.829071
0
LINE
8
boundary
62
5
39
2
10
94.095978
20
159.829071
11
93.963722
21
160.167590
0
LINE
8
boundary
62
5
39
2
10
93.963722
20
160.167590
11
93.035284
21
162.543978
0
LINE
8
boundary
62
5
39
2
10
93.035284
20
162.543978
11
92.881393
21
162.873225
0
LINE
8
boundary
62
5
39
2
10
92.881393
20
162.873225
11
91.801078
21
165.184531
0
LINE
8
boundary
62
5
39
2
10
91.801078
20
165.184531
11
91.626198
21
165.503126
0
LINE
8
boundary
62
5
39
2
10
91.626198
20
165.503126
11
90.398545
21
167.739656
0
LINE
8
boundary
62
5
39
2
10
90.398545
20
167.739656
11
90.203408
21
168.046263
0
LINE
8
boundary
62
5
39
2
10
90.203408
20
168.046263
11
88.833554
21
170.198639
0
LINE
8
boundary
62
5
39
2
10
88.833554
20
170.198639
11
88.618981
21
170.491972
0
LINE
8
boundary
62
5
39
2
10
88.618981
20
170.491972
11
87.112681
21
172.551163
0
LINE
8
boundary
62
5
39
2
10
87.112681
20
172.551163
11
86.879569
21
172.829992
0
LINE
8
boundary
62
5
39
2
10
86.879569
20
172.829992
11
85.243133
21
174.787361
0
LINE
8
boundary
62
5
39
2
10
85.243133
20
174.787361
11
84.992462
21
175.050515
0
LINE
8
boundary
62
5
39
2
10
84.992462
20
175.050515
11
83.232758
21
176.897851
0
LINE
8
boundary
62
5
39
2
10
83.232758
20
176.897851
11
82.965578
21
177.144228
0
LINE
8
boundary
62
5
39
2
10
82.965578
20
177.144228
11
81.089986
21
178.873787
0
LINE
8
boundary
62
5
39
2
10
81.089986
20
178.873787
11
80.807420
21
179.102353
0
LINE
8
boundary
62
5
39
2
10
80.807420
20
179.102353
11
78.823812
21
180.706876
0
LINE
8
boundary
62
5
39
2
10
78.823812
20
180.706876
11
78.527043
21
180.916671
0
LINE
8
boundary
62
5
39
2
10
78.527043
20
180.916671
11
76.443731
21
182.389431
0
LINE
8
boundary
62
5
39
2
10
76.443731
20
182.389431
11
76.134004
21
182.579577
0
LINE
8
boundary
62
5
39
2
10
76.134004
20
182.579577
11
73.959729
21
183.914399
0
LINE
8
boundary
62
5
39
2
10
73.959729
20
183.914399
11
73.638343
21
184.084097
0
LINE
8
boundary
62
5
39
2
10
73.638343
20
184.084097
11
71.382226
21
185.275377
0
LINE
8
boundary
62
5
39
2
10
71.382226
20
185.275377
11
71.050530
21
185.423917
0
LINE
8
boundary
62
5
39
2
10
71.050530
20
185.423917
11
68.722034
21
186.466659
0
LINE
8
boundary
62
5
39
2
10
68.722034
20
186.466659
11
68.381418
21
186.593417
0
LINE
8
boundary
62
5
39
2
10
68.381418
20
186.593417
11
65.990308
21
187.483252
0
LINE
8
boundary
62
5
39
2
10
65.990308
20
187.483252
11
65.642202
21
187.587696
0
LINE
8
boundary
62
5
39
2
10
65.642202
20
187.587696
11
63.198509
21
188.320888
0
LINE
8
boundary
62
5
39
2
10
63.198509
20
188.320888
11
62.844372
21
188.402580
0
LINE
8
boundary
62
5
39
2
10
62.844372
20
188.402580
11
60.358342
21
188.976054
0
LINE
8
boundary
62
5
39
2
10
60.358342
20
188.976054
11
59.999660
21
189.034650
0
LINE
8
boundary
62
5
39
2
10
59.999660
20
189.034650
11
57.481725
21
189.445998
0
LINE
8
boundary
62
5
39
2
10
57.481725
20
189.445998
11
57.120002
21
189.481255
0
LINE
8
boundary
62
5
39
2
10
57.120002
20
189.481255
11
54.580720
21
189.728760
0
LINE
8
boundary
62
5
39
2
10
54.580720
20
189.728760
11
54.217474
21
189.740529
0
LINE
8
boundary
62
5
39
2
10
54.217474
20
189.740529
11
51.667497
21
189.823143
0
LINE
8
boundary
62
5
39
2
10
51.667497
20
189.823143
11
51.304251
21
189.811375
0
LINE
8
boundary
62
5
39
2
10
51.304251
20
189.811375
11
48.754273
21
189.728760
0
LINE
8
boundary
62
5
39
2
10
48.754273
20
189.728760
11
48.392550
21
189.693503
0
LINE
8
boundary
62
5
39
2
10
48.392550
20
189.693503
11
45.853269
21
189.445998
0
LINE
8
boundary
62
5
39
2
10
45.853269
20
189.445998
11
45.494587
21
189.387401
0
LINE
8
boundary
62
5
39
2
10
45.494587
20
189.387401
11
42.976651
21
188.976053
0
LINE
8
boundary
62
5
39
2
10
42.976651
20
188.976053
11
42.622515
21
188.894362
0
LINE
8
boundary
62
5
39
2
10
42.622515
20
188.894362
11
40.136485
21
188.320888
0
LINE
8
boundary
62
5
39
2
10
40.136485
20
188.320888
11
39.788379
21
188.216444
0
LINE
8
boundary
62
5
39
2
10
39.788379
20
188.216444
11
37.344685
21
187.483252
0
LINE
8
boundary
62
5
39
2
10
37.344685
20
187.483252
11
37.004070
21
187.356494
0
LINE
8
boundary
62
5
39
2
10
37.004070
20
187.356494
11
34.612960
21
186.466659
0
LINE
8
boundary
62
5
39
2
10
34.612960
20
186.466659
11
34.281264
21
186.318120
0
LINE
8
boundary
62
5
39
2
10
34.281264
20
186.318120
11
31.952768
21
185.275377
0
LINE
8
boundary
62
5
39
2
10
31.952768
20
185.275377
11
31.631382
21
185.105678
0
LINE
8
boundary
62
5
39
2
10
31.631382
20
185.105678
11
29.375265
21
183.914398
0
LINE
8
boundary
62
5
39
2
10
29.375265
20
183.914398
11
29.065538
21
183.724252
0
LINE
8
boundary
62
5
39
2
10
29.065538
20
183.724252
11
26.891263
21
182.389431
0
LINE
8
boundary
62
5
39
2
10
26.891263
20
182.389431
11
26.594493
21
182.179635
0
LINE
8
boundary
62
5
39
2
10
26.594493
20
182.179635
11
24.511181
21
180.706876
0
LINE
8
boundary
62
5
39
2
10
24.511181
20
180.706876
11
24.228615
21
180.478310
0
LINE
8
boundary
62
5
39
2
10
24.228615
20
180.478310
11
22.245007
21
178.873787
0
LINE
8
boundary
62
5
39
2
10
22.245007
20
178.873787
11
21.977828
21
178.627410
0
LINE
8
boundary
62
5
39
2
10
21.977828
20
178.627410
11
20.102236
21
176.897851
0
LINE
8
boundary
62
5
39
2
10
20.102236
20
176.897851
11
19.851565
21
176.634697
0
LINE
8
boundary
62
5
39
2
10
19.851565
20
176.634697
11
18.091860
21
174.787361
0
LINE
8
boundary
62
5
39
2
10
18.091860
20
174.787361
11
17.858749
21
174.508532
0
LINE
8
boundary
62
5
39
2
10
17.858749
20
174.508532
11
16.222313
21
172.551163
0
LINE
8
boundary
62
5
39
2
10
16.222313
20
172.551163
11
16.007739
21
172.257830
0
LINE
8
boundary
62
5
39
2
10
16.007739
20
172.257830
11
14.501439
21
170.198639
0
LINE
8
boundary
62
5
39
2
10
14.501439
20
170.198639
11
14.306303
21
169.892031
0
LINE
8
boundary
62
5
39
2
10
14.306303
20
169.892031
11
12.936449
21
167.739656
0
LINE
8
boundary
62
5
39
2
10
12.936449
20
167.739656
11
12.761569
21
167.421061
0
LINE
8
boundary
62
5
39
2
10
12.761569
20
167.421061
11
11.533915
21
165.184531
0
LINE
8
boundary
62
5
39
2
10
11.533915
20
165.184531
11
11.380024
21
164.855284
0
LINE
8
boundary
62
5
39
2
10
11.380024
20
164.855284
11
10.299709
21
162.543978
0
LINE
8
boundary
62
5
39
2
10
10.299709
20
162.543978
11
10.167453
21
162.205460
0
LINE
8
boundary
62
5
39
2
10
10.167453
20
162.205460
11
9.239015
21
159.829071
0
LINE
8
boundary
62
5
39
2
10
9.239015
20
159.829071
11
9.128948
21
159.482702
0
LINE
8
boundary
62
5
39
2
10
9.128948
20
159.482702
11
8.356281
21
157.051202
0
LINE
8
boundary
62
5
39
2
10
8.356281
20
157.051202
11
8.268866
21
156.698435
0
LINE
8
boundary
62
5
39
2
10
8.268866
20
156.698435
11
7.655212
21
154.222019
0
LINE
8
boundary
62
5
39
2
10
7.655212
20
154.222019
11
7.590815
21
153.864333
0
LINE
8
boundary
62
5
39
2
10
7.590815
20
153.864333
11
7.138747
21
151.353387
0
LINE
8
boundary
62
5
39
2
10
7.138747
20
151.353387
11
7.097637
21
150.992283
0
LINE
8
boundary
62
5
39
2
10
7.097637
20
150.992283
11
6.809049
21
148.457342
0
LINE
8
boundary
62
5
39
2
10
6.809049
20
148.457342
11
6.791400
21
148.094334
0
LINE
8
boundary
62
5
39
2
10
6.791400
20
148.094334
11
6.667500
21
145.546029
0
LINE
8
boundary
62
5
39
2
10
6.667500
20
145.546029
11
6.673385
21
145.182640
0
LINE
8
boundary
62
5
39
2
10
6.673385
20
145.182640
11
6.714696
21
142.631659
0
LINE
8
boundary
62
5
39
2
10
6.714696
20
142.631659
11
6.744091
21
142.269412
0
LINE
8
boundary
62
5
39
2
10
6.744091
20
142.269412
11
6.950444
21
139.726456
0
LINE
8
boundary
62
5
39
2
10
6.950444
20
139.726456
11
7.003225
21
139.366872
0
LINE
8
boundary
62
5
39
2
10
7.003225
20
139.366872
11
7.373749
21
136.842605
0
LINE
8
boundary
62
5
39
2
10
7.373749
20
136.842605
11
7.449696
21
136.487192
0
LINE
8
boundary
62
5
39
2
10
7.449696
20
136.487192
11
7.982839
21
133.992204
0
LINE
8
boundary
62
5
39
2
10
7.982839
20
133.992204
11
8.081632
21
133.642452
0
LINE
8
boundary
62
5
39
2
10
8.081632
20
133.642452
11
8.775157
21
131.187206
0
LINE
8
boundary
62
5
39
2
10
8.775157
20
131.187206
11
8.896382
21
130.844582
0
LINE
8
boundary
62
5
39
2
10
8.896382
20
130.844582
11
9.747378
21
128.439376
0
LINE
8
boundary
62
5
39
2
10
9.747378
20
128.439376
11
9.890527
21
128.105319
0
LINE
8
boundary
62
5
39
2
10
9.890527
20
128.105319
11
10.895428
21
125.760242
0
LINE
8
boundary
62
5
39
2
10
10.895428
20
125.760242
11
11.059900
21
125.436150
0
LINE
8
boundary
62
5
39
2
10
11.059900
20
125.436150
11
12.214491
21
123.161038
0
LINE
8
boundary
62
5
39
2
10
12.214491
20
123.161038
11
12.399596
21
122.848272
0
LINE
8
boundary
62
5
39
2
10
12.399596
20
122.848272
11
13.699033
21
120.652670
0
LINE
8
boundary
62
5
39
2
10
13.699033
20
120.652670
11
13.903995
21
120.352542
0
LINE
8
boundary
62
5
39
2
10
13.903995
20
120.352542
11
15.342827
21
118.245654
0
LINE
8
boundary
62
5
39
2
10
15.342827
20
118.245654
11
15.566788
21
117.959423
0
LINE
8
boundary
62
5
39
2
10
15.566788
20
117.959423
11
17.138981
21
115.950094
0
LINE
8
boundary
62
5
39
2
10
17.138981
20
115.950094
11
17.380999
21
115.678960
0
LINE
8
boundary
62
5
39
2
10
17.380999
20
115.678960
11
19.079957
21
113.775608
0
LINE
8
boundary
62
5
39
2
10
19.079957
20
113.775608
11
19.339018
21
113.520708
0
LINE
8
boundary
62
5
39
2
10
19.339018
20
113.520708
11
21.157622
21
111.731320
0
LINE
8
boundary
62
5
39
2
10
21.157622
20
111.731320
11
21.432639
21
111.493724
0
LINE
8
boundary
62
5
39
2
10
21.432639
20
111.493724
11
23.363250
21
109.825807
0
LINE
8
boundary
62
5
39
2
10
23.363250
20
109.825807
11
23.653070
21
109.606511
0
LINE
8
boundary
62
5
39
2
10
23.653070
20
109.606511
11
25.687599
21
108.067063
0
LINE
8
boundary
62
5
39
2
10
25.687599
20
108.067063
11
25.991007
21
107.866987
0
LINE
8
boundary
62
5
39
2
10
25.991007
20
107.866987
11
28.120916
21
106.462461
0
LINE
8
boundary
62
5
39
2
10
28.120916
20
106.462461
11
28.436638
21
106.282444
0
LINE
8
boundary
62
5
39
2
10
28.436638
20
106.282444
11
30.652994
21
105.018730
0
LINE
8
boundary
62
5
39
2
10
30.652994
20
105.018730
11
30.979706
21
104.859527
0
LINE
8
boundary
62
5
39
2
10
30.979706
20
104.859527
11
33.273216
21
103.741930
0
LINE
8
boundary
62
5
39
2
10
33.273216
20
103.741930
11
33.609548
21
103.604210
0
LINE
8
boundary
62
5
39
2
10
33.609548
20
103.604210
11
35.970590
21
102.637416
0
LINE
8
boundary
62
5
39
2
10
35.970590
20
102.637416
11
36.315131
21
102.521755
0
LINE
8
boundary
62
5
39
2
10
36.315131
20
102.521755
11
38.733802
21
101.709814
0
LINE
8
boundary
62
5
39
2
10
38.733802
20
101.709814
11
39.085108
21
101.616698
0
LINE
8
boundary
62
5
39
2
10
39.085108
20
101.616698
11
41.551262
21
100.963024
0
LINE
8
boundary
62
5
39
2
10
41.551262
20
100.963024
11
41.907859
21
100.892843
0
LINE
8
boundary
62
5
39
2
10
41.907859
20
100.892843
11
44.411155
21
100.400171
0
LINE
8
boundary
62
5
39
2
10
44.411155
20
100.400171
11
44.771546
21
100.353219
0
LINE
8
boundary
62
5
39
2
10
44.771546
20
100.353219
11
47.301481
21
100.023622
0
LINE
8
boundary
62
5
39
2
10
47.301481
20
100.023622
11
47.664156
21
100.000096
0
LINE
8
boundary
62
5
39
2
10
47.664156
20
100.000096
11
50.210121
21
99.834947
0
LINE
8
boundary
62
5
39
2
10
50.210121
20
99.834947
11
50.573557
21
99.834947
0
LINE
8
boundary
62
5
39
2
10
50.573557
20
99.834947
11
53.124873
21
99.834947
0
LINE
8
boundary
62
5
39
2
10
53.124873
20
99.834947
11
53.487548
21
99.858472
0
LINE
8
boundary
62
5
39
2
10
53.487548
20
99.858472
11
56.033512
21
100.023622
0
LINE
8
boundary
62
5
39
2
10
56.033512
20
100.023622
11
56.393904
21
100.070574
0
LINE
8
boundary
62
5
39
2
10
56.393904
20
100.070574
11
58.923839
21
100.400171
0
LINE
8
boundary
62
5
39
2
10
58.923839
20
100.400171
11
59.280436
21
100.470352
0
LINE
8
boundary
62
5
39
2
10
59.280436
20
100.470352
11
61.783731
21
100.963024
0
LINE
8
boundary
62
5
39
2
10
61.783731
20
100.963024
11
62.135037
21
101.056140
0
LINE
8
boundary
62
5
39
2
10
62.135037
20
101.056140
11
64.601191
21
101.709814
0
LINE
8
boundary
62
5
39
2
10
64.601191
20
101.709814
11
64.945733
21
101.825476
0
LINE
8
boundary
62
5
39
2
10
64.945733
20
101.825476
11
67.364404
21
102.637416
0
LINE
8
boundary
62
5
39
2
10
67.364404
20
102.637416
11
67.700736
21
102.775137
0
LINE
8
boundary
62
5
39
2
10
67.700736
20
102.775137
11
70.061777
21
103.741930
0
LINE
8
boundary
62
5
39
2
10
70.061777
20
103.741930
11
70.388490
21
103.901133
0
LINE
8
boundary
62
5
39
2
10
70.388490
20
103.901133
11
72.682000
21
105.018730
0
LINE
8
boundary
62
5
39
2
10
72.682000
20
105.018730
11
72.997721
21
105.198747
0
LINE
8
boundary
62
5
39
2
10
72.997721
20
105.198747
11
75.214078
21
106.462461
0
LINE
8
boundary
62
5
39
2
10
75.214078
20
106.462461
11
75.517485
21
106.662537
0
LINE
8
boundary
62
5
39
2
10
75.517485
20
106.662537
11
77.647394
21
108.067063
0
LINE
8
boundary
62
5
39
2
10
77.647394
20
108.067063
11
77.937214
21
108.286358
0
LINE
8
boundary
62
5
39
2
10
77.937214
20
108.286358
11
79.971744
21
109.825807
0
LINE
8
boundary
62
5
39
2
10
79.971744
20
109.825807
11
80.246761
21
110.063403
0
LINE
8
annotation
62
1
39
211
10
84.853308
20
144.817245
11
84.853308
21
146.245995
0
LINE
8
annotation
62
1
39
211
10
84.853308
20
144.817245
11
84.853308
21
146.245995
0
LINE
8
annotation
62
1
39
211
10
84.853308
20
146.245995
11
84.853308
21
144.817245
0
LINE
8
annotation
62
1
39
211
10
84.853308
20
144.817245
11
86.282058
21
144.817245
0
LINE
8
annotation
62
1
39
211
10
18.481686
20
144.817245
11
18.481686
21
143.388495
0
LINE
8
annotation
62
1
39
211
10
51.667497
20
180.824324
11
51.667497
21
182.253074
0
LINE
8
annotation
62
1
39
211
10
51.667497
20
180.824324
11
51.667497
21
182.253074
0
LINE
8
annotation
62
1
39
211
10
51.667497
20
182.253074
11
51.667497
21
180.824324
0
LINE
8
annotation
62
1
39
211
10
51.667497
20
180.824324
11
51.667497
21
179.395574
0
LINE
8
annotation
62
1
39
211
10
51.667497
20
108.833766
11
53.096247
21
108.833766
0
LINE
8
annotation
62
1
39
211
10
51.667497
20
108.833766
11
53.096247
21
108.833766
0
LINE
8
annotation
62
1
39
211
10
53.096247
20
108.833766
11
51.667497
21
108.833766
0
LINE
8
annotation
62
1
39
211
10
51.667497
20
108.833766
11
51.667497
21
107.405016
0
LINE
8
annotation
62
1
39
211
10
42.431607
20
125.600874
11
42.431607
21
161.244435
0
LINE
8
annotation
62
1
39
211
10
42.431607
20
161.244435
11
34.507587
21
153.318180
0
LINE
8
annotation
62
1
39
211
10
71.629674
20
125.600584
11
55.799516
21
125.600584
0
LINE
8
annotation
62
1
39
211
10
55.799516
20
125.600584
11
70.427100
21
149.149118
0
LINE
8
annotation
62
1
39
211
10
70.427100
20
149.149118
11
70.427100
21
149.149118
0
LINE
8
annotation
62
1
39
211
10
70.427100
20
149.149118
11
70.444587
21
149.170756
0
LINE
8
annotation
62
1
39
211
10
70.444587
20
149.170756
11
70.461356
21
149.192578
0
LINE
8
annotation
62
1
39
211
10
70.461356
20
149.192578
11
70.477518
21
149.214768
0
LINE
8
annotation
62
1
39
211
10
70.477518
20
149.214768
11
70.493183
21
149.237510
0
LINE
8
annotation
62
1
39
211
10
70.493183
20
149.237510
11
70.508462
21
149.260988
0
LINE
8
annotation
62
1
39
211
10
70.508462
20
149.260988
11
70.523465
21
149.285386
0
LINE
8
annotation
62
1
39
211
10
70.523465
20
149.285386
11
70.538302
21
149.310888
0
LINE
8
annotation
62
1
39
211
10
70.538302
20
149.310888
11
70.553085
21
149.337677
0
LINE
8
annotation
62
1
39
211
10
70.553085
20
149.337677
11
70.567922
21
149.365939
0
LINE
8
annotation
62
1
39
211
10
70.567922
20
149.365939
11
70.567922
21
149.365939
0
LINE
8
annotation
62
1
39
211
10
70.567922
20
149.365939
11
71.171892
21
150.662712
0
LINE
8
annotation
62
1
39
211
10
71.171892
20
150.662712
11
71.524720
21
152.006932
0
LINE
8
annotation
62
1
39
211
10
71.524720
20
152.006932
11
71.635055
21
153.368225
0
LINE
8
annotation
62
1
39
211
10
71.635055
20
153.368225
11
71.511542
21
154.716216
0
LINE
8
annotation
62
1
39
211
10
71.511542
20
154.716216
11
71.162828
21
156.020533
0
LINE
8
annotation
62
1
39
211
10
71.162828
20
156.020533
11
70.597560
21
157.250800
0
LINE
8
annotation
62
1
39
211
10
70.597560
20
157.250800
11
69.824385
21
158.376645
0
LINE
8
annotation
62
1
39
211
10
69.824385
20
158.376645
11
68.851949
21
159.367693
0
LINE
8
annotation
62
1
39
211
10
68.851949
20
159.367693
11
67.688899
21
160.193570
0
LINE
8
annotation
62
1
39
211
10
67.688899
20
160.193570
11
67.688899
21
160.193570
0
LINE
8
annotation
62
1
39
211
10
67.688899
20
160.193570
11
66.388519
21
160.788957
0
LINE
8
annotation
62
1
39
211
10
66.388519
20
160.788957
11
65.042239
21
161.136350
0
LINE
8
annotation
62
1
39
211
10
65.042239
20
161.136350
11
63.680155
21
161.243566
0
LINE
8
annotation
62
1
39
211
10
63.680155
20
161.243566
11
62.332366
21
161.118425
0
LINE
8
annotation
62
1
39
211
10
62.332366
20
161.118425
11
61.028969
21
160.768745
0
LINE
8
annotation
62
1
39
211
10
61.028969
20
160.768745
11
59.800063
21
160.202346
0
LINE
8
annotation
62
1
39
211
10
59.800063
20
160.202346
11
58.675746
21
159.427045
0
LINE
8
annotation
62
1
39
211
10
58.675746
20
159.427045
11
57.686114
21
158.450663
0
LINE
8
annotation
62
1
39
211
10
57.686114
20
158.450663
11
56.861267
21
157.281018
0
LINE
8
annotation
62
1
39
211
10
56.861267
20
157.281018
11
55.821868
21
155.287160
0
LINE
8
hole
62
5
39
2
10
141.039008
20
177.041940
11
141.610508
21
177.041940
0
LINE
8
hole
62
5
39
2
10
141.610508
20
177.041940
11
141.610508
21
177.613440
0
LINE
8
hole
62
5
39
2
10
141.610508
20
177.613440
11
141.039008
21
177.613440
0
LINE
8
hole
62
5
39
2
10
141.039008
20
177.613440
11
141.039008
21
177.041940
0
LINE
8
hole
62
5
39
2
10
141.039008
20
105.047983
11
141.610508
21
105.047983
0
LINE
8
hole
62
5
39
2
10
141.610508
20
105.047983
11
141.610508
21
105.619483
0
LINE
8
hole
62
5
39
2
10
141.610508
20
105.619483
11
141.039008
21
105.619483
0
LINE
8
hole
62
5
39
2
10
141.039008
20
105.619483
11
141.039008
21
105.047983
0
LINE
8
hole
62
5
39
2
10
174.224819
20
141.054636
11
174.796319
21
141.054636
0
LINE
8
hole
62
5
39
2
10
174.796319
20
141.054636
11
174.796319
21
141.626136
0
LINE
8
hole
62
5
39
2
10
174.796319
20
141.626136
11
174.224819
21
141.626136
0
LINE
8
hole
62
5
39
2
10
174.224819
20
141.626136
11
174.224819
21
141.054636
0
LINE
8
hole
62
5
39
2
10
107.853196
20
141.054636
11
108.424696
21
141.054636
0
LINE
8
hole
62
5
39
2
10
108.424696
20
141.054636
11
108.424696
21
141.626136
0
LINE
8
hole
62
5
39
2
10
108.424696
20
141.626136
11
107.853196
21
141.626136
0
LINE
8
hole
62
5
39
2
10
107.853196
20
141.626136
11
107.853196
21
141.054636
0
LINE
8
boundary
62
5
39
2
10
176.309374
20
119.007041
11
177.370252
21
120.798156
0
LINE
8
boundary
62
5
39
2
10
177.370252
20
120.798156
11
177.722951
21
121.393629
0
LINE
8
boundary
62
5
39
2
10
177.722951
20
121.393629
11
178.661826
21
123.251602
0
LINE
8
boundary
62
5
39
2
10
178.661826
20
123.251602
11
178.973964
21
123.869303
0
LINE
8
boundary
62
5
39
2
10
178.973964
20
123.869303
11
179.786645
21
125.785838
0
LINE
8
boundary
62
5
39
2
10
179.786645
20
125.785838
11
180.056829
21
126.423008
0
LINE
8
boundary
62
5
39
2
10
180.056829
20
126.423008
11
180.739684
21
128.389544
0
LINE
8
boundary
62
5
39
2
10
180.739684
20
128.389544
11
180.966706
21
129.043338
0
LINE
8
boundary
62
5
39
2
10
180.966706
20
129.043338
11
181.516687
21
131.051092
0
LINE
8
boundary
62
5
39
2
10
181.516687
20
131.051092
11
181.699534
21
131.718589
0
LINE
8
boundary
62
5
39
2
10
181.699534
20
131.718589
11
182.114186
21
133.758594
0
LINE
8
boundary
62
5
39
2
10
182.114186
20
133.758594
11
182.252041
21
134.436813
0
LINE
8
boundary
62
5
39
2
10
182.252041
20
134.436813
11
182.529504
21
136.499958
0
LINE
8
boundary
62
5
39
2
10
182.529504
20
136.499958
11
182.621749
21
137.185870
0
LINE
8
boundary
62
5
39
2
10
182.621749
20
137.185870
11
182.760794
21
139.262941
0
LINE
8
boundary
62
5
39
2
10
182.760794
20
139.262941
11
182.807021
21
139.953483
0
LINE
8
boundary
62
5
39
2
10
182.807021
20
139.953483
11
182.807021
21
142.035201
0
LINE
8
boundary
62
5
39
2
10
182.807021
20
142.035201
11
182.807021
21
142.727289
0
LINE
8
boundary
62
5
39
2
10
182.807021
20
142.727289
11
182.667976
21
144.804359
0
LINE
8
boundary
62
5
39
2
10
182.667976
20
144.804359
11
182.621749
21
145.494902
0
LINE
8
boundary
62
5
39
2
10
182.621749
20
145.494902
11
182.344286
21
147.558046
0
LINE
8
boundary
62
5
39
2
10
182.344286
20
147.558046
11
182.252041
21
148.243959
0
LINE
8
boundary
62
5
39
2
10
182.252041
20
148.243959
11
181.837389
21
150.283964
0
LINE
8
boundary
62
5
39
2
10
181.837389
20
150.283964
11
181.699534
21
150.962183
0
LINE
8
boundary
62
5
39
2
10
181.699534
20
150.962183
11
181.149552
21
152.969937
0
LINE
8
boundary
62
5
39
2
10
181.149552
20
152.969937
11
180.966705
21
153.637434
0
LINE
8
boundary
62
5
39
2
10
180.966705
20
153.637434
11
180.283851
21
155.603970
0
LINE
8
boundary
62
5
39
2
10
180.283851
20
155.603970
11
180.056829
21
156.257764
0
LINE
8
boundary
62
5
39
2
10
180.056829
20
156.257764
11
179.244148
21
158.174298
0
LINE
8
boundary
62
5
39
2
10
179.244148
20
158.174298
11
178.973964
21
158.811469
0
LINE
8
boundary
62
5
39
2
10
178.973964
20
158.811469
11
178.035089
21
160.669442
0
LINE
8
boundary
62
5
39
2
10
178.035089
20
160.669442
11
177.722951
21
161.287143
0
LINE
8
boundary
62
5
39
2
10
177.722951
20
161.287143
11
176.662073
21
163.078257
0
LINE
8
boundary
62
5
39
2
10
176.662073
20
163.078257
11
176.309374
21
163.673731
0
LINE
8
boundary
62
5
39
2
10
176.309374
20
163.673731
11
175.131230
21
165.389987
0
LINE
8
boundary
62
5
39
2
10
175.131230
20
165.389987
11
174.739545
21
165.960574
0
LINE
8
boundary
62
5
39
2
10
174.739545
20
165.960574
11
173.449400
21
167.594305
0
LINE
8
boundary
62
5
39
2
10
173.449400
20
167.594305
11
173.020479
21
168.137454
0
LINE
8
boundary
62
5
39
2
10
173.020479
20
168.137454
11
171.624092
21
169.681366
0
LINE
8
boundary
62
5
39
2
10
171.624092
20
169.681366
11
171.159849
21
170.194654
0
LINE
8
boundary
62
5
39
2
10
171.159849
20
170.194654
11
169.663461
21
171.641848
0
LINE
8
boundary
62
5
39
2
10
169.663461
20
171.641848
11
169.165972
21
172.122982
0
LINE
8
boundary
62
5
39
2
10
169.165972
20
172.122982
11
167.576263
21
173.466999
0
LINE
8
boundary
62
5
39
2
10
167.576263
20
173.466999
11
167.047748
21
173.913831
0
LINE
8
boundary
62
5
39
2
10
167.047748
20
173.913831
11
165.371821
21
175.148662
0
LINE
8
boundary
62
5
39
2
10
165.371821
20
175.148662
11
164.814642
21
175.559194
0
LINE
8
boundary
62
5
39
2
10
164.814642
20
175.559194
11
163.059976
21
176.679332
0
LINE
8
boundary
62
5
39
2
10
163.059976
20
176.679332
11
162.476620
21
177.051733
0
LINE
8
boundary
62
5
39
2
10
162.476620
20
177.051733
11
160.651058
21
178.052171
0
LINE
8
boundary
62
5
39
2
10
160.651058
20
178.052171
11
160.044132
21
178.384776
0
LINE
8
boundary
62
5
39
2
10
160.044132
20
178.384776
11
158.155823
21
179.261041
0
LINE
8
boundary
62
5
39
2
10
158.155823
20
179.261041
11
157.528037
21
179.552364
0
LINE
8
boundary
62
5
39
2
10
157.528037
20
179.552364
11
155.585416
21
180.300552
0
LINE
8
boundary
62
5
39
2
10
155.585416
20
180.300552
11
154.939573
21
180.549294
0
LINE
8
boundary
62
5
39
2
10
154.939573
20
180.549294
11
152.951318
21
181.166055
0
LINE
8
boundary
62
5
39
2
10
152.951318
20
181.166055
11
152.290304
21
181.371103
0
LINE
8
boundary
62
5
39
2
10
152.290304
20
181.371103
11
150.265293
21
181.853689
0
LINE
8
boundary
62
5
39
2
10
150.265293
20
181.853689
11
149.592059
21
182.014130
0
LINE
8
boundary
62
5
39
2
10
149.592059
20
182.014130
11
147.539339
21
182.360379
0
LINE
8
boundary
62
5
39
2
10
147.539339
20
182.360379
11
146.856892
21
182.475493
0
LINE
8
boundary
62
5
39
2
10
146.856892
20
182.475493
11
144.785627
21
182.683863
0
LINE
8
boundary
62
5
39
2
10
144.785627
20
182.683863
11
144.097015
21
182.753138
0
LINE
8
boundary
62
5
39
2
10
144.097015
20
182.753138
11
143.405314
21
182.776264
0
LINE
8
boundary
62
5
39
2
10
143.405314
20
182.776264
11
141.324758
21
182.845826
0
LINE
8
boundary
62
5
39
2
10
141.324758
20
182.845826
11
140.633056
21
182.822699
0
LINE
8
boundary
62
5
39
2
10
140.633056
20
182.822699
11
138.552500
21
182.753138
0
LINE
8
boundary
62
5
39
2
10
138.552500
20
182.753138
11
136.481236
21
182.544768
0
LINE
8
boundary
62
5
39
2
10
136.481236
20
182.544768
11
135.792623
21
182.475493
0
LINE
8
boundary
62
5
39
2
10
135.792623
20
182.475493
11
133.739903
21
182.129244
0
LINE
8
boundary
62
5
39
2
10
133.739903
20
182.129244
11
133.057456
21
182.014130
0
LINE
8
boundary
62
5
39
2
10
133.057456
20
182.014130
11
131.032446
21
181.531544
0
LINE
8
boundary
62
5
39
2
10
131.032446
20
181.531544
11
130.359211
21
181.371103
0
LINE
8
boundary
62
5
39
2
10
130.359211
20
181.371103
11
128.370957
21
180.754342
0
LINE
8
boundary
62
5
39
2
10
128.370957
20
180.754342
11
127.709942
21
180.549294
0
LINE
8
boundary
62
5
39
2
10
127.709942
20
180.549294
11
125.767322
21
179.801107
0
LINE
8
boundary
62
5
39
2
10
125.767322
20
179.801107
11
125.121478
21
179.552364
0
LINE
8
boundary
62
5
39
2
10
125.121478
20
179.552364
11
123.233170
21
178.676099
0
LINE
8
boundary
62
5
39
2
10
123.233170
20
178.676099
11
122.605383
21
178.384776
0
LINE
8
boundary
62
5
39
2
10
122.605383
20
178.384776
11
120.779821
21
177.384338
0
LINE
8
boundary
62
5
39
2
10
120.779821
20
177.384338
11
120.172895
21
177.051733
0
LINE
8
boundary
62
5
39
2
10
120.172895
20
177.051733
11
118.418229
21
175.931595
0
LINE
8
boundary
62
5
39
2
10
118.418229
20
175.931595
11
117.834873
21
175.559194
0
LINE
8
boundary
62
5
39
2
10
117.834873
20
175.559194
11
116.158945
21
174.324363
0
LINE
8
boundary
62
5
39
2
10
116.158945
20
174.324363
11
115.601767
21
173.913831
0
LINE
8
boundary
62
5
39
2
10
115.601767
20
173.913831
11
114.012057
21
172.569814
0
LINE
8
boundary
62
5
39
2
10
114.012057
20
172.569814
11
113.483543
21
172.122982
0
LINE
8
boundary
62
5
39
2
10
113.483543
20
172.122982
11
111.987155
21
170.675788
0
LINE
8
boundary
62
5
39
2
10
111.987155
20
170.675788
11
111.489666
21
170.194654
0
LINE
8
boundary
62
5
39
2
10
111.489666
20
170.194654
11
110.093279
21
168.650743
0
LINE
8
boundary
62
5
39
2
10
110.093279
20
168.650743
11
109.629036
21
168.137454
0
LINE
8
boundary
62
5
39
2
10
109.629036
20
168.137454
11
108.338891
21
166.503723
0
LINE
8
boundary
62
5
39
2
10
108.338891
20
166.503723
11
107.909970
21
165.960574
0
LINE
8
boundary
62
5
39
2
10
107.909970
20
165.960574
11
106.731826
21
164.244317
0
LINE
8
boundary
62
5
39
2
10
106.731826
20
164.244317
11
106.340141
21
163.673731
0
LINE
8
boundary
62
5
39
2
10
106.340141
20
163.673731
11
105.279263
21
161.882616
0
LINE
8
boundary
62
5
39
2
10
105.279263
20
161.882616
11
104.926564
21
161.287143
0
LINE
8
boundary
62
5
39
2
10
104.926564
20
161.287143
11
103.987689
21
159.429170
0
LINE
8
boundary
62
5
39
2
10
103.987689
20
159.429170
11
103.675551
21
158.811469
0
LINE
8
boundary
62
5
39
2
10
103.675551
20
158.811469
11
102.862870
21
156.894934
0
LINE
8
boundary
62
5
39
2
10
102.862870
20
156.894934
11
102.592686
21
156.257764
0
LINE
8
boundary
62
5
39
2
10
102.592686
20
156.257764
11
101.909831
21
154.291228
0
LINE
8
boundary
62
5
39
2
10
101.909831
20
154.291228
11
101.682809
21
153.637434
0
LINE
8
boundary
62
5
39
2
10
101.682809
20
153.637434
11
101.132828
21
151.629681
0
LINE
8
boundary
62
5
39
2
10
101.132828
20
151.629681
11
100.949981
21
150.962183
0
LINE
8
boundary
62
5
39
2
10
100.949981
20
150.962183
11
100.535329
21
148.922178
0
LINE
8
boundary
62
5
39
2
10
100.535329
20
148.922178
11
100.397474
21
148.243959
0
LINE
8
boundary
62
5
39
2
10
100.397474
20
148.243959
11
100.120011
21
146.180814
0
LINE
8
boundary
62
5
39
2
10
100.120011
20
146.180814
11
100.027766
21
145.494902
0
LINE
8
boundary
62
5
39
2
10
100.027766
20
145.494902
11
99.888721
21
143.417832
0
LINE
8
boundary
62
5
39
2
10
99.888721
20
143.417832
11
99.842494
21
142.727289
0
LINE
8
boundary
62
5
39
2
10
99.842494
20
142.727289
11
99.842494
21
140.645571
0
LINE
8
boundary
62
5
39
2
10
99.842494
20
140.645571
11
99.842494
21
139.953483
0
LINE
8
boundary
62
5
39
2
10
99.842494
20
139.953483
11
99.981539
21
137.876413
0
LINE
8
boundary
62
5
39
2
10
99.981539
20
137.876413
11
100.027766
21
137.185870
0
LINE
8
boundary
62
5
39
2
10
100.027766
20
137.185870
11
100.305229
21
135.122726
0
LINE
8
boundary
62
5
39
2
10
100.305229
20
135.122726
11
100.397474
21
134.436813
0
LINE
8
boundary
62
5
39
2
10
100.397474
20
134.436813
11
100.812126
21
132.396808
0
LINE
8
boundary
62
5
39
2
10
100.812126
20
132.396808
11
100.949981
21
131.718589
0
LINE
8
boundary
62
5
39
2
10
100.949981
20
131.718589
11
101.499963
21
129.710835
0
LINE
8
boundary
62
5
39
2
10
101.499963
20
129.710835
11
101.682809
21
129.043338
0
LINE
8
boundary
62
5
39
2
10
101.682809
20
129.043338
11
102.365664
21
127.076802
0
LINE
8
boundary
62
5
39
2
10
102.365664
20
127.076802
11
102.592686
21
126.423008
0
LINE
8
boundary
62
5
39
2
10
102.592686
20
126.423008
11
103.405367
21
124.506474
0
LINE
8
boundary
62
5
39
2
10
103.405367
20
124.506474
11
103.675551
21
123.869303
0
LINE
8
boundary
62
5
39
2
10
103.675551
20
123.869303
11
104.614426
21
122.011331
0
LINE
8
boundary
62
5
39
2
10
104.614426
20
122.011331
11
104.926564
21
121.393629
0
LINE
8
boundary
62
5
39
2
10
104.926564
20
121.393629
11
105.987442
21
119.602515
0
LINE
8
boundary
62
5
39
2
10
105.987442
20
119.602515
11
106.340141
21
119.007041
0
LINE
8
boundary
62
5
39
2
10
106.340141
20
119.007041
11
107.518284
21
117.290785
0
LINE
8
boundary
62
5
39
2
10
107.518284
20
117.290785
11
107.909970
21
116.720199
0
LINE
8
boundary
62
5
39
2
10
107.909970
20
116.720199
11
109.200115
21
115.086468
0
LINE
8
boundary
62
5
39
2
10
109.200115
20
115.086468
11
109.629036
21
114.543318
0
LINE
8
boundary
62
5
39
2
10
109.629036
20
114.543318
11
111.025423
21
112.999407
0
LINE
8
boundary
62
5
39
2
10
111.025423
20
112.999407
11
111.489666
21
112.486118
0
LINE
8
boundary
62
5
39
2
10
111.489666
20
112.486118
11
112.986054
21
111.038924
0
LINE
8
boundary
62
5
39
2
10
112.986054
20
111.038924
11
113.483543
21
110.557790
0
LINE
8
boundary
62
5
39
2
10
113.483543
20
110.557790
11
115.073252
21
109.213773
0
LINE
8
boundary
62
5
39
2
10
115.073252
20
109.213773
11
115.601767
21
108.766941
0
LINE
8
boundary
62
5
39
2
10
115.601767
20
108.766941
11
117.277694
21
107.532110
0
LINE
8
boundary
62
5
39
2
10
117.277694
20
107.532110
11
117.834873
21
107.121578
0
LINE
8
boundary
62
5
39
2
10
117.834873
20
107.121578
11
119.589539
21
106.001440
0
LINE
8
boundary
62
5
39
2
10
119.589539
20
106.001440
11
120.172895
21
105.629039
0
LINE
8
boundary
62
5
39
2
10
120.172895
20
105.629039
11
121.998457
21
104.628602
0
LINE
8
boundary
62
5
39
2
10
121.998457
20
104.628602
11
122.605383
21
104.295996
0
LINE
8
boundary
62
5
39
2
10
122.605383
20
104.295996
11
124.493692
21
103.419731
0
LINE
8
boundary
62
5
39
2
10
124.493692
20
103.419731
11
125.121478
21
103.128408
0
LINE
8
boundary
62
5
39
2
10
125.121478
20
103.128408
11
127.064099
21
102.380221
0
LINE
8
boundary
62
5
39
2
10
127.064099
20
102.380221
11
127.709942
21
102.131478
0
LINE
8
boundary
62
5
39
2
10
127.709942
20
102.131478
11
129.698197
21
101.514717
0
LINE
8
boundary
62
5
39
2
10
129.698197
20
101.514717
11
130.359211
21
101.309669
0
LINE
8
boundary
62
5
39
2
10
130.359211
20
101.309669
11
132.384222
21
100.827083
0
LINE
8
boundary
62
5
39
2
10
132.384222
20
100.827083
11
133.057456
21
100.666642
0
LINE
8
boundary
62
5
39
2
10
133.057456
20
100.666642
11
135.110176
21
100.320393
0
LINE
8
boundary
62
5
39
2
10
135.110176
20
100.320393
11
135.792623
21
100.205279
0
LINE
8
boundary
62
5
39
2
10
135.792623
20
100.205279
11
137.863888
21
99.996909
0
LINE
8
boundary
62
5
39
2
10
137.863888
20
99.996909
11
138.552500
21
99.927634
0
LINE
8
boundary
62
5
39
2
10
138.552500
20
99.927634
11
140.633056
21
99.858073
0
LINE
8
boundary
62
5
39
2
10
140.633056
20
99.858073
11
141.324758
21
99.834947
0
LINE
8
boundary
62
5
39
2
10
141.324758
20
99.834947
11
143.405314
21
99.904508
0
LINE
8
boundary
62
5
39
2
10
143.405314
20
99.904508
11
144.097015
21
99.927634
0
LINE
8
boundary
62
5
39
2
10
144.097015
20
99.927634
11
146.168279
21
100.136004
0
LINE
8
boundary
62
5
39
2
10
146.168279
20
100.136004
11
146.856892
21
100.205279
0
LINE
8
boundary
62
5
39
2
10
146.856892
20
100.205279
11
148.909612
21
100.551528
0
LINE
8
boundary
62
5
39
2
10
148.909612
20
100.551528
11
149.592059
21
100.666642
0
LINE
8
boundary
62
5
39
2
10
149.592059
20
100.666642
11
151.617069
21
101.149228
0
LINE
8
boundary
62
5
39
2
10
151.617069
20
101.149228
11
152.290304
21
101.309669
0
LINE
8
boundary
62
5
39
2
10
152.290304
20
101.309669
11
154.278558
21
101.926430
0
LINE
8
boundary
62
5
39
2
10
154.278558
20
101.926430
11
154.939573
21
102.131479
0
LINE
8
boundary
62
5
39
2
10
154.939573
20
102.131479
11
156.882193
21
102.879666
0
LINE
8
boundary
62
5
39
2
10
156.882193
20
102.879666
11
157.528037
21
103.128408
0
LINE
8
boundary
62
5
39
2
10
157.528037
20
103.128408
11
159.416345
21
104.004673
0
LINE
8
boundary
62
5
39
2
10
159.416345
20
104.004673
11
160.044132
21
104.295996
0
LINE
8
boundary
62
5
39
2
10
160.044132
20
104.295996
11
161.869694
21
105.296434
0
LINE
8
boundary
62
5
39
2
10
161.869694
20
105.296434
11
162.476620
21
105.629039
0
LINE
8
boundary
62
5
39
2
10
162.476620
20
105.629039
11
164.231286
21
106.749177
0
LINE
8
boundary
62
5
39
2
10
164.231286
20
106.749177
11
164.814642
21
107.121578
0
LINE
8
boundary
62
5
39
2
10
164.814642
20
107.121578
11
166.490570
21
108.356410
0
LINE
8
boundary
62
5
39
2
10
166.490570
20
108.356410
11
167.047748
21
108.766941
0
LINE
8
boundary
62
5
39
2
10
167.047748
20
108.766941
11
168.637458
21
110.110959
0
LINE
8
boundary
62
5
39
2
10
168.637458
20
110.110959
11
169.165972
21
110.557790
0
LINE
8
boundary
62
5
39
2
10
169.165972
20
110.557790
11
170.662360
21
112.004985
0
LINE
8
boundary
62
5
39
2
10
170.662360
20
112.004985
11
171.159849
21
112.486118
0
LINE
8
boundary
62
5
39
2
10
171.159849
20
112.486118
11
172.556236
21
114.030029
0
LINE
8
boundary
62
5
39
2
10
172.556236
20
114.030029
11
173.020479
21
114.543318
0
LINE
8
boundary
62
5
39
2
10
173.020479
20
114.543318
11
174.310624
21
116.177049
0
LINE
8
boundary
62
5
39
2
10
174.310624
20
116.177049
11
174.739545
21
116.720199
0
LINE
8
boundary
62
5
39
2
10
174.739545
20
116.720199
11
175.917689
21
118.436455
0
LINE
8
boundary
62
5
39
2
10
175.917689
20
118.436455
11
176.309374
21
119.007041
0
LINE
8
annotation
62
1
39
211
10
141.324758
20
177.327690
11
141.324758
21
178.756440
0
LINE
8
annotation
62
1
39
211
10
141.324758
20
105.333733
11
142.753507
21
105.333733
0
LINE
8
annotation
62
1
39
211
10
174.510569
20
141.340386
11
174.510569
21
142.769136
0
LINE
8
annotation
62
1
39
211
10
174.510569
20
141.340386
11
174.510569
21
142.769136
0
LINE
8
annotation
62
1
39
211
10
174.510569
20
142.769136
11
174.510569
21
141.340386
0
LINE
8
annotation
62
1
39
211
10
174.510569
20
141.340386
11
175.939319
21
141.340386
0
LINE
8
annotation
62
1
39
211
10
108.138946
20
141.340386
11
108.138946
21
139.911636
0
LINE
8
annotation
62
1
39
211
10
135.894005
20
122.111069
11
135.894005
21
157.975354
0
LINE
8
annotation
62
1
39
211
10
135.894005
20
157.975354
11
127.920915
21
150.000015
0
LINE
8
annotation
62
1
39
211
10
157.316202
20
122.111069
11
157.316202
21
157.975354
0
LINE
8
annotation
62
1
39
211
10
157.316202
20
157.975354
11
149.343112
21
150.000015
0
LINE
8
hole
62
5
39
2
10
120.069691
20
262.864321
11
120.641191
21
262.864321
0
LINE
8
hole
62
5
39
2
10
120.641191
20
262.864321
11
120.641191
21
263.435821
0
LINE
8
hole
62
5
39
2
10
120.641191
20
263.435821
11
120.069691
21
263.435821
0
LINE
8
hole
62
5
39
2
10
120.069691
20
263.435821
11
120.069691
21
262.864321
0
LINE
8
hole
62
5
39
2
10
108.396331
20
228.968129
11
108.967831
21
228.968129
0
LINE
8
hole
62
5
39
2
10
108.967831
20
228.968129
11
108.967831
21
229.539629
0
LINE
8
hole
62
5
39
2
10
108.967831
20
229.539629
11
108.396331
21
229.539629
0
LINE
8
hole
62
5
39
2
10
108.396331
20
229.539629
11
108.396331
21
228.968129
0
LINE
8
hole
62
5
39
2
10
102.706736
20
228.667006
11
103.278236
21
228.667006
0
LINE
8
hole
62
5
39
2
10
103.278236
20
228.667006
11
103.278236
21
229.238506
0
LINE
8
hole
62
5
39
2
10
103.278236
20
229.238506
11
102.706736
21
229.238506
0
LINE
8
hole
62
5
39
2
10
102.706736
20
229.238506
11
102.706736
21
228.667006
0
LINE
8
hole
62
5
39
2
10
119.593441
20
194.945941
11
120.164941
21
194.945941
0
LINE
8
hole
62
5
39
2
10
120.164941
20
194.945941
11
120.164941
21
195.517441
0
LINE
8
hole
62
5
39
2
10
120.164941
20
195.517441
11
119.593441
21
195.517441
0
LINE
8
hole
62
5
39
2
10
119.593441
20
195.517441
11
119.593441
21
194.945941
0
LINE
8
boundary
62
5
39
2
10
130.489755
20
186.296765
11
130.965943
21
186.139672
0
LINE
8
boundary
62
5
39
2
10
130.965943
20
186.139672
11
131.342415
21
186.020826
0
LINE
8
boundary
62
5
39
2
10
131.342415
20
186.020826
11
131.321261
21
204.164543
0
LINE
8
boundary
62
5
39
2
10
131.321261
20
204.164543
11
131.321366
21
204.280579
0
LINE
8
boundary
62
5
39
2
10
131.321366
20
204.280579
11
130.837760
21
204.379360
0
LINE
8
boundary
62
5
39
2
10
130.837760
20
204.379360
11
130.529320
21
204.449276
0
LINE
8
boundary
62
5
39
2
10
130.529320
20
204.449276
11
130.190758
21
204.528988
0
LINE
8
boundary
62
5
39
2
10
130.190758
20
204.528988
11
129.887372
21
204.602741
0
LINE
8
boundary
62
5
39
2
10
129.887372
20
204.602741
11
129.714915
21
204.646188
0
LINE
8
boundary
62
5
39
2
10
129.714915
20
204.646188
11
129.645125
21
204.664361
0
LINE
8
boundary
62
5
39
2
10
129.645125
20
204.664361
11
129.238990
21
204.773003
0
LINE
8
boundary
62
5
39
2
10
129.238990
20
204.773003
11
128.488574
21
205.017895
0
LINE
8
boundary
62
5
39
2
10
128.488574
20
205.017895
11
127.155016
21
205.453091
0
LINE
8
boundary
62
5
39
2
10
127.155016
20
205.453091
11
126.427858
21
205.760235
0
LINE
8
boundary
62
5
39
2
10
126.427858
20
205.760235
11
125.135631
21
206.306057
0
LINE
8
boundary
62
5
39
2
10
125.135631
20
206.306057
11
124.436883
21
206.673274
0
LINE
8
boundary
62
5
39
2
10
124.436883
20
206.673274
11
123.195144
21
207.325853
0
LINE
8
boundary
62
5
39
2
10
123.195144
20
207.325853
11
122.529759
21
207.750542
0
LINE
8
boundary
62
5
39
2
10
122.529759
20
207.750542
11
121.347310
21
208.505253
0
LINE
8
boundary
62
5
39
2
10
121.347310
20
208.505253
11
120.720005
21
208.984404
0
LINE
8
boundary
62
5
39
2
10
120.720005
20
208.984404
11
119.605229
21
209.835898
0
LINE
8
boundary
62
5
39
2
10
119.605229
20
209.835898
11
119.020449
21
210.366115
0
LINE
8
boundary
62
5
39
2
10
119.020449
20
210.366115
11
117.981242
21
211.308359
0
LINE
8
boundary
62
5
39
2
10
117.981242
20
211.308359
11
117.443132
21
211.885883
0
LINE
8
boundary
62
5
39
2
10
117.443132
20
211.885883
11
116.486863
21
212.912197
0
LINE
8
boundary
62
5
39
2
10
116.486863
20
212.912197
11
115.999237
21
213.532937
0
LINE
8
boundary
62
5
39
2
10
115.999237
20
213.532937
11
115.132682
21
214.636049
0
LINE
8
boundary
62
5
39
2
10
115.132682
20
214.636049
11
114.698994
21
215.295603
0
LINE
8
boundary
62
5
39
2
10
114.698994
20
215.295603
11
113.928292
21
216.467691
0
LINE
8
boundary
62
5
39
2
10
113.928292
20
216.467691
11
113.551618
21
217.161388
0
LINE
8
boundary
62
5
39
2
10
113.551618
20
217.161388
11
112.882235
21
218.394149
0
LINE
8
boundary
62
5
39
2
10
112.882235
20
218.394149
11
112.565244
21
219.117070
0
LINE
8
boundary
62
5
39
2
10
112.565244
20
219.117070
11
112.001923
21
220.401765
0
LINE
8
boundary
62
5
39
2
10
112.001923
20
220.401765
11
111.746863
21
221.148786
0
LINE
8
boundary
62
5
39
2
10
111.746863
20
221.148786
11
111.293599
21
222.476310
0
LINE
8
boundary
62
5
39
2
10
111.293599
20
222.476310
11
111.102276
21
223.242138
0
LINE
8
boundary
62
5
39
2
10
111.102276
20
223.242138
11
110.762276
21
224.603084
0
LINE
8
boundary
62
5
39
2
10
110.762276
20
224.603084
11
110.636044
21
225.382291
0
LINE
8
boundary
62
5
39
2
10
110.636044
20
225.382291
11
110.411719
21
226.767011
0
LINE
8
boundary
62
5
39
2
10
110.411719
20
226.767011
11
110.351477
21
227.554074
0
LINE
8
boundary
62
5
39
2
10
110.351477
20
227.554074
11
110.244421
21
228.952756
0
LINE
8
boundary
62
5
39
2
10
110.244421
20
228.952756
11
110.304663
21
229.739819
0
LINE
8
boundary
62
5
39
2
10
110.304663
20
229.739819
11
110.411719
21
231.138501
0
LINE
8
boundary
62
5
39
2
10
110.411719
20
231.138501
11
110.537951
21
231.917708
0
LINE
8
boundary
62
5
39
2
10
110.537951
20
231.917708
11
110.762276
21
233.302428
0
LINE
8
boundary
62
5
39
2
10
110.762276
20
233.302428
11
110.953600
21
234.068256
0
LINE
8
boundary
62
5
39
2
10
110.953600
20
234.068256
11
111.293599
21
235.429202
0
LINE
8
boundary
62
5
39
2
10
111.293599
20
235.429202
11
111.548659
21
236.176223
0
LINE
8
boundary
62
5
39
2
10
111.548659
20
236.176223
11
112.001923
21
237.503747
0
LINE
8
boundary
62
5
39
2
10
112.001923
20
237.503747
11
112.318914
21
238.226668
0
LINE
8
boundary
62
5
39
2
10
112.318914
20
238.226668
11
112.882235
21
239.511363
0
LINE
8
boundary
62
5
39
2
10
112.882235
20
239.511363
11
113.258909
21
240.205060
0
LINE
8
boundary
62
5
39
2
10
113.258909
20
240.205060
11
113.928292
21
241.437821
0
LINE
8
boundary
62
5
39
2
10
113.928292
20
241.437821
11
114.361980
21
242.097375
0
LINE
8
boundary
62
5
39
2
10
114.361980
20
242.097375
11
115.132682
21
243.269463
0
LINE
8
boundary
62
5
39
2
10
115.132682
20
243.269463
11
115.620308
21
243.890204
0
LINE
8
boundary
62
5
39
2
10
115.620308
20
243.890204
11
116.486863
21
244.993315
0
LINE
8
boundary
62
5
39
2
10
116.486863
20
244.993315
11
117.024973
21
245.570840
0
LINE
8
boundary
62
5
39
2
10
117.024973
20
245.570840
11
117.981242
21
246.597154
0
LINE
8
boundary
62
5
39
2
10
117.981242
20
246.597154
11
118.566022
21
247.127370
0
LINE
8
boundary
62
5
39
2
10
118.566022
20
247.127370
11
119.605229
21
248.069614
0
LINE
8
boundary
62
5
39
2
10
119.605229
20
248.069614
11
120.232533
21
248.548765
0
LINE
8
boundary
62
5
39
2
10
120.232533
20
248.548765
11
121.347310
21
249.400259
0
LINE
8
boundary
62
5
39
2
10
121.347310
20
249.400259
11
122.012695
21
249.824948
0
LINE
8
boundary
62
5
39
2
10
122.012695
20
249.824948
11
123.195144
21
250.579659
0
LINE
8
boundary
62
5
39
2
10
123.195144
20
250.579659
11
123.893892
21
250.946877
0
LINE
8
boundary
62
5
39
2
10
123.893892
20
250.946877
11
125.135631
21
251.599455
0
LINE
8
boundary
62
5
39
2
10
125.135631
20
251.599455
11
125.862790
21
251.906599
0
LINE
8
boundary
62
5
39
2
10
125.862790
20
251.906599
11
127.155016
21
252.452421
0
LINE
8
boundary
62
5
39
2
10
127.155016
20
252.452421
11
127.905432
21
252.697313
0
LINE
8
boundary
62
5
39
2
10
127.905432
20
252.697313
11
129.238990
21
253.132509
0
LINE
8
boundary
62
5
39
2
10
129.238990
20
253.132509
11
129.645125
21
253.241151
0
LINE
8
boundary
62
5
39
2
10
129.645125
20
253.241151
11
129.714915
21
253.259325
0
LINE
8
boundary
62
5
39
2
10
129.714915
20
253.259325
11
129.887372
21
253.302771
0
LINE
8
boundary
62
5
39
2
10
129.887372
20
253.302771
11
130.190758
21
253.376524
0
LINE
8
boundary
62
5
39
2
10
130.190758
20
253.376524
11
130.529320
21
253.456236
0
LINE
8
boundary
62
5
39
2
10
130.529320
20
253.456236
11
130.837761
21
253.526153
0
LINE
8
boundary
62
5
39
2
10
130.837761
20
253.526153
11
131.321366
21
253.624933
0
LINE
8
boundary
62
5
39
2
10
131.321366
20
253.624933
11
131.321261
21
253.740969
0
LINE
8
boundary
62
5
39
2
10
131.321261
20
253.740969
11
131.342415
21
271.884686
0
LINE
8
boundary
62
5
39
2
10
131.342415
20
271.884686
11
131.037885
21
271.788702
0
LINE
8
boundary
62
5
39
2
10
131.037885
20
271.788702
11
130.680414
21
271.669333
0
LINE
8
boundary
62
5
39
2
10
130.680414
20
271.669333
11
130.301157
21
271.542018
0
LINE
8
boundary
62
5
39
2
10
130.301157
20
271.542018
11
129.918034
21
271.409937
0
LINE
8
boundary
62
5
39
2
10
129.918034
20
271.409937
11
129.702011
21
271.334003
0
LINE
8
boundary
62
5
39
2
10
129.702011
20
271.334003
11
129.614784
21
271.302820
0
LINE
8
boundary
62
5
39
2
10
129.614784
20
271.302820
11
129.145583
21
271.132585
0
LINE
8
boundary
62
5
39
2
10
129.145583
20
271.132585
11
128.538524
21
270.884008
0
LINE
8
boundary
62
5
39
2
10
128.538524
20
270.884008
11
126.448210
21
270.028071
0
LINE
8
boundary
62
5
39
2
10
126.448210
20
270.028071
11
125.858514
21
269.740720
0
LINE
8
boundary
62
5
39
2
10
125.858514
20
269.740720
11
123.827988
21
268.751272
0
LINE
8
boundary
62
5
39
2
10
123.827988
20
268.751272
11
123.258129
21
268.426352
0
LINE
8
boundary
62
5
39
2
10
123.258129
20
268.426352
11
121.295909
21
267.307540
0
LINE
8
boundary
62
5
39
2
10
121.295909
20
267.307540
11
120.748278
21
266.946415
0
LINE
8
boundary
62
5
39
2
10
120.748278
20
266.946415
11
118.862593
21
265.702938
0
LINE
8
boundary
62
5
39
2
10
118.862593
20
265.702938
11
118.339485
21
265.307123
0
LINE
8
boundary
62
5
39
2
10
118.339485
20
265.307123
11
116.538244
21
263.944195
0
LINE
8
boundary
62
5
39
2
10
116.538244
20
263.944195
11
116.041855
21
263.515348
0
LINE
8
boundary
62
5
39
2
10
116.041855
20
263.515348
11
114.332616
21
262.038682
0
LINE
8
boundary
62
5
39
2
10
114.332616
20
262.038682
11
113.865025
21
261.578603
0
LINE
8
boundary
62
5
39
2
10
113.865025
20
261.578603
11
112.254951
21
259.994393
0
LINE
8
boundary
62
5
39
2
10
112.254951
20
259.994393
11
111.818123
21
259.505013
0
LINE
8
boundary
62
5
39
2
10
111.818123
20
259.505013
11
110.313975
21
257.819908
0
LINE
8
boundary
62
5
39
2
10
110.313975
20
257.819908
11
109.909740
21
257.303279
0
LINE
8
boundary
62
5
39
2
10
109.909740
20
257.303279
11
108.517821
21
255.524348
0
LINE
8
boundary
62
5
39
2
10
108.517821
20
255.524348
11
108.147876
21
254.982635
0
LINE
8
boundary
62
5
39
2
10
108.147876
20
254.982635
11
106.874026
21
253.117331
0
LINE
8
boundary
62
5
39
2
10
106.874026
20
253.117331
11
106.539922
21
252.552809
0
LINE
8
boundary
62
5
39
2
10
106.539922
20
252.552809
11
105.389484
21
250.608963
0
LINE
8
boundary
62
5
39
2
10
105.389484
20
250.608963
11
105.092622
21
250.023998
0
LINE
8
boundary
62
5
39
2
10
105.092622
20
250.023998
11
104.070421
21
248.009760
0
LINE
8
boundary
62
5
39
2
10
104.070421
20
248.009760
11
103.812046
21
247.406805
0
LINE
8
boundary
62
5
39
2
10
103.812046
20
247.406805
11
102.922372
21
245.330625
0
LINE
8
boundary
62
5
39
2
10
102.922372
20
245.330625
11
102.703568
21
244.712210
0
LINE
8
boundary
62
5
39
2
10
102.703568
20
244.712210
11
101.950150
21
242.582796
0
LINE
8
boundary
62
5
39
2
10
101.950150
20
242.582796
11
101.771835
21
241.951515
0
LINE
8
boundary
62
5
39
2
10
101.771835
20
241.951515
11
101.157832
21
239.777797
0
LINE
8
boundary
62
5
39
2
10
101.157832
20
239.777797
11
101.020753
21
239.136298
0
LINE
8
boundary
62
5
39
2
10
101.020753
20
239.136298
11
100.548743
21
236.927396
0
LINE
8
boundary
62
5
39
2
10
100.548743
20
236.927396
11
100.453476
21
236.278369
0
LINE
8
boundary
62
5
39
2
10
100.453476
20
236.278369
11
100.125437
21
234.043545
0
LINE
8
boundary
62
5
39
2
10
100.125437
20
234.043545
11
100.072381
21
233.389713
0
LINE
8
boundary
62
5
39
2
10
100.072381
20
233.389713
11
99.889690
21
231.138343
0
LINE
8
boundary
62
5
39
2
10
99.889690
20
231.138343
11
99.879068
21
230.482447
0
LINE
8
boundary
62
5
39
2
10
99.879068
20
230.482447
11
99.842494
21
228.223972
0
LINE
8
boundary
62
5
39
2
10
99.842494
20
228.223972
11
99.874350
21
227.568765
0
LINE
8
boundary
62
5
39
2
10
99.874350
20
227.568765
11
99.984043
21
225.312659
0
LINE
8
boundary
62
5
39
2
10
99.984043
20
225.312659
11
100.058243
21
224.660888
0
LINE
8
boundary
62
5
39
2
10
100.058243
20
224.660888
11
100.313740
21
222.416614
0
LINE
8
boundary
62
5
39
2
10
100.313740
20
222.416614
11
100.429974
21
221.771012
0
LINE
8
boundary
62
5
39
2
10
100.429974
20
221.771012
11
100.830206
21
219.547982
0
LINE
8
boundary
62
5
39
2
10
100.830206
20
219.547982
11
100.987985
21
218.911259
0
LINE
8
boundary
62
5
39
2
10
100.987985
20
218.911259
11
101.531274
21
216.718799
0
LINE
8
boundary
62
5
39
2
10
101.531274
20
216.718799
11
101.729939
21
216.093624
0
LINE
8
boundary
62
5
39
2
10
101.729939
20
216.093624
11
102.414009
21
213.940930
0
LINE
8
boundary
62
5
39
2
10
102.414009
20
213.940930
11
102.652724
21
213.329925
0
LINE
8
boundary
62
5
39
2
10
102.652724
20
213.329925
11
103.474703
21
211.226024
0
LINE
8
boundary
62
5
39
2
10
103.474703
20
211.226024
11
103.752468
21
210.631752
0
LINE
8
boundary
62
5
39
2
10
103.752468
20
210.631752
11
104.708909
21
208.585470
0
LINE
8
boundary
62
5
39
2
10
104.708909
20
208.585470
11
105.024557
21
208.010425
0
LINE
8
boundary
62
5
39
2
10
105.024557
20
208.010425
11
106.111442
21
206.030345
0
LINE
8
boundary
62
5
39
2
10
106.111442
20
206.030345
11
106.463652
21
205.476937
0
LINE
8
boundary
62
5
39
2
10
106.463652
20
205.476937
11
107.676433
21
203.571363
0
LINE
8
boundary
62
5
39
2
10
107.676433
20
203.571363
11
108.063725
21
203.041914
0
LINE
8
boundary
62
5
39
2
10
108.063725
20
203.041914
11
109.397306
21
201.218838
0
LINE
8
boundary
62
5
39
2
10
109.397306
20
201.218838
11
109.818059
21
200.715570
0
LINE
8
boundary
62
5
39
2
10
109.818059
20
200.715570
11
111.266854
21
198.982641
0
LINE
8
boundary
62
5
39
2
10
111.266854
20
198.982641
11
111.719300
21
198.507663
0
LINE
8
boundary
62
5
39
2
10
111.719300
20
198.507663
11
113.277230
21
196.872150
0
LINE
8
boundary
62
5
39
2
10
113.277230
20
196.872150
11
113.759472
21
196.427454
0
LINE
8
boundary
62
5
39
2
10
113.759472
20
196.427454
11
115.420001
21
194.896214
0
LINE
8
boundary
62
5
39
2
10
115.420001
20
194.896214
11
115.930016
21
194.483667
0
LINE
8
boundary
62
5
39
2
10
115.930016
20
194.483667
11
117.686175
21
193.063126
0
LINE
8
boundary
62
5
39
2
10
117.686175
20
193.063126
11
118.221826
21
192.684457
0
LINE
8
boundary
62
5
39
2
10
118.221826
20
192.684457
11
120.066256
21
191.380570
0
LINE
8
boundary
62
5
39
2
10
120.066256
20
191.380570
11
120.625295
21
191.037368
0
LINE
8
boundary
62
5
39
2
10
120.625295
20
191.037368
11
122.550259
21
189.855603
0
LINE
8
boundary
62
5
39
2
10
122.550259
20
189.855603
11
123.130340
21
189.549307
0
LINE
8
boundary
62
5
39
2
10
123.130340
20
189.549307
11
125.127761
21
188.494624
0
LINE
8
boundary
62
5
39
2
10
125.127761
20
188.494624
11
125.726453
21
188.226519
0
LINE
8
boundary
62
5
39
2
10
125.726453
20
188.226519
11
127.787954
21
187.303342
0
LINE
8
boundary
62
5
39
2
10
127.787954
20
187.303342
11
129.173781
21
186.774988
0
LINE
8
boundary
62
5
39
2
10
129.173781
20
186.774988
11
129.332239
21
186.715976
0
LINE
8
boundary
62
5
39
2
10
129.332239
20
186.715976
11
130.076267
21
186.439091
0
LINE
8
boundary
62
5
39
2
10
130.076267
20
186.439091
11
130.206995
21
186.393336
0
LINE
8
boundary
62
5
39
2
10
130.206995
20
186.393336
11
130.489755
21
186.296765
0
LINE
8
annotation
62
1
39
211
10
120.355441
20
263.150071
11
120.355441
21
264.578821
0
LINE
8
annotation
62
1
39
211
10
120.355441
20
263.150071
11
120.355441
21
264.578821
0
LINE
8
annotation
62
1
39
211
10
120.355441
20
264.578821
11
120.355441
21
263.150071
0
LINE
8
annotation
62
1
39
211
10
120.355441
20
263.150071
11
121.784191
21
263.150071
0
LINE
8
annotation
62
1
39
211
10
120.355441
20
263.150071
11
120.355441
21
264.578821
0
LINE
8
annotation
62
1
39
211
10
120.355441
20
264.578821
11
120.355441
21
263.150071
0
LINE
8
annotation
62
1
39
211
10
120.355441
20
263.150071
11
121.784191
21
263.150071
0
LINE
8
annotation
62
1
39
211
10
121.784191
20
263.150071
11
120.355441
21
263.150071
0
LINE
8
annotation
62
1
39
211
10
120.355441
20
263.150071
11
120.355441
21
261.721321
0
LINE
8
annotation
62
1
39
211
10
119.879191
20
195.231691
11
118.450441
21
195.231691
0
LINE
8
annotation
62
1
39
211
10
108.682081
20
229.253879
11
108.682081
21
230.682629
0
LINE
8
annotation
62
1
39
211
10
108.682081
20
229.253879
11
108.682081
21
230.682629
0
LINE
8
annotation
62
1
39
211
10
108.682081
20
230.682629
11
108.682081
21
229.253879
0
LINE
8
annotation
62
1
39
211
10
108.682081
20
229.253879
11
110.110831
21
229.253879
0
LINE
8
annotation
62
1
39
211
10
108.682081
20
229.253879
11
108.682081
21
230.682629
0
LINE
8
annotation
62
1
39
211
10
108.682081
20
230.682629
11
108.682081
21
229.253879
0
LINE
8
annotation
62
1
39
211
10
108.682081
20
229.253879
11
110.110831
21
229.253879
0
LINE
8
annotation
62
1
39
211
10
110.110831
20
229.253879
11
108.682081
21
229.253879
0
LINE
8
annotation
62
1
39
211
10
108.682081
20
229.253879
11
107.253331
21
229.253879
0
LINE
8
annotation
62
1
39
211
10
102.992486
20
228.952756
11
102.992486
21
227.524006
0
LINE
8
annotation
62
1
39
211
10
102.992486
20
228.952756
11
102.992486
21
227.524006
0
LINE
8
annotation
62
1
39
211
10
102.992486
20
227.524006
11
102.992486
21
228.952756
0
LINE
8
annotation
62
1
39
211
10
102.992486
20
228.952756
11
101.563736
21
228.952756
0
LINE
8
annotation
62
1
39
211
10
121.606721
20
258.267560
11
122.293206
21
258.267560
0
LINE
8
annotation
62
1
39
211
10
122.293206
20
258.267560
11
122.293206
21
258.267560
0
LINE
8
annotation
62
1
39
211
10
122.293206
20
258.267560
11
122.416671
21
258.278635
0
LINE
8
annotation
62
1
39
211
10
122.416671
20
258.278635
11
122.532848
21
258.310556
0
LINE
8
annotation
62
1
39
211
10
122.532848
20
258.310556
11
122.639804
21
258.361363
0
LINE
8
annotation
62
1
39
211
10
122.639804
20
258.361363
11
122.735607
21
258.429096
0
LINE
8
annotation
62
1
39
211
10
122.735607
20
258.429096
11
122.818324
21
258.511795
0
LINE
8
annotation
62
1
39
211
10
122.818324
20
258.511795
11
122.886023
21
258.607502
0
LINE
8
annotation
62
1
39
211
10
122.886023
20
258.607502
11
122.936772
21
258.714258
0
LINE
8
annotation
62
1
39
211
10
122.936772
20
258.714258
11
122.968638
21
258.830101
0
LINE
8
annotation
62
1
39
211
10
122.968638
20
258.830101
11
122.979690
21
258.953074
0
LINE
8
annotation
62
1
39
211
10
122.979690
20
258.953074
11
122.979690
21
259.296801
0
LINE
8
annotation
62
1
39
211
10
122.979690
20
259.296801
11
122.979690
21
259.296801
0
LINE
8
annotation
62
1
39
211
10
122.979690
20
259.296801
11
122.968638
21
259.419723
0
LINE
8
annotation
62
1
39
211
10
122.968638
20
259.419723
11
122.936772
21
259.535540
0
LINE
8
annotation
62
1
39
211
10
122.936772
20
259.535540
11
122.886023
21
259.642287
0
LINE
8
annotation
62
1
39
211
10
122.886023
20
259.642287
11
122.818324
21
259.738001
0
LINE
8
annotation
62
1
39
211
10
122.818324
20
259.738001
11
122.735607
21
259.820716
0
LINE
8
annotation
62
1
39
211
10
122.735607
20
259.820716
11
122.639804
21
259.888470
0
LINE
8
annotation
62
1
39
211
10
122.639804
20
259.888470
11
122.532848
21
259.939297
0
LINE
8
annotation
62
1
39
211
10
122.532848
20
259.939297
11
122.416671
21
259.971234
0
LINE
8
annotation
62
1
39
211
10
122.416671
20
259.971234
11
122.293206
21
259.982316
0
LINE
8
annotation
62
1
39
211
10
122.293206
20
259.982316
11
121.949479
21
259.982316
0
LINE
8
annotation
62
1
39
211
10
121.949479
20
259.982316
11
122.293206
21
259.982316
0
LINE
8
annotation
62
1
39
211
10
122.293206
20
259.982316
11
122.293206
21
259.982316
0
LINE
8
annotation
62
1
39
211
10
122.293206
20
259.982316
11
122.416671
21
259.993401
0
LINE
8
annotation
62
1
39
211
10
122.416671
20
259.993401
11
122.532848
21
260.025356
0
LINE
8
annotation
62
1
39
211
10
122.532848
20
260.025356
11
122.639804
21
260.076234
0
LINE
8
annotation
62
1
39
211
10
122.639804
20
260.076234
11
122.735607
21
260.144086
0
LINE
8
annotation
62
1
39
211
10
122.735607
20
260.144086
11
122.818324
21
260.226964
0
LINE
8
annotation
62
1
39
211
10
122.818324
20
260.226964
11
122.886023
21
260.322919
0
LINE
8
annotation
62
1
39
211
10
122.886023
20
260.322919
11
122.936772
21
260.430004
0
LINE
8
annotation
62
1
39
211
10
122.936772
20
260.430004
11
122.968638
21
260.546270
0
LINE
8
annotation
62
1
39
211
10
122.968638
20
260.546270
11
122.979690
21
260.669769
0
LINE
8
annotation
62
1
39
211
10
122.979690
20
260.669769
11
122.979690
21
260.669769
0
LINE
8
annotation
62
1
39
211
10
122.979690
20
260.669769
11
122.968638
21
260.792691
0
LINE
8
annotation
62
1
39
211
10
122.968638
20
260.792691
11
122.936772
21
260.908508
0
LINE
8
annotation
62
1
39
211
10
122.936772
20
260.908508
11
122.886023
21
261.015255
0
LINE
8
annotation
62
1
39
211
10
122.886023
20
261.015255
11
122.818324
21
261.110969
0
LINE
8
annotation
62
1
39
211
10
122.818324
20
261.110969
11
122.735607
21
261.193685
0
LINE
8
annotation
62
1
39
211
10
122.735607
20
261.193685
11
122.639804
21
261.261438
0
LINE
8
annotation
62
1
39
211
10
122.639804
20
261.261438
11
122.532848
21
261.312265
0
LINE
8
annotation
62
1
39
211
10
122.532848
20
261.312265
11
122.416671
21
261.344202
0
LINE
8
annotation
62
1
39
211
10
122.416671
20
261.344202
11
122.293206
21
261.355284
0
LINE
8
annotation
62
1
39
211
10
122.293206
20
261.355284
11
121.606721
21
261.355284
0
LINE
8
annotation
62
1
39
211
10
125.829588
20
259.813167
11
124.139259
21
259.813167
0
LINE
8
annotation
62
1
39
211
10
128.361776
20
258.267438
11
126.988808
21
258.267438
0
LINE
8
annotation
62
1
39
211
10
126.988808
20
258.267438
11
128.257476
21
260.309830
0
LINE
8
annotation
62
1
39
211
10
128.257476
20
260.309830
11
128.257476
21
260.309830
0
LINE
8
annotation
62
1
39
211
10
128.257476
20
260.309830
11
128.258992
21
260.311706
0
LINE
8
annotation
62
1
39
211
10
128.258992
20
260.311706
11
128.260447
21
260.313599
0
LINE
8
annotation
62
1
39
211
10
128.260447
20
260.313599
11
128.261849
21
260.315524
0
LINE
8
annotation
62
1
39
211
10
128.261849
20
260.315524
11
128.263207
21
260.317496
0
LINE
8
annotation
62
1
39
211
10
128.263207
20
260.317496
11
128.264532
21
260.319532
0
LINE
8
annotation
62
1
39
211
10
128.264532
20
260.319532
11
128.265834
21
260.321648
0
LINE
8
annotation
62
1
39
211
10
128.265834
20
260.321648
11
128.267121
21
260.323860
0
LINE
8
annotation
62
1
39
211
10
128.267121
20
260.323860
11
128.268403
21
260.326184
0
LINE
8
annotation
62
1
39
211
10
128.268403
20
260.326184
11
128.269690
21
260.328635
0
LINE
8
annotation
62
1
39
211
10
128.269690
20
260.328635
11
128.269690
21
260.328635
0
LINE
8
annotation
62
1
39
211
10
128.269690
20
260.328635
11
128.322073
21
260.441106
0
LINE
8
annotation
62
1
39
211
10
128.322073
20
260.441106
11
128.352674
21
260.557691
0
LINE
8
annotation
62
1
39
211
10
128.352674
20
260.557691
11
128.362243
21
260.675758
0
LINE
8
annotation
62
1
39
211
10
128.362243
20
260.675758
11
128.351531
21
260.792671
0
LINE
8
annotation
62
1
39
211
10
128.351531
20
260.792671
11
128.321286
21
260.905796
0
LINE
8
annotation
62
1
39
211
10
128.321286
20
260.905796
11
128.272260
21
261.012498
0
LINE
8
annotation
62
1
39
211
10
128.272260
20
261.012498
11
128.205202
21
261.110144
0
LINE
8
annotation
62
1
39
211
10
128.205202
20
261.110144
11
128.120861
21
261.196099
0
LINE
8
annotation
62
1
39
211
10
128.120861
20
261.196099
11
128.019988
21
261.267728
0
LINE
8
annotation
62
1
39
211
10
128.019988
20
261.267728
11
128.019988
21
261.267728
0
LINE
8
annotation
62
1
39
211
10
128.019988
20
261.267728
11
127.907205
21
261.319367
0
LINE
8
annotation
62
1
39
211
10
127.907205
20
261.319367
11
127.790440
21
261.349496
0
LINE
8
annotation
62
1
39
211
10
127.790440
20
261.349496
11
127.672305
21
261.358795
0
LINE
8
annotation
62
1
39
211
10
127.672305
20
261.358795
11
127.555410
21
261.347942
0
LINE
8
annotation
62
1
39
211
10
127.555410
20
261.347942
11
127.442365
21
261.317614
0
LINE
8
annotation
62
1
39
211
10
127.442365
20
261.317614
11
127.335780
21
261.268489
0
LINE
8
annotation
62
1
39
211
10
127.335780
20
261.268489
11
127.238267
21
261.201246
0
LINE
8
annotation
62
1
39
211
10
127.238267
20
261.201246
11
127.152435
21
261.116564
0
LINE
8
annotation
62
1
39
211
10
127.152435
20
261.116564
11
127.080895
21
261.015119
0
LINE
8
annotation
62
1
39
211
10
127.080895
20
261.015119
11
126.990747
21
260.842189
0
LINE
8
hole
62
5
39
2
10
145.694890
20
262.388071
11
146.266390
21
262.388071
0
LINE
8
hole
62
5
39
2
10
146.266390
20
262.388071
11
146.266390
21
262.959571
0
LINE
8
hole
62
5
39
2
10
146.266390
20
262.959571
11
145.694890
21
262.959571
0
LINE
8
hole
62
5
39
2
10
145.694890
20
262.959571
11
145.694890
21
262.388071
0
LINE
8
hole
62
5
39
2
10
162.581595
20
228.667006
11
163.153095
21
228.667006
0
LINE
8
hole
62
5
39
2
10
163.153095
20
228.667006
11
163.153095
21
229.238506
0
LINE
8
hole
62
5
39
2
10
163.153095
20
229.238506
11
162.581595
21
229.238506
0
LINE
8
hole
62
5
39
2
10
162.581595
20
229.238506
11
162.581595
21
228.667006
0
LINE
8
hole
62
5
39
2
10
156.892000
20
228.968131
11
157.463500
21
228.968131
0
LINE
8
hole
62
5
39
2
10
157.463500
20
228.968131
11
157.463500
21
229.539631
0
LINE
8
hole
62
5
39
2
10
157.463500
20
229.539631
11
156.892000
21
229.539631
0
LINE
8
hole
62
5
39
2
10
156.892000
20
229.539631
11
156.892000
21
228.968131
0
LINE
8
hole
62
5
39
2
10
145.694890
20
194.945941
11
146.266390
21
194.945941
0
LINE
8
hole
62
5
39
2
10
146.266390
20
194.945941
11
146.266390
21
195.517441
0
LINE
8
hole
62
5
39
2
10
146.266390
20
195.517441
11
145.694890
21
195.517441
0
LINE
8
hole
62
5
39
2
10
145.694890
20
195.517441
11
145.694890
21
194.945941
0
LINE
8
boundary
62
5
39
2
10
148.834858
20
212.334672
11
147.878588
21
211.308359
0
LINE
8
boundary
62
5
39
2
10
147.878588
20
211.308359
11
147.293808
21
210.778142
0
LINE
8
boundary
62
5
39
2
10
147.293808
20
210.778142
11
146.254602
21
209.835898
0
LINE
8
boundary
62
5
39
2
10
146.254602
20
209.835898
11
145.627297
21
209.356747
0
LINE
8
boundary
62
5
39
2
10
145.627297
20
209.356747
11
144.512521
21
208.505253
0
LINE
8
boundary
62
5
39
2
10
144.512521
20
208.505253
11
143.847136
21
208.080564
0
LINE
8
boundary
62
5
39
2
10
143.847136
20
208.080564
11
142.664687
21
207.325853
0
LINE
8
boundary
62
5
39
2
10
142.664687
20
207.325853
11
141.965938
21
206.958635
0
LINE
8
boundary
62
5
39
2
10
141.965938
20
206.958635
11
140.724200
21
206.306057
0
LINE
8
boundary
62
5
39
2
10
140.724200
20
206.306057
11
139.997041
21
205.998913
0
LINE
8
boundary
62
5
39
2
10
139.997041
20
205.998913
11
138.704814
21
205.453091
0
LINE
8
boundary
62
5
39
2
10
138.704814
20
205.453091
11
137.954398
21
205.208199
0
LINE
8
boundary
62
5
39
2
10
137.954398
20
205.208199
11
136.620841
21
204.773003
0
LINE
8
boundary
62
5
39
2
10
136.620841
20
204.773003
11
136.214705
21
204.664361
0
LINE
8
boundary
62
5
39
2
10
136.214705
20
204.664361
11
136.144916
21
204.646188
0
LINE
8
boundary
62
5
39
2
10
136.144916
20
204.646188
11
135.972459
21
204.602741
0
LINE
8
boundary
62
5
39
2
10
135.972459
20
204.602741
11
135.669073
21
204.528988
0
LINE
8
boundary
62
5
39
2
10
135.669073
20
204.528988
11
135.330511
21
204.449276
0
LINE
8
boundary
62
5
39
2
10
135.330511
20
204.449276
11
135.022070
21
204.379360
0
LINE
8
boundary
62
5
39
2
10
135.022070
20
204.379360
11
134.538464
21
204.280579
0
LINE
8
boundary
62
5
39
2
10
134.538464
20
204.280579
11
134.538569
21
204.164543
0
LINE
8
boundary
62
5
39
2
10
134.538569
20
204.164543
11
134.517415
21
186.020826
0
LINE
8
boundary
62
5
39
2
10
134.517415
20
186.020826
11
134.893888
21
186.139672
0
LINE
8
boundary
62
5
39
2
10
134.893888
20
186.139672
11
135.370076
21
186.296765
0
LINE
8
boundary
62
5
39
2
10
135.370076
20
186.296765
11
135.652836
21
186.393336
0
LINE
8
boundary
62
5
39
2
10
135.652836
20
186.393336
11
135.783563
21
186.439091
0
LINE
8
boundary
62
5
39
2
10
135.783563
20
186.439091
11
135.798695
21
186.444766
0
LINE
8
boundary
62
5
39
2
10
135.798695
20
186.444766
11
136.686050
21
186.774988
0
LINE
8
boundary
62
5
39
2
10
136.686050
20
186.774988
11
138.071877
21
187.303342
0
LINE
8
boundary
62
5
39
2
10
138.071877
20
187.303342
11
138.670568
21
187.571447
0
LINE
8
boundary
62
5
39
2
10
138.670568
20
187.571447
11
140.732069
21
188.494624
0
LINE
8
boundary
62
5
39
2
10
140.732069
20
188.494624
11
141.312151
21
188.800920
0
LINE
8
boundary
62
5
39
2
10
141.312151
20
188.800920
11
143.309572
21
189.855603
0
LINE
8
boundary
62
5
39
2
10
143.309572
20
189.855603
11
143.868611
21
190.198806
0
LINE
8
boundary
62
5
39
2
10
143.868611
20
190.198806
11
145.793575
21
191.380570
0
LINE
8
boundary
62
5
39
2
10
145.793575
20
191.380570
11
146.329225
21
191.759239
0
LINE
8
boundary
62
5
39
2
10
146.329225
20
191.759239
11
148.173656
21
193.063126
0
LINE
8
boundary
62
5
39
2
10
148.173656
20
193.063126
11
148.683671
21
193.475673
0
LINE
8
boundary
62
5
39
2
10
148.683671
20
193.475673
11
150.439830
21
194.896214
0
LINE
8
boundary
62
5
39
2
10
150.439830
20
194.896214
11
150.922073
21
195.340910
0
LINE
8
boundary
62
5
39
2
10
150.922073
20
195.340910
11
152.582601
21
196.872150
0
LINE
8
boundary
62
5
39
2
10
152.582601
20
196.872150
11
153.035048
21
197.347128
0
LINE
8
boundary
62
5
39
2
10
153.035048
20
197.347128
11
154.592977
21
198.982641
0
LINE
8
boundary
62
5
39
2
10
154.592977
20
198.982641
11
155.013729
21
199.485910
0
LINE
8
boundary
62
5
39
2
10
155.013729
20
199.485910
11
156.462524
21
201.218839
0
LINE
8
boundary
62
5
39
2
10
156.462524
20
201.218839
11
156.849816
21
201.748287
0
LINE
8
boundary
62
5
39
2
10
156.849816
20
201.748287
11
158.183398
21
203.571363
0
LINE
8
boundary
62
5
39
2
10
158.183398
20
203.571363
11
158.535608
21
204.124771
0
LINE
8
boundary
62
5
39
2
10
158.535608
20
204.124771
11
159.748388
21
206.030345
0
LINE
8
boundary
62
5
39
2
10
159.748388
20
206.030345
11
160.064036
21
206.605391
0
LINE
8
boundary
62
5
39
2
10
160.064036
20
206.605391
11
161.150922
21
208.585470
0
LINE
8
boundary
62
5
39
2
10
161.150922
20
208.585470
11
161.428687
21
209.179742
0
LINE
8
boundary
62
5
39
2
10
161.428687
20
209.179742
11
162.385128
21
211.226024
0
LINE
8
boundary
62
5
39
2
10
162.385128
20
211.226024
11
162.623843
21
211.837029
0
LINE
8
boundary
62
5
39
2
10
162.623843
20
211.837029
11
163.445822
21
213.940930
0
LINE
8
boundary
62
5
39
2
10
163.445822
20
213.940930
11
163.644486
21
214.566105
0
LINE
8
boundary
62
5
39
2
10
163.644486
20
214.566105
11
164.328556
21
216.718799
0
LINE
8
boundary
62
5
39
2
10
164.328556
20
216.718799
11
164.486336
21
217.355523
0
LINE
8
boundary
62
5
39
2
10
164.486336
20
217.355523
11
165.029625
21
219.547983
0
LINE
8
boundary
62
5
39
2
10
165.029625
20
219.547983
11
165.145858
21
220.193584
0
LINE
8
boundary
62
5
39
2
10
165.145858
20
220.193584
11
165.546090
21
222.416614
0
LINE
8
boundary
62
5
39
2
10
165.546090
20
222.416614
11
165.620291
21
223.068386
0
LINE
8
boundary
62
5
39
2
10
165.620291
20
223.068386
11
165.875788
21
225.312659
0
LINE
8
boundary
62
5
39
2
10
165.875788
20
225.312659
11
165.907644
21
225.967867
0
LINE
8
boundary
62
5
39
2
10
165.907644
20
225.967867
11
166.017337
21
228.223972
0
LINE
8
boundary
62
5
39
2
10
166.017337
20
228.223972
11
166.006715
21
228.879868
0
LINE
8
boundary
62
5
39
2
10
166.006715
20
228.879868
11
165.970141
21
231.138343
0
LINE
8
boundary
62
5
39
2
10
165.970141
20
231.138343
11
165.917084
21
231.792175
0
LINE
8
boundary
62
5
39
2
10
165.917084
20
231.792175
11
165.734393
21
234.043545
0
LINE
8
boundary
62
5
39
2
10
165.734393
20
234.043545
11
165.639126
21
234.692572
0
LINE
8
boundary
62
5
39
2
10
165.639126
20
234.692572
11
165.311088
21
236.927396
0
LINE
8
boundary
62
5
39
2
10
165.311088
20
236.927396
11
165.174009
21
237.568895
0
LINE
8
boundary
62
5
39
2
10
165.174009
20
237.568895
11
164.701998
21
239.777797
0
LINE
8
boundary
62
5
39
2
10
164.701998
20
239.777797
11
164.523683
21
240.409078
0
LINE
8
boundary
62
5
39
2
10
164.523683
20
240.409078
11
163.909680
21
242.582796
0
LINE
8
boundary
62
5
39
2
10
163.909680
20
242.582796
11
163.690876
21
243.201210
0
LINE
8
boundary
62
5
39
2
10
163.690876
20
243.201210
11
162.937459
21
245.330625
0
LINE
8
boundary
62
5
39
2
10
162.937459
20
245.330625
11
162.679084
21
245.933579
0
LINE
8
boundary
62
5
39
2
10
162.679084
20
245.933579
11
161.789410
21
248.009760
0
LINE
8
boundary
62
5
39
2
10
161.789410
20
248.009760
11
161.492547
21
248.594725
0
LINE
8
boundary
62
5
39
2
10
161.492547
20
248.594725
11
160.470346
21
250.608964
0
LINE
8
boundary
62
5
39
2
10
160.470346
20
250.608964
11
160.136242
21
251.173486
0
LINE
8
boundary
62
5
39
2
10
160.136242
20
251.173486
11
158.985805
21
253.117332
0
LINE
8
boundary
62
5
39
2
10
158.985805
20
253.117332
11
158.615859
21
253.659044
0
LINE
8
boundary
62
5
39
2
10
158.615859
20
253.659044
11
157.342010
21
255.524348
0
LINE
8
boundary
62
5
39
2
10
157.342010
20
255.524348
11
156.937775
21
256.040976
0
LINE
8
boundary
62
5
39
2
10
156.937775
20
256.040976
11
155.545856
21
257.819908
0
LINE
8
boundary
62
5
39
2
10
155.545856
20
257.819908
11
155.109028
21
258.309288
0
LINE
8
boundary
62
5
39
2
10
155.109028
20
258.309288
11
153.604880
21
259.994393
0
LINE
8
boundary
62
5
39
2
10
153.604880
20
259.994393
11
153.137290
21
260.454472
0
LINE
8
boundary
62
5
39
2
10
153.137290
20
260.454472
11
151.527215
21
262.038682
0
LINE
8
boundary
62
5
39
2
10
151.527215
20
262.038682
11
151.030826
21
262.467528
0
LINE
8
boundary
62
5
39
2
10
151.030826
20
262.467528
11
149.321587
21
263.944195
0
LINE
8
boundary
62
5
39
2
10
149.321587
20
263.944195
11
148.798479
21
264.340010
0
LINE
8
boundary
62
5
39
2
10
148.798479
20
264.340010
11
146.997238
21
265.702938
0
LINE
8
boundary
62
5
39
2
10
146.997238
20
265.702938
11
146.449606
21
266.064063
0
LINE
8
boundary
62
5
39
2
10
146.449606
20
266.064063
11
144.563921
21
267.307540
0
LINE
8
boundary
62
5
39
2
10
144.563921
20
267.307540
11
143.994063
21
267.632460
0
LINE
8
boundary
62
5
39
2
10
143.994063
20
267.632460
11
142.031843
21
268.751272
0
LINE
8
boundary
62
5
39
2
10
142.031843
20
268.751272
11
141.442147
21
269.038623
0
LINE
8
boundary
62
5
39
2
10
141.442147
20
269.038623
11
139.411621
21
270.028071
0
LINE
8
boundary
62
5
39
2
10
139.411621
20
270.028071
11
138.804562
21
270.276648
0
LINE
8
boundary
62
5
39
2
10
138.804562
20
270.276648
11
136.714247
21
271.132585
0
LINE
8
boundary
62
5
39
2
10
136.714247
20
271.132585
11
136.245047
21
271.302820
0
LINE
8
boundary
62
5
39
2
10
136.245047
20
271.302820
11
136.157820
21
271.334003
0
LINE
8
boundary
62
5
39
2
10
136.157820
20
271.334003
11
135.941797
21
271.409937
0
LINE
8
boundary
62
5
39
2
10
135.941797
20
271.409937
11
135.558674
21
271.542018
0
LINE
8
boundary
62
5
39
2
10
135.558674
20
271.542018
11
134.965052
21
271.740662
0
LINE
8
boundary
62
5
39
2
10
134.965052
20
271.740662
11
134.821946
21
271.788702
0
LINE
8
boundary
62
5
39
2
10
134.821946
20
271.788702
11
134.517415
21
271.884687
0
LINE
8
boundary
62
5
39
2
10
134.517415
20
271.884687
11
134.538570
21
253.740969
0
LINE
8
boundary
62
5
39
2
10
134.538570
20
253.740969
11
134.538464
21
253.624933
0
LINE
8
boundary
62
5
39
2
10
134.538464
20
253.624933
11
135.022070
21
253.526153
0
LINE
8
boundary
62
5
39
2
10
135.022070
20
253.526153
11
135.330511
21
253.456236
0
LINE
8
boundary
62
5
39
2
10
135.330511
20
253.456236
11
135.669073
21
253.376524
0
LINE
8
boundary
62
5
39
2
10
135.669073
20
253.376524
11
135.972459
21
253.302772
0
LINE
8
boundary
62
5
39
2
10
135.972459
20
253.302772
11
136.144916
21
253.259325
0
LINE
8
boundary
62
5
39
2
10
136.144916
20
253.259325
11
136.214705
21
253.241151
0
LINE
8
boundary
62
5
39
2
10
136.214705
20
253.241151
11
136.620841
21
253.132509
0
LINE
8
boundary
62
5
39
2
10
136.620841
20
253.132509
11
137.371257
21
252.887617
0
LINE
8
boundary
62
5
39
2
10
137.371257
20
252.887617
11
138.704814
21
252.452421
0
LINE
8
boundary
62
5
39
2
10
138.704814
20
252.452421
11
139.431973
21
252.145277
0
LINE
8
boundary
62
5
39
2
10
139.431973
20
252.145277
11
140.724200
21
251.599455
0
LINE
8
boundary
62
5
39
2
10
140.724200
20
251.599455
11
141.422948
21
251.232238
0
LINE
8
boundary
62
5
39
2
10
141.422948
20
251.232238
11
142.664687
21
250.579659
0
LINE
8
boundary
62
5
39
2
10
142.664687
20
250.579659
11
143.330071
21
250.154970
0
LINE
8
boundary
62
5
39
2
10
143.330071
20
250.154970
11
144.512521
21
249.400259
0
LINE
8
boundary
62
5
39
2
10
144.512521
20
249.400259
11
145.139825
21
248.921108
0
LINE
8
boundary
62
5
39
2
10
145.139825
20
248.921108
11
146.254602
21
248.069614
0
LINE
8
boundary
62
5
39
2
10
146.254602
20
248.069614
11
146.839382
21
247.539397
0
LINE
8
boundary
62
5
39
2
10
146.839382
20
247.539397
11
147.878588
21
246.597154
0
LINE
8
boundary
62
5
39
2
10
147.878588
20
246.597154
11
148.416698
21
246.019629
0
LINE
8
boundary
62
5
39
2
10
148.416698
20
246.019629
11
149.372968
21
244.993315
0
LINE
8
boundary
62
5
39
2
10
149.372968
20
244.993315
11
149.860593
21
244.372575
0
LINE
8
boundary
62
5
39
2
10
149.860593
20
244.372575
11
150.727149
21
243.269463
0
LINE
8
boundary
62
5
39
2
10
150.727149
20
243.269463
11
151.160836
21
242.609909
0
LINE
8
boundary
62
5
39
2
10
151.160836
20
242.609909
11
151.931539
21
241.437821
0
LINE
8
boundary
62
5
39
2
10
151.931539
20
241.437821
11
152.308212
21
240.744125
0
LINE
8
boundary
62
5
39
2
10
152.308212
20
240.744125
11
152.977596
21
239.511363
0
LINE
8
boundary
62
5
39
2
10
152.977596
20
239.511363
11
153.294587
21
238.788443
0
LINE
8
boundary
62
5
39
2
10
153.294587
20
238.788443
11
153.857908
21
237.503748
0
LINE
8
boundary
62
5
39
2
10
153.857908
20
237.503748
11
154.112967
21
236.756726
0
LINE
8
boundary
62
5
39
2
10
154.112967
20
236.756726
11
154.566231
21
235.429202
0
LINE
8
boundary
62
5
39
2
10
154.566231
20
235.429202
11
154.757555
21
234.663374
0
LINE
8
boundary
62
5
39
2
10
154.757555
20
234.663374
11
155.097555
21
233.302428
0
LINE
8
boundary
62
5
39
2
10
155.097555
20
233.302428
11
155.223787
21
232.523222
0
LINE
8
boundary
62
5
39
2
10
155.223787
20
232.523222
11
155.448112
21
231.138501
0
LINE
8
boundary
62
5
39
2
10
155.448112
20
231.138501
11
155.508354
21
230.351438
0
LINE
8
boundary
62
5
39
2
10
155.508354
20
230.351438
11
155.615410
21
228.952756
0
LINE
8
boundary
62
5
39
2
10
155.615410
20
228.952756
11
155.555168
21
228.165693
0
LINE
8
boundary
62
5
39
2
10
155.555168
20
228.165693
11
155.448112
21
226.767011
0
LINE
8
boundary
62
5
39
2
10
155.448112
20
226.767011
11
155.321880
21
225.987805
0
LINE
8
boundary
62
5
39
2
10
155.321880
20
225.987805
11
155.097555
21
224.603084
0
LINE
8
boundary
62
5
39
2
10
155.097555
20
224.603084
11
154.906231
21
223.837256
0
LINE
8
boundary
62
5
39
2
10
154.906231
20
223.837256
11
154.566231
21
222.476310
0
LINE
8
boundary
62
5
39
2
10
154.566231
20
222.476310
11
154.311172
21
221.729289
0
LINE
8
boundary
62
5
39
2
10
154.311172
20
221.729289
11
153.857908
21
220.401765
0
LINE
8
boundary
62
5
39
2
10
153.857908
20
220.401765
11
153.540917
21
219.678844
0
LINE
8
boundary
62
5
39
2
10
153.540917
20
219.678844
11
152.977596
21
218.394149
0
LINE
8
boundary
62
5
39
2
10
152.977596
20
218.394149
11
152.600922
21
217.700453
0
LINE
8
boundary
62
5
39
2
10
152.600922
20
217.700453
11
151.931539
21
216.467691
0
LINE
8
boundary
62
5
39
2
10
151.931539
20
216.467691
11
151.497851
21
215.808137
0
LINE
8
boundary
62
5
39
2
10
151.497851
20
215.808137
11
150.727149
21
214.636049
0
LINE
8
boundary
62
5
39
2
10
150.727149
20
214.636049
11
150.239523
21
214.015309
0
LINE
8
boundary
62
5
39
2
10
150.239523
20
214.015309
11
149.372968
21
212.912197
0
LINE
8
boundary
62
5
39
2
10
149.372968
20
212.912197
11
148.834858
21
212.334672
0
LINE
8
annotation
62
1
39
211
10
145.980640
20
262.673821
11
145.980640
21
264.102571
0
LINE
8
annotation
62
1
39
211
10
145.980640
20
262.673821
11
145.980640
21
264.102571
0
LINE
8
annotation
62
1
39
211
10
145.980640
20
264.102571
11
145.980640
21
262.673821
0
LINE
8
annotation
62
1
39
211
10
145.980640
20
262.673821
11
145.980640
21
261.245071
0
LINE
8
annotation
62
1
39
211
10
145.980640
20
195.231691
11
147.409390
21
195.231691
0
LINE
8
annotation
62
1
39
211
10
145.980640
20
195.231691
11
147.409390
21
195.231691
0
LINE
8
annotation
62
1
39
211
10
147.409390
20
195.231691
11
145.980640
21
195.231691
0
LINE
8
annotation
62
1
39
211
10
145.980640
20
195.231691
11
145.980640
21
193.802942
0
LINE
8
annotation
62
1
39
211
10
162.867345
20
228.952756
11
162.867345
21
230.381506
0
LINE
8
annotation
62
1
39
211
10
162.867345
20
228.952756
11
162.867345
21
230.381506
0
LINE
8
annotation
62
1
39
211
10
162.867345
20
230.381506
11
162.867345
21
228.952756
0
LINE
8
annotation
62
1
39
211
10
162.867345
20
228.952756
11
161.438595
21
228.952756
0
LINE
8
annotation
62
1
39
211
10
157.177750
20
229.253881
11
158.606500
21
229.253881
0
LINE
8
annotation
62
1
39
211
10
157.177750
20
229.253881
11
158.606500
21
229.253881
0
LINE
8
annotation
62
1
39
211
10
158.606500
20
229.253881
11
157.177750
21
229.253881
0
LINE
8
annotation
62
1
39
211
10
157.177750
20
229.253881
11
155.749000
21
229.253881
0
LINE
8
annotation
62
1
39
211
10
156.624731
20
218.014850
11
157.311215
21
218.014850
0
LINE
8
annotation
62
1
39
211
10
157.311215
20
218.014850
11
157.311215
21
218.014850
0
LINE
8
annotation
62
1
39
211
10
157.311215
20
218.014850
11
157.434681
21
218.025926
0
LINE
8
annotation
62
1
39
211
10
157.434681
20
218.025926
11
157.550858
21
218.057847
0
LINE
8
annotation
62
1
39
211
10
157.550858
20
218.057847
11
157.657814
21
218.108653
0
LINE
8
annotation
62
1
39
211
10
157.657814
20
218.108653
11
157.753616
21
218.176386
0
LINE
8
annotation
62
1
39
211
10
157.753616
20
218.176386
11
157.836333
21
218.259086
0
LINE
8
annotation
62
1
39
211
10
157.836333
20
218.259086
11
157.904033
21
218.354793
0
LINE
8
annotation
62
1
39
211
10
157.904033
20
218.354793
11
157.954781
21
218.461548
0
LINE
8
annotation
62
1
39
211
10
157.954781
20
218.461548
11
157.986648
21
218.577392
0
LINE
8
annotation
62
1
39
211
10
157.986648
20
218.577392
11
157.997699
21
218.700365
0
LINE
8
annotation
62
1
39
211
10
157.997699
20
218.700365
11
157.997699
21
219.044092
0
LINE
8
annotation
62
1
39
211
10
157.997699
20
219.044092
11
157.997699
21
219.044092
0
LINE
8
annotation
62
1
39
211
10
157.997699
20
219.044092
11
157.986648
21
219.167014
0
LINE
8
annotation
62
1
39
211
10
157.986648
20
219.167014
11
157.954781
21
219.282830
0
LINE
8
annotation
62
1
39
211
10
157.954781
20
219.282830
11
157.904033
21
219.389578
0
LINE
8
annotation
62
1
39
211
10
157.904033
20
219.389578
11
157.836333
21
219.485291
0
LINE
8
annotation
62
1
39
211
10
157.836333
20
219.485291
11
157.753616
21
219.568007
0
LINE
8
annotation
62
1
39
211
10
157.753616
20
219.568007
11
157.657814
21
219.635760
0
LINE
8
annotation
62
1
39
211
10
157.657814
20
219.635760
11
157.550858
21
219.686588
0
LINE
8
annotation
62
1
39
211
10
157.550858
20
219.686588
11
157.434681
21
219.718524
0
LINE
8
annotation
62
1
39
211
10
157.434681
20
219.718524
11
157.311215
21
219.729606
0
LINE
8
annotation
62
1
39
211
10
157.311215
20
219.729606
11
156.967488
21
219.729606
0
LINE
8
annotation
62
1
39
211
10
156.967488
20
219.729606
11
157.311215
21
219.729606
0
LINE
8
annotation
62
1
39
211
10
157.311215
20
219.729606
11
157.311215
21
219.729606
0
LINE
8
annotation
62
1
39
211
10
157.311215
20
219.729606
11
157.434681
21
219.740691
0
LINE
8
annotation
62
1
39
211
10
157.434681
20
219.740691
11
157.550858
21
219.772647
0
LINE
8
annotation
62
1
39
211
10
157.550858
20
219.772647
11
157.657814
21
219.823524
0
LINE
8
annotation
62
1
39
211
10
157.657814
20
219.823524
11
157.753616
21
219.891376
0
LINE
8
annotation
62
1
39
211
10
157.753616
20
219.891376
11
157.836333
21
219.974254
0
LINE
8
annotation
62
1
39
211
10
157.836333
20
219.974254
11
157.904033
21
220.070210
0
LINE
8
annotation
62
1
39
211
10
157.904033
20
220.070210
11
157.954781
21
220.177295
0
LINE
8
annotation
62
1
39
211
10
157.954781
20
220.177295
11
157.986648
21
220.293561
0
LINE
8
annotation
62
1
39
211
10
157.986648
20
220.293561
11
157.997699
21
220.417060
0
LINE
8
annotation
62
1
39
211
10
157.997699
20
220.417060
11
157.997699
21
220.417060
0
LINE
8
annotation
62
1
39
211
10
157.997699
20
220.417060
11
157.986648
21
220.539982
0
LINE
8
annotation
62
1
39
211
10
157.986648
20
220.539982
11
157.954781
21
220.655799
0
LINE
8
annotation
62
1
39
211
10
157.954781
20
220.655799
11
157.904033
21
220.762546
0
LINE
8
annotation
62
1
39
211
10
157.904033
20
220.762546
11
157.836333
21
220.858259
0
LINE
8
annotation
62
1
39
211
10
157.836333
20
220.858259
11
157.753616
21
220.940975
0
LINE
8
annotation
62
1
39
211
10
157.753616
20
220.940975
11
157.657814
21
221.008729
0
LINE
8
annotation
62
1
39
211
10
157.657814
20
221.008729
11
157.550858
21
221.059556
0
LINE
8
annotation
62
1
39
211
10
157.550858
20
221.059556
11
157.434681
21
221.091493
0
LINE
8
annotation
62
1
39
211
10
157.434681
20
221.091493
11
157.311215
21
221.102575
0
LINE
8
annotation
62
1
39
211
10
157.311215
20
221.102575
11
156.624731
21
221.102575
0
LINE
8
annotation
62
1
39
211
10
160.847597
20
219.560457
11
159.157268
21
219.560457
0
LINE
8
annotation
62
1
39
211
10
162.693941
20
218.014753
11
162.693941
21
221.106161
0
LINE
8
annotation
62
1
39
211
10
162.693941
20
221.106161
11
162.006681
21
220.418708
0
LINE
8
hole
62
5
39
2
10
182.125799
20
260.572841
11
182.697299
21
260.572841
0
LINE
8
hole
62
5
39
2
10
182.697299
20
260.572841
11
182.697299
21
261.144341
0
LINE
8
hole
62
5
39
2
10
182.697299
20
261.144341
11
182.125799
21
261.144341
0
LINE
8
hole
62
5
39
2
10
182.125799
20
261.144341
11
182.125799
21
260.572841
0
LINE
8
hole
62
5
39
2
10
182.599636
20
196.942530
11
183.171136
21
196.942530
0
LINE
8
hole
62
5
39
2
10
183.171136
20
196.942530
11
183.171136
21
197.514030
0
LINE
8
hole
62
5
39
2
10
183.171136
20
197.514030
11
182.599636
21
197.514030
0
LINE
8
hole
62
5
39
2
10
182.599636
20
197.514030
11
182.599636
21
196.942530
0
LINE
8
hole
62
5
39
2
10
196.856657
20
228.525777
11
197.428157
21
228.525777
0
LINE
8
hole
62
5
39
2
10
197.428157
20
228.525777
11
197.428157
21
229.097277
0
LINE
8
hole
62
5
39
2
10
197.428157
20
229.097277
11
196.856657
21
229.097277
0
LINE
8
hole
62
5
39
2
10
196.856657
20
229.097277
11
196.856657
21
228.525777
0
LINE
8
hole
62
5
39
2
10
191.124963
20
228.857329
11
191.696463
21
228.857329
0
LINE
8
hole
62
5
39
2
10
191.696463
20
228.857329
11
191.696463
21
229.428829
0
LINE
8
hole
62
5
39
2
10
191.696463
20
229.428829
11
191.124963
21
229.428829
0
LINE
8
hole
62
5
39
2
10
191.124963
20
229.428829
11
191.124963
21
228.857329
0
LINE
8
boundary
62
5
39
2
10
182.587353
20
211.680282
11
182.109222
21
211.167130
0
LINE
8
boundary
62
5
39
2
10
182.109222
20
211.167130
11
181.004835
21
210.165787
0
LINE
8
boundary
62
5
39
2
10
181.004835
20
210.165787
11
180.485236
21
209.694669
0
LINE
8
boundary
62
5
39
2
10
180.485236
20
209.694669
11
179.300539
21
208.789768
0
LINE
8
boundary
62
5
39
2
10
179.300539
20
208.789768
11
178.743155
21
208.364024
0
LINE
8
boundary
62
5
39
2
10
178.743155
20
208.364024
11
177.486540
21
207.561976
0
LINE
8
boundary
62
5
39
2
10
177.486540
20
207.561976
11
176.895321
21
207.184624
0
LINE
8
boundary
62
5
39
2
10
176.895321
20
207.184624
11
175.575698
21
206.491115
0
LINE
8
boundary
62
5
39
2
10
175.575698
20
206.491115
11
174.954834
21
206.164828
0
LINE
8
boundary
62
5
39
2
10
174.954834
20
206.164828
11
173.581556
21
205.584771
0
LINE
8
boundary
62
5
39
2
10
173.581556
20
205.584771
11
172.935448
21
205.311862
0
LINE
8
boundary
62
5
39
2
10
172.935448
20
205.311862
11
171.518248
21
204.849370
0
LINE
8
boundary
62
5
39
2
10
171.518248
20
204.849370
11
170.851475
21
204.631774
0
LINE
8
boundary
62
5
39
2
10
170.851475
20
204.631774
11
170.439055
21
204.521452
0
LINE
8
boundary
62
5
39
2
10
170.439055
20
204.521452
11
170.363311
21
204.501698
0
LINE
8
boundary
62
5
39
2
10
170.363311
20
204.501698
11
170.178502
21
204.455055
0
LINE
8
boundary
62
5
39
2
10
170.178502
20
204.455055
11
169.849762
21
204.374955
0
LINE
8
boundary
62
5
39
2
10
169.849762
20
204.374955
11
169.605406
21
204.317422
0
LINE
8
boundary
62
5
39
2
10
169.605406
20
204.317422
11
169.290060
21
204.245724
0
LINE
8
boundary
62
5
39
2
10
169.290060
20
204.245724
11
169.193401
21
204.225978
0
LINE
8
boundary
62
5
39
2
10
169.193401
20
204.225978
11
169.201619
21
195.158007
0
LINE
8
boundary
62
5
39
2
10
169.201619
20
195.158007
11
169.192337
21
186.020826
0
LINE
8
boundary
62
5
39
2
10
169.192337
20
186.020826
11
169.604349
21
186.156754
0
LINE
8
boundary
62
5
39
2
10
169.604349
20
186.156754
11
169.938975
21
186.271028
0
LINE
8
boundary
62
5
39
2
10
169.938975
20
186.271028
11
170.116013
21
186.332843
0
LINE
8
boundary
62
5
39
2
10
170.116013
20
186.332843
11
170.156527
21
186.347370
0
LINE
8
boundary
62
5
39
2
10
170.156527
20
186.347370
11
170.532260
21
186.487196
0
LINE
8
boundary
62
5
39
2
10
170.532260
20
186.487196
11
172.302511
21
187.162113
0
LINE
8
boundary
62
5
39
2
10
172.302511
20
187.162113
11
173.433171
21
187.668443
0
LINE
8
boundary
62
5
39
2
10
173.433171
20
187.668443
11
174.962703
21
188.353395
0
LINE
8
boundary
62
5
39
2
10
174.962703
20
188.353395
11
176.058218
21
188.931851
0
LINE
8
boundary
62
5
39
2
10
176.058218
20
188.931851
11
177.540206
21
189.714374
0
LINE
8
boundary
62
5
39
2
10
177.540206
20
189.714374
11
178.595980
21
190.362530
0
LINE
8
boundary
62
5
39
2
10
178.595980
20
190.362530
11
180.024208
21
191.239342
0
LINE
8
boundary
62
5
39
2
10
180.024208
20
191.239342
11
181.035813
21
191.954477
0
LINE
8
boundary
62
5
39
2
10
181.035813
20
191.954477
11
182.404290
21
192.921897
0
LINE
8
boundary
62
5
39
2
10
182.404290
20
192.921897
11
183.367480
21
193.701013
0
LINE
8
boundary
62
5
39
2
10
183.367480
20
193.701013
11
184.670464
21
194.754985
0
LINE
8
boundary
62
5
39
2
10
184.670464
20
194.754985
11
185.581205
21
195.594816
0
LINE
8
boundary
62
5
39
2
10
185.581205
20
195.594816
11
186.813235
21
196.730921
0
LINE
8
boundary
62
5
39
2
10
186.813235
20
196.730921
11
187.667704
21
197.627942
0
LINE
8
boundary
62
5
39
2
10
187.667704
20
197.627942
11
188.823611
21
198.841412
0
LINE
8
boundary
62
5
39
2
10
188.823611
20
198.841412
11
189.618224
21
199.791862
0
LINE
8
boundary
62
5
39
2
10
189.618224
20
199.791862
11
190.693158
21
201.077610
0
LINE
8
boundary
62
5
39
2
10
190.693158
20
201.077610
11
191.424580
21
202.077502
0
LINE
8
boundary
62
5
39
2
10
191.424580
20
202.077502
11
192.414032
21
203.430134
0
LINE
8
boundary
62
5
39
2
10
192.414032
20
203.430134
11
193.079199
21
204.475274
0
LINE
8
boundary
62
5
39
2
10
193.079199
20
204.475274
11
193.979022
21
205.889117
0
LINE
8
boundary
62
5
39
2
10
193.979022
20
205.889117
11
194.575140
21
206.975120
0
LINE
8
boundary
62
5
39
2
10
194.575140
20
206.975120
11
195.381556
21
208.444242
0
LINE
8
boundary
62
5
39
2
10
195.381556
20
208.444242
11
195.906130
21
209.566554
0
LINE
8
boundary
62
5
39
2
10
195.906130
20
209.566554
11
196.615762
21
211.084795
0
LINE
8
boundary
62
5
39
2
10
196.615762
20
211.084795
11
197.066588
21
212.238710
0
LINE
8
boundary
62
5
39
2
10
197.066588
20
212.238710
11
197.676456
21
213.799701
0
LINE
8
boundary
62
5
39
2
10
197.676456
20
213.799701
11
198.051644
21
214.980378
0
LINE
8
boundary
62
5
39
2
10
198.051644
20
214.980378
11
198.559190
21
216.577571
0
LINE
8
boundary
62
5
39
2
10
198.559190
20
216.577571
11
198.857165
21
217.780057
0
LINE
8
boundary
62
5
39
2
10
198.857165
20
217.780057
11
199.260259
21
219.406754
0
LINE
8
boundary
62
5
39
2
10
199.260259
20
219.406754
11
199.479772
21
220.626007
0
LINE
8
boundary
62
5
39
2
10
199.479772
20
220.626007
11
199.776724
21
222.275385
0
LINE
8
boundary
62
5
39
2
10
199.776724
20
222.275385
11
199.916855
21
223.506290
0
LINE
8
boundary
62
5
39
2
10
199.916855
20
223.506290
11
200.106422
21
225.171430
0
LINE
8
boundary
62
5
39
2
10
200.106422
20
225.171430
11
200.166584
21
226.408824
0
LINE
8
boundary
62
5
39
2
10
200.166584
20
226.408824
11
200.247971
21
228.082744
0
LINE
8
boundary
62
5
39
2
10
200.247971
20
228.082744
11
200.227911
21
229.321437
0
LINE
8
boundary
62
5
39
2
10
200.227911
20
229.321437
11
200.200775
21
230.997114
0
LINE
8
boundary
62
5
39
2
10
200.200775
20
230.997114
11
200.100575
21
232.231911
0
LINE
8
boundary
62
5
39
2
10
200.100575
20
232.231911
11
199.965027
21
233.902317
0
LINE
8
boundary
62
5
39
2
10
199.965027
20
233.902317
11
199.785110
21
235.128038
0
LINE
8
boundary
62
5
39
2
10
199.785110
20
235.128038
11
199.541722
21
236.786168
0
LINE
8
boundary
62
5
39
2
10
199.541722
20
236.786168
11
199.282841
21
237.997672
0
LINE
8
boundary
62
5
39
2
10
199.282841
20
237.997672
11
198.932632
21
239.636568
0
LINE
8
boundary
62
5
39
2
10
198.932632
20
239.636568
11
198.595874
21
240.828775
0
LINE
8
boundary
62
5
39
2
10
198.595874
20
240.828775
11
198.140314
21
242.441567
0
LINE
8
boundary
62
5
39
2
10
198.140314
20
242.441567
11
197.727092
21
243.609475
0
LINE
8
boundary
62
5
39
2
10
197.727092
20
243.609475
11
197.168093
21
245.189396
0
LINE
8
boundary
62
5
39
2
10
197.168093
20
245.189396
11
196.680138
21
246.328107
0
LINE
8
boundary
62
5
39
2
10
196.680138
20
246.328107
11
196.020043
21
247.868531
0
LINE
8
boundary
62
5
39
2
10
196.020043
20
247.868531
11
195.459403
21
248.973269
0
LINE
8
boundary
62
5
39
2
10
195.459403
20
248.973269
11
194.700980
21
250.467735
0
LINE
8
boundary
62
5
39
2
10
194.700980
20
250.467735
11
194.070006
21
251.533865
0
LINE
8
boundary
62
5
39
2
10
194.070006
20
251.533865
11
193.216439
21
252.976103
0
LINE
8
boundary
62
5
39
2
10
193.216439
20
252.976103
11
192.517777
21
253.999156
0
LINE
8
boundary
62
5
39
2
10
192.517777
20
253.999156
11
191.572643
21
255.383119
0
LINE
8
boundary
62
5
39
2
10
191.572643
20
255.383119
11
190.809225
21
256.358800
0
LINE
8
boundary
62
5
39
2
10
190.809225
20
256.358800
11
189.776490
21
257.678679
0
LINE
8
boundary
62
5
39
2
10
189.776490
20
257.678679
11
188.951518
21
258.602899
0
LINE
8
boundary
62
5
39
2
10
188.951518
20
258.602899
11
187.835514
21
259.853165
0
LINE
8
boundary
62
5
39
2
10
187.835514
20
259.853165
11
186.952445
21
260.722047
0
LINE
8
boundary
62
5
39
2
10
186.952445
20
260.722047
11
185.757849
21
261.897453
0
LINE
8
boundary
62
5
39
2
10
185.757849
20
261.897453
11
184.820392
21
262.707352
0
LINE
8
boundary
62
5
39
2
10
184.820392
20
262.707352
11
183.552221
21
263.802966
0
LINE
8
boundary
62
5
39
2
10
183.552221
20
263.802966
11
182.564304
21
264.550484
0
LINE
8
boundary
62
5
39
2
10
182.564304
20
264.550484
11
181.227872
21
265.561710
0
LINE
8
boundary
62
5
39
2
10
181.227872
20
265.561710
11
180.193640
21
266.243713
0
LINE
8
boundary
62
5
39
2
10
180.193640
20
266.243713
11
178.794555
21
267.166311
0
LINE
8
boundary
62
5
39
2
10
178.794555
20
267.166311
11
177.718347
21
267.779940
0
LINE
8
boundary
62
5
39
2
10
177.718347
20
267.779940
11
176.262477
21
268.610043
0
LINE
8
boundary
62
5
39
2
10
176.262477
20
268.610043
11
175.148805
21
269.152720
0
LINE
8
boundary
62
5
39
2
10
175.148805
20
269.152720
11
173.642255
21
269.886842
0
LINE
8
boundary
62
5
39
2
10
173.642255
20
269.886842
11
172.495792
21
270.356293
0
LINE
8
boundary
62
5
39
2
10
172.495792
20
270.356293
11
170.944881
21
270.991356
0
LINE
8
boundary
62
5
39
2
10
170.944881
20
270.991356
11
170.345526
21
271.208814
0
LINE
8
boundary
62
5
39
2
10
170.345526
20
271.208814
11
170.260687
21
271.239024
0
LINE
8
boundary
62
5
39
2
10
170.260687
20
271.239024
11
170.035310
21
271.317942
0
LINE
8
boundary
62
5
39
2
10
170.035310
20
271.317942
11
169.648800
21
271.450572
0
LINE
8
boundary
62
5
39
2
10
169.648800
20
271.450572
11
169.559411
21
271.480580
0
LINE
8
boundary
62
5
39
2
10
169.559411
20
271.480580
11
169.192337
21
271.602229
0
LINE
8
boundary
62
5
39
2
10
169.192337
20
271.602229
11
169.201619
21
262.465048
0
LINE
8
boundary
62
5
39
2
10
169.201619
20
262.465048
11
169.193401
21
253.397076
0
LINE
8
boundary
62
5
39
2
10
169.193401
20
253.397076
11
169.290060
21
253.377331
0
LINE
8
boundary
62
5
39
2
10
169.290060
20
253.377331
11
169.605406
21
253.305632
0
LINE
8
boundary
62
5
39
2
10
169.605406
20
253.305632
11
169.849762
21
253.248100
0
LINE
8
boundary
62
5
39
2
10
169.849762
20
253.248100
11
170.178502
21
253.168000
0
LINE
8
boundary
62
5
39
2
10
170.178502
20
253.168000
11
170.363311
21
253.121357
0
LINE
8
boundary
62
5
39
2
10
170.363311
20
253.121357
11
170.439055
21
253.101603
0
LINE
8
boundary
62
5
39
2
10
170.439055
20
253.101603
11
170.851475
21
252.991280
0
LINE
8
boundary
62
5
39
2
10
170.851475
20
252.991280
11
172.268675
21
252.528788
0
LINE
8
boundary
62
5
39
2
10
172.268675
20
252.528788
11
172.935448
21
252.311192
0
LINE
8
boundary
62
5
39
2
10
172.935448
20
252.311192
11
174.308726
21
251.731135
0
LINE
8
boundary
62
5
39
2
10
174.308726
20
251.731135
11
174.954834
21
251.458227
0
LINE
8
boundary
62
5
39
2
10
174.954834
20
251.458227
11
176.274456
21
250.764717
0
LINE
8
boundary
62
5
39
2
10
176.274456
20
250.764717
11
176.895320
21
250.438431
0
LINE
8
boundary
62
5
39
2
10
176.895320
20
250.438431
11
178.151935
21
249.636383
0
LINE
8
boundary
62
5
39
2
10
178.151935
20
249.636383
11
178.743155
21
249.259030
0
LINE
8
boundary
62
5
39
2
10
178.743155
20
249.259030
11
179.927852
21
248.354129
0
LINE
8
boundary
62
5
39
2
10
179.927852
20
248.354129
11
180.485236
21
247.928385
0
LINE
8
boundary
62
5
39
2
10
180.485236
20
247.928385
11
181.589623
21
246.927043
0
LINE
8
boundary
62
5
39
2
10
181.589623
20
246.927043
11
182.109222
21
246.455925
0
LINE
8
boundary
62
5
39
2
10
182.109222
20
246.455925
11
183.125471
21
245.365239
0
LINE
8
boundary
62
5
39
2
10
183.125471
20
245.365239
11
183.603602
21
244.852086
0
LINE
8
boundary
62
5
39
2
10
183.603602
20
244.852086
11
184.524509
21
243.679786
0
LINE
8
boundary
62
5
39
2
10
184.524509
20
243.679786
11
184.957783
21
243.128235
0
LINE
8
boundary
62
5
39
2
10
184.957783
20
243.128235
11
185.776825
21
241.882631
0
LINE
8
boundary
62
5
39
2
10
185.776825
20
241.882631
11
186.162172
21
241.296592
0
LINE
8
boundary
62
5
39
2
10
186.162172
20
241.296592
11
186.873541
21
239.986510
0
LINE
8
boundary
62
5
39
2
10
186.873541
20
239.986510
11
187.208230
21
239.370134
0
LINE
8
boundary
62
5
39
2
10
187.208230
20
239.370134
11
187.806883
21
238.004861
0
LINE
8
boundary
62
5
39
2
10
187.806883
20
238.004861
11
188.088542
21
237.362519
0
LINE
8
boundary
62
5
39
2
10
188.088542
20
237.362519
11
188.570235
21
235.951730
0
LINE
8
boundary
62
5
39
2
10
188.570235
20
235.951730
11
188.796865
21
235.287973
0
LINE
8
boundary
62
5
39
2
10
188.796865
20
235.287973
11
189.158190
21
233.841667
0
LINE
8
boundary
62
5
39
2
10
189.158190
20
233.841667
11
189.328189
21
233.161199
0
LINE
8
boundary
62
5
39
2
10
189.328189
20
233.161199
11
189.566584
21
231.689627
0
LINE
8
boundary
62
5
39
2
10
189.566584
20
231.689627
11
189.678746
21
230.997272
0
LINE
8
boundary
62
5
39
2
10
189.678746
20
230.997272
11
189.792517
21
229.510863
0
LINE
8
boundary
62
5
39
2
10
189.792517
20
229.510863
11
189.846044
21
228.811527
0
LINE
8
boundary
62
5
39
2
10
189.846044
20
228.811527
11
189.732273
21
227.325118
0
LINE
8
boundary
62
5
39
2
10
189.732273
20
227.325118
11
189.678746
21
226.625782
0
LINE
8
boundary
62
5
39
2
10
189.678746
20
226.625782
11
189.440350
21
225.154210
0
LINE
8
boundary
62
5
39
2
10
189.440350
20
225.154210
11
189.328189
21
224.461855
0
LINE
8
boundary
62
5
39
2
10
189.328189
20
224.461855
11
188.966864
21
223.015549
0
LINE
8
boundary
62
5
39
2
10
188.966864
20
223.015549
11
188.796865
21
222.335082
0
LINE
8
boundary
62
5
39
2
10
188.796865
20
222.335082
11
188.315172
21
220.924293
0
LINE
8
boundary
62
5
39
2
10
188.315172
20
220.924293
11
188.088542
21
220.260536
0
LINE
8
boundary
62
5
39
2
10
188.088542
20
220.260536
11
187.489888
21
218.895263
0
LINE
8
boundary
62
5
39
2
10
187.489888
20
218.895263
11
187.208230
21
218.252920
0
LINE
8
boundary
62
5
39
2
10
187.208230
20
218.252920
11
186.496861
21
216.942838
0
LINE
8
boundary
62
5
39
2
10
186.496861
20
216.942838
11
186.162172
21
216.326462
0
LINE
8
boundary
62
5
39
2
10
186.162172
20
216.326462
11
185.343131
21
215.080859
0
LINE
8
boundary
62
5
39
2
10
185.343131
20
215.080859
11
184.957783
21
214.494820
0
LINE
8
boundary
62
5
39
2
10
184.957783
20
214.494820
11
184.036876
21
213.322520
0
LINE
8
boundary
62
5
39
2
10
184.036876
20
213.322520
11
183.603602
21
212.770968
0
LINE
8
boundary
62
5
39
2
10
183.603602
20
212.770968
11
182.587353
21
211.680282
0
LINE
8
annotation
62
1
39
211
10
182.411549
20
260.858591
11
182.411549
21
262.287341
0
LINE
8
annotation
62
1
39
211
10
182.885386
20
197.228280
11
184.314136
21
197.228280
0
LINE
8
annotation
62
1
39
211
10
197.142407
20
228.811527
11
197.142407
21
230.240277
0
LINE
8
annotation
62
1
39
211
10
197.142407
20
228.811527
11
197.142407
21
230.240277
0
LINE
8
annotation
62
1
39
211
10
197.142407
20
230.240277
11
197.142407
21
228.811527
0
LINE
8
annotation
62
1
39
211
10
197.142407
20
228.811527
11
197.142407
21
227.382777
0
LINE
8
annotation
62
1
39
211
10
191.410713
20
229.143079
11
192.839463
21
229.143078
0
LINE
8
annotation
62
1
39
211
10
191.410713
20
229.143079
11
192.839463
21
229.143078
0
LINE
8
annotation
62
1
39
211
10
192.839463
20
229.143078
11
191.410713
21
229.143079
0
LINE
8
annotation
62
1
39
211
10
191.410713
20
229.143079
11
191.410712
21
227.714329
0
LINE
8
annotation
62
1
39
211
10
172.333791
20
258.029800
11
173.018017
21
258.029800
0
LINE
8
annotation
62
1
39
211
10
173.018017
20
258.029800
11
173.018017
21
258.029800
0
LINE
8
annotation
62
1
39
211
10
173.018017
20
258.029800
11
173.140822
21
258.040842
0
LINE
8
annotation
62
1
39
211
10
173.140822
20
258.040842
11
173.256482
21
258.072675
0
LINE
8
annotation
62
1
39
211
10
173.256482
20
258.072675
11
173.363047
21
258.123359
0
LINE
8
annotation
62
1
39
211
10
173.363047
20
258.123359
11
173.458566
21
258.190958
0
LINE
8
annotation
62
1
39
211
10
173.458566
20
258.190958
11
173.541090
21
258.273531
0
LINE
8
annotation
62
1
39
211
10
173.541090
20
258.273531
11
173.608670
21
258.369140
0
LINE
8
annotation
62
1
39
211
10
173.608670
20
258.369140
11
173.659355
21
258.475847
0
LINE
8
annotation
62
1
39
211
10
173.659355
20
258.475847
11
173.691196
21
258.591713
0
LINE
8
annotation
62
1
39
211
10
173.691196
20
258.591713
11
173.702243
21
258.714799
0
LINE
8
annotation
62
1
39
211
10
173.702243
20
258.714799
11
173.702243
21
259.055656
0
LINE
8
annotation
62
1
39
211
10
173.702243
20
259.055656
11
173.702243
21
259.055656
0
LINE
8
annotation
62
1
39
211
10
173.702243
20
259.055656
11
173.691203
21
259.178683
0
LINE
8
annotation
62
1
39
211
10
173.691203
20
259.178683
11
173.659377
21
259.294389
0
LINE
8
annotation
62
1
39
211
10
173.659377
20
259.294389
11
173.608713
21
259.400864
0
LINE
8
annotation
62
1
39
211
10
173.608713
20
259.400864
11
173.541154
21
259.496199
0
LINE
8
annotation
62
1
39
211
10
173.541154
20
259.496199
11
173.458645
21
259.578484
0
LINE
8
annotation
62
1
39
211
10
173.458645
20
259.578484
11
173.363132
21
259.645808
0
LINE
8
annotation
62
1
39
211
10
173.363132
20
259.645808
11
173.256560
21
259.696261
0
LINE
8
annotation
62
1
39
211
10
173.256560
20
259.696261
11
173.140873
21
259.727934
0
LINE
8
annotation
62
1
39
211
10
173.140873
20
259.727934
11
173.018017
21
259.738916
0
LINE
8
annotation
62
1
39
211
10
173.018017
20
259.738916
11
172.333791
21
259.738916
0
LINE
8
annotation
62
1
39
211
10
172.333791
20
259.738916
11
172.333791
21
261.111039
0
LINE
8
annotation
62
1
39
211
10
172.333791
20
261.111039
11
173.702243
21
261.111039
0
LINE
8
annotation
62
1
39
211
10
176.542766
20
259.570420
11
174.857997
21
259.570420
0
LINE
8
annotation
62
1
39
211
10
178.383036
20
258.029800
11
178.383036
21
261.111039
0
LINE
8
annotation
62
1
39
211
10
178.383036
20
261.111039
11
177.698037
21
260.425847
0
LINE
8
frame
62
5
39
2
10
0.000000
20
0.000000
11
215.900000
21
0.000000
0
LINE
8
frame
62
5
39
2
10
215.900000
20
0.000000
11
215.900000
21
279.400000
0
LINE
8
frame
62
5
39
2
10
215.900000
20
279.400000
11
0.000000
21
279.400000
0
LINE
8
frame
62
5
39
2
10
0.000000
20
279.400000
11
0.000000
21
0.000000
0
ENDSEC
0
EOF
