0
SECTION
2
HEADER
9
$ACADVER
1
AC1009
0
ENDSEC
0
SECTION
2
TABLES
0
TABLE
2
VPORT
70
1
0
VPORT
2
ACTIVE
70
0
10
0.0
20
0.0
11
0.0
21
0.0
12
0.0
22
0.0
13
0.0
23
0.0
14
0.0
24
0.0
15
0.0
25
0.0
16
0.0
26
0.0
36
0.0
17
0.0
27
0.0
37
0.0
40
0.0
41
0.0
42
0.0
43
0.0
44
0.0
50
0.0
51
0.0
71
0
72
1000
73
1
74
3
75
0
76
0
77
0
78
0
0
ENDTAB
0
ENDSEC
0
SECTION
2
ENTITIES
0
LINE
8
hole
62
5
39
2
10
77.966162
20
83.939620
11
78.537662
21
83.939620
0
LINE
8
hole
62
5
39
2
10
78.537662
20
83.939620
11
78.537662
21
84.511120
0
LINE
8
hole
62
5
39
2
10
78.537662
20
84.511120
11
77.966162
21
84.511120
0
LINE
8
hole
62
5
39
2
10
77.966162
20
84.511120
11
77.966162
21
83.939620
0
LINE
8
hole
62
5
39
2
10
77.966162
20
18.835676
11
78.537662
21
18.835676
0
LINE
8
hole
62
5
39
2
10
78.537662
20
18.835676
11
78.537662
21
19.407176
0
LINE
8
hole
62
5
39
2
10
78.537662
20
19.407176
11
77.966162
21
19.407176
0
LINE
8
hole
62
5
39
2
10
77.966162
20
19.407176
11
77.966162
21
18.835676
0
LINE
8
hole
62
5
39
2
10
26.226081
20
84.892120
11
26.797581
21
84.892120
0
LINE
8
hole
62
5
39
2
10
26.797581
20
84.892120
11
26.797581
21
85.463620
0
LINE
8
hole
62
5
39
2
10
26.797581
20
85.463620
11
26.226081
21
85.463620
0
LINE
8
hole
62
5
39
2
10
26.226081
20
85.463620
11
26.226081
21
84.892120
0
LINE
8
hole
62
5
39
2
10
26.226081
20
17.883176
11
26.797581
21
17.883176
0
LINE
8
hole
62
5
39
2
10
26.797581
20
17.883176
11
26.797581
21
18.454676
0
LINE
8
hole
62
5
39
2
10
26.797581
20
18.454676
11
26.226081
21
18.454676
0
LINE
8
hole
62
5
39
2
10
26.226081
20
18.454676
11
26.226081
21
17.883176
0
LINE
8
hole
62
5
39
2
10
87.619869
20
51.624593
11
88.191369
21
51.624593
0
LINE
8
hole
62
5
39
2
10
88.191369
20
51.624593
11
88.191369
21
52.196093
0
LINE
8
hole
62
5
39
2
10
88.191369
20
52.196093
11
87.619869
21
52.196093
0
LINE
8
hole
62
5
39
2
10
87.619869
20
52.196093
11
87.619869
21
51.624593
0
LINE
8
hole
62
5
39
2
10
15.143624
20
51.624593
11
15.715124
21
51.624593
0
LINE
8
hole
62
5
39
2
10
15.715124
20
51.624593
11
15.715124
21
52.196093
0
LINE
8
hole
62
5
39
2
10
15.715124
20
52.196093
11
15.143624
21
52.196093
0
LINE
8
hole
62
5
39
2
10
15.143624
20
52.196093
11
15.143624
21
51.624593
0
LINE
8
hole
62
5
39
2
10
78.528554
20
34.028840
11
76.904555
21
32.556397
0
LINE
8
hole
62
5
39
2
10
76.904555
20
32.556397
11
75.162462
21
31.225769
0
LINE
8
hole
62
5
39
2
10
75.162462
20
31.225769
11
73.314618
21
30.046387
0
LINE
8
hole
62
5
39
2
10
73.314618
20
30.046387
11
71.374123
21
29.026611
0
LINE
8
hole
62
5
39
2
10
71.374123
20
29.026611
11
69.354731
21
28.173665
0
LINE
8
hole
62
5
39
2
10
69.354731
20
28.173665
11
67.270753
21
27.493597
0
LINE
8
hole
62
5
39
2
10
67.270753
20
27.493597
11
65.136956
21
26.991228
0
LINE
8
hole
62
5
39
2
10
65.136956
20
26.991228
11
62.968715
21
26.670130
0
LINE
8
hole
62
5
39
2
10
62.968715
20
26.670130
11
40.368849
21
26.670130
0
LINE
8
hole
62
5
39
2
10
40.368849
20
26.670130
11
40.366279
21
26.670130
0
LINE
8
hole
62
5
39
2
10
40.366279
20
26.670130
11
38.197550
21
26.991321
0
LINE
8
hole
62
5
39
2
10
38.197550
20
26.991321
11
36.063763
21
27.493732
0
LINE
8
hole
62
5
39
2
10
36.063763
20
27.493732
11
33.979797
21
28.173839
0
LINE
8
hole
62
5
39
2
10
33.979797
20
28.173839
11
31.960421
21
29.026823
0
LINE
8
hole
62
5
39
2
10
31.960421
20
29.026823
11
30.020155
21
30.046503
0
LINE
8
hole
62
5
39
2
10
30.020155
20
30.046503
11
28.172322
21
31.225903
0
LINE
8
hole
62
5
39
2
10
28.172322
20
31.225903
11
26.430057
21
32.556714
0
LINE
8
hole
62
5
39
2
10
26.430057
20
32.556714
11
24.806086
21
34.029189
0
LINE
8
hole
62
5
39
2
10
24.806086
20
34.029189
11
23.311723
21
35.633041
0
LINE
8
hole
62
5
39
2
10
23.311723
20
35.633041
11
21.957560
21
37.356904
0
LINE
8
hole
62
5
39
2
10
21.957560
20
37.356904
11
20.753188
21
39.188557
0
LINE
8
hole
62
5
39
2
10
20.753188
20
39.188557
11
19.707150
21
41.115023
0
LINE
8
hole
62
5
39
2
10
19.707150
20
41.115023
11
18.826858
21
43.122645
0
LINE
8
hole
62
5
39
2
10
18.826858
20
43.122645
11
18.118555
21
45.197196
0
LINE
8
hole
62
5
39
2
10
18.118555
20
45.197196
11
17.587252
21
47.323973
0
LINE
8
hole
62
5
39
2
10
17.587252
20
47.323973
11
17.236716
21
49.487902
0
LINE
8
hole
62
5
39
2
10
17.236716
20
49.487902
11
17.069436
21
51.673398
0
LINE
8
hole
62
5
39
2
10
17.069436
20
51.673398
11
17.236775
21
53.859387
0
LINE
8
hole
62
5
39
2
10
17.236775
20
53.859387
11
17.587352
21
56.023309
0
LINE
8
hole
62
5
39
2
10
17.587352
20
56.023309
11
18.118695
21
58.150076
0
LINE
8
hole
62
5
39
2
10
18.118695
20
58.150076
11
18.827038
21
60.224614
0
LINE
8
hole
62
5
39
2
10
18.827038
20
60.224614
11
19.707368
21
62.232219
0
LINE
8
hole
62
5
39
2
10
19.707368
20
62.232219
11
20.753443
21
64.158666
0
LINE
8
hole
62
5
39
2
10
20.753443
20
64.158666
11
21.957850
21
65.990295
0
LINE
8
hole
62
5
39
2
10
21.957850
20
65.990295
11
23.312046
21
67.714132
0
LINE
8
hole
62
5
39
2
10
23.312046
20
67.714132
11
24.806440
21
69.317956
0
LINE
8
hole
62
5
39
2
10
24.806440
20
69.317956
11
26.430439
21
70.790399
0
LINE
8
hole
62
5
39
2
10
26.430439
20
70.790399
11
28.172531
21
72.121027
0
LINE
8
hole
62
5
39
2
10
28.172531
20
72.121027
11
30.020375
21
73.300409
0
LINE
8
hole
62
5
39
2
10
30.020375
20
73.300409
11
31.960870
21
74.320185
0
LINE
8
hole
62
5
39
2
10
31.960870
20
74.320185
11
33.980262
21
75.173131
0
LINE
8
hole
62
5
39
2
10
33.980262
20
75.173131
11
36.064241
21
75.853199
0
LINE
8
hole
62
5
39
2
10
36.064241
20
75.853199
11
38.198037
21
76.355568
0
LINE
8
hole
62
5
39
2
10
38.198037
20
76.355568
11
40.366279
21
76.676666
0
LINE
8
hole
62
5
39
2
10
40.366279
20
76.676666
11
62.966144
21
76.676666
0
LINE
8
hole
62
5
39
2
10
62.966144
20
76.676666
11
62.968715
21
76.676666
0
LINE
8
hole
62
5
39
2
10
62.968715
20
76.676666
11
65.137444
21
76.355475
0
LINE
8
hole
62
5
39
2
10
65.137444
20
76.355475
11
67.271231
21
75.853065
0
LINE
8
hole
62
5
39
2
10
67.271231
20
75.853065
11
69.355197
21
75.172957
0
LINE
8
hole
62
5
39
2
10
69.355197
20
75.172957
11
71.374572
21
74.319973
0
LINE
8
hole
62
5
39
2
10
71.374572
20
74.319973
11
73.314838
21
73.300293
0
LINE
8
hole
62
5
39
2
10
73.314838
20
73.300293
11
75.162672
21
72.120893
0
LINE
8
hole
62
5
39
2
10
75.162672
20
72.120893
11
76.904936
21
70.790082
0
LINE
8
hole
62
5
39
2
10
76.904936
20
70.790082
11
78.528908
21
69.317607
0
LINE
8
hole
62
5
39
2
10
78.528908
20
69.317607
11
80.023270
21
67.713755
0
LINE
8
hole
62
5
39
2
10
80.023270
20
67.713755
11
81.377434
21
65.989892
0
LINE
8
hole
62
5
39
2
10
81.377434
20
65.989892
11
82.581805
21
64.158240
0
LINE
8
hole
62
5
39
2
10
82.581805
20
64.158240
11
83.627843
21
62.231773
0
LINE
8
hole
62
5
39
2
10
83.627843
20
62.231773
11
84.508136
21
60.224151
0
LINE
8
hole
62
5
39
2
10
84.508136
20
60.224151
11
85.216439
21
58.149600
0
LINE
8
hole
62
5
39
2
10
85.216439
20
58.149600
11
85.747742
21
56.022823
0
LINE
8
hole
62
5
39
2
10
85.747742
20
56.022823
11
86.098278
21
53.858895
0
LINE
8
hole
62
5
39
2
10
86.098278
20
53.858895
11
86.265557
21
51.673398
0
LINE
8
hole
62
5
39
2
10
86.265557
20
51.673398
11
86.098219
21
49.487409
0
LINE
8
hole
62
5
39
2
10
86.098219
20
49.487409
11
85.747641
21
47.323487
0
LINE
8
hole
62
5
39
2
10
85.747641
20
47.323487
11
85.216298
21
45.196720
0
LINE
8
hole
62
5
39
2
10
85.216298
20
45.196720
11
84.507955
21
43.122182
0
LINE
8
hole
62
5
39
2
10
84.507955
20
43.122182
11
83.627625
21
41.114577
0
LINE
8
hole
62
5
39
2
10
83.627625
20
41.114577
11
82.581550
21
39.188130
0
LINE
8
hole
62
5
39
2
10
82.581550
20
39.188130
11
81.377144
21
37.356501
0
LINE
8
hole
62
5
39
2
10
81.377144
20
37.356501
11
80.022947
21
35.632663
0
LINE
8
hole
62
5
39
2
10
80.022947
20
35.632663
11
78.528554
21
34.028840
0
LINE
8
boundary
62
5
39
2
10
83.232758
20
19.592792
11
84.489249
21
20.911856
0
LINE
8
boundary
62
5
39
2
10
84.489249
20
20.911856
11
85.243133
21
21.703283
0
LINE
8
boundary
62
5
39
2
10
85.243133
20
21.703283
11
86.411606
21
23.100914
0
LINE
8
boundary
62
5
39
2
10
86.411606
20
23.100914
11
87.112681
21
23.939480
0
LINE
8
boundary
62
5
39
2
10
87.112681
20
23.939480
11
88.188232
21
25.409816
0
LINE
8
boundary
62
5
39
2
10
88.188232
20
25.409816
11
88.833554
21
26.292005
0
LINE
8
boundary
62
5
39
2
10
88.833554
20
26.292005
11
89.811678
21
27.828877
0
LINE
8
boundary
62
5
39
2
10
89.811678
20
27.828877
11
90.398545
21
28.750987
0
LINE
8
boundary
62
5
39
2
10
90.398545
20
28.750987
11
91.275133
21
30.347949
0
LINE
8
boundary
62
5
39
2
10
91.275133
20
30.347949
11
91.801078
21
31.306112
0
LINE
8
boundary
62
5
39
2
10
91.801078
20
31.306112
11
92.572461
21
32.956467
0
LINE
8
boundary
62
5
39
2
10
92.572461
20
32.956467
11
93.035284
21
33.946666
0
LINE
8
boundary
62
5
39
2
10
93.035284
20
33.946666
11
93.698222
21
35.643491
0
LINE
8
boundary
62
5
39
2
10
93.698222
20
35.643491
11
94.095978
21
36.661572
0
LINE
8
boundary
62
5
39
2
10
94.095978
20
36.661572
11
94.647690
21
38.397749
0
LINE
8
boundary
62
5
39
2
10
94.647690
20
38.397749
11
94.978713
21
39.439441
0
LINE
8
boundary
62
5
39
2
10
94.978713
20
39.439441
11
95.416883
21
41.207690
0
LINE
8
boundary
62
5
39
2
10
95.416883
20
41.207690
11
95.679781
21
42.268624
0
LINE
8
boundary
62
5
39
2
10
95.679781
20
42.268624
11
96.002574
21
44.061529
0
LINE
8
boundary
62
5
39
2
10
96.002574
20
44.061529
11
96.196247
21
45.137256
0
LINE
8
boundary
62
5
39
2
10
96.196247
20
45.137256
11
96.402309
21
46.947294
0
LINE
8
boundary
62
5
39
2
10
96.402309
20
46.947294
11
96.525944
21
48.033301
0
LINE
8
boundary
62
5
39
2
10
96.525944
20
48.033301
11
96.614413
21
49.852881
0
LINE
8
boundary
62
5
39
2
10
96.614413
20
49.852881
11
96.667494
21
50.944614
0
LINE
8
boundary
62
5
39
2
10
96.667494
20
50.944614
11
96.637996
21
52.766105
0
LINE
8
boundary
62
5
39
2
10
96.637996
20
52.766105
11
96.620297
21
53.858985
0
LINE
8
boundary
62
5
39
2
10
96.620297
20
53.858985
11
96.472954
21
55.674746
0
LINE
8
boundary
62
5
39
2
10
96.472954
20
55.674746
11
96.384550
21
56.764187
0
LINE
8
boundary
62
5
39
2
10
96.384550
20
56.764187
11
96.119982
21
58.566604
0
LINE
8
boundary
62
5
39
2
10
96.119982
20
58.566604
11
95.961244
21
59.648038
0
LINE
8
boundary
62
5
39
2
10
95.961244
20
59.648038
11
95.580561
21
61.429548
0
LINE
8
boundary
62
5
39
2
10
95.580561
20
61.429548
11
95.352155
21
62.498439
0
LINE
8
boundary
62
5
39
2
10
95.352155
20
62.498439
11
94.856953
21
64.251572
0
LINE
8
boundary
62
5
39
2
10
94.856953
20
64.251572
11
94.559837
21
65.303437
0
LINE
8
boundary
62
5
39
2
10
94.559837
20
65.303437
11
93.952195
21
67.020840
0
LINE
8
boundary
62
5
39
2
10
93.952195
20
67.020840
11
93.587615
21
68.051267
0
LINE
8
boundary
62
5
39
2
10
93.587615
20
68.051267
11
92.870081
21
69.725735
0
LINE
8
boundary
62
5
39
2
10
92.870081
20
69.725735
11
92.439566
21
70.730402
0
LINE
8
boundary
62
5
39
2
10
92.439566
20
70.730402
11
91.615147
21
72.354913
0
LINE
8
boundary
62
5
39
2
10
91.615147
20
72.354913
11
91.120503
21
73.329606
0
LINE
8
boundary
62
5
39
2
10
91.120503
20
73.329606
11
90.192659
21
74.897344
0
LINE
8
boundary
62
5
39
2
10
90.192659
20
74.897344
11
89.635961
21
75.837973
0
LINE
8
boundary
62
5
39
2
10
89.635961
20
75.837973
11
88.608584
21
77.342366
0
LINE
8
boundary
62
5
39
2
10
88.608584
20
77.342366
11
87.992166
21
78.244989
0
LINE
8
boundary
62
5
39
2
10
87.992166
20
78.244989
11
86.869564
21
79.679722
0
LINE
8
boundary
62
5
39
2
10
86.869564
20
79.679722
11
86.196012
21
80.540550
0
LINE
8
boundary
62
5
39
2
10
86.196012
20
80.540550
11
84.982896
21
81.899610
0
LINE
8
boundary
62
5
39
2
10
84.982896
20
81.899610
11
84.255036
21
82.715035
0
LINE
8
boundary
62
5
39
2
10
84.255036
20
82.715035
11
82.956489
21
83.992722
0
LINE
8
boundary
62
5
39
2
10
82.956489
20
83.992722
11
82.177371
21
84.759324
0
LINE
8
boundary
62
5
39
2
10
82.177371
20
84.759324
11
80.798847
21
85.950275
0
LINE
8
boundary
62
5
39
2
10
80.798847
20
85.950275
11
79.971744
21
86.664836
0
LINE
8
boundary
62
5
39
2
10
79.971744
20
86.664836
11
78.519018
21
87.764057
0
LINE
8
boundary
62
5
39
2
10
78.519018
20
87.764057
11
77.647394
21
88.423580
0
LINE
8
boundary
62
5
39
2
10
77.647394
20
88.423580
11
76.126563
21
89.426462
0
LINE
8
boundary
62
5
39
2
10
76.126563
20
89.426462
11
75.214078
21
90.028182
0
LINE
8
boundary
62
5
39
2
10
75.214078
20
90.028182
11
73.631521
21
90.930519
0
LINE
8
boundary
62
5
39
2
10
73.631521
20
90.930519
11
72.681999
21
91.471914
0
LINE
8
boundary
62
5
39
2
10
72.681999
20
91.471914
11
71.044352
21
92.269917
0
LINE
8
boundary
62
5
39
2
10
71.044352
20
92.269917
11
70.061777
21
92.748713
0
LINE
8
boundary
62
5
39
2
10
70.061777
20
92.748713
11
68.375910
21
93.439038
0
LINE
8
boundary
62
5
39
2
10
68.375910
20
93.439038
11
67.364404
21
93.853227
0
LINE
8
boundary
62
5
39
2
10
67.364404
20
93.853227
11
66.973503
21
93.995053
0
LINE
8
boundary
62
5
39
2
10
66.973503
20
93.995053
11
66.918171
21
94.014756
0
LINE
8
boundary
62
5
39
2
10
66.918171
20
94.014756
11
66.771180
21
94.066227
0
LINE
8
boundary
62
5
39
2
10
66.771180
20
94.066227
11
66.519098
21
94.152729
0
LINE
8
boundary
62
5
39
2
10
66.519098
20
94.152729
11
65.499757
21
94.494918
0
LINE
8
boundary
62
5
39
2
10
65.499757
20
94.494918
11
65.204727
21
94.592691
0
LINE
8
boundary
62
5
39
2
10
65.204727
20
94.592691
11
64.788835
21
94.723656
0
LINE
8
boundary
62
5
39
2
10
64.788835
20
94.723656
11
64.249674
21
94.883647
0
LINE
8
boundary
62
5
39
2
10
64.249674
20
94.883647
11
63.591355
21
95.066228
0
LINE
8
boundary
62
5
39
2
10
63.591355
20
95.066228
11
62.855644
21
95.261234
0
LINE
8
boundary
62
5
39
2
10
62.855644
20
95.261234
11
62.161545
21
95.438221
0
LINE
8
boundary
62
5
39
2
10
62.161545
20
95.438221
11
61.338676
21
95.626874
0
LINE
8
boundary
62
5
39
2
10
61.338676
20
95.626874
11
60.368313
21
95.824115
0
LINE
8
boundary
62
5
39
2
10
60.368313
20
95.824115
11
59.842833
21
95.927535
0
LINE
8
boundary
62
5
39
2
10
59.842833
20
95.927535
11
58.803168
21
96.109508
0
LINE
8
boundary
62
5
39
2
10
58.803168
20
96.109508
11
57.638438
21
96.278388
0
LINE
8
boundary
62
5
39
2
10
57.638438
20
96.278388
11
57.234922
21
96.330957
0
LINE
8
boundary
62
5
39
2
10
57.234922
20
96.330957
11
56.020000
21
96.468225
0
LINE
8
boundary
62
5
39
2
10
56.020000
20
96.468225
11
54.730686
21
96.572578
0
LINE
8
boundary
62
5
39
2
10
54.730686
20
96.572578
11
54.410464
21
96.593350
0
LINE
8
boundary
62
5
39
2
10
54.410464
20
96.593350
11
53.111551
21
96.655993
0
LINE
8
boundary
62
5
39
2
10
53.111551
20
96.655993
11
51.813246
21
96.676936
0
LINE
8
boundary
62
5
39
2
10
51.813246
20
96.676936
11
51.521748
21
96.676936
0
LINE
8
boundary
62
5
39
2
10
51.521748
20
96.676936
11
50.223442
21
96.655993
0
LINE
8
boundary
62
5
39
2
10
50.223442
20
96.655993
11
48.924529
21
96.593350
0
LINE
8
boundary
62
5
39
2
10
48.924529
20
96.593350
11
48.604308
21
96.572578
0
LINE
8
boundary
62
5
39
2
10
48.604308
20
96.572578
11
47.314994
21
96.468224
0
LINE
8
boundary
62
5
39
2
10
47.314994
20
96.468224
11
46.100071
21
96.330957
0
LINE
8
boundary
62
5
39
2
10
46.100071
20
96.330957
11
45.696555
21
96.278388
0
LINE
8
boundary
62
5
39
2
10
45.696555
20
96.278388
11
44.531826
21
96.109508
0
LINE
8
boundary
62
5
39
2
10
44.531826
20
96.109508
11
43.492161
21
95.927535
0
LINE
8
boundary
62
5
39
2
10
43.492161
20
95.927535
11
42.966680
21
95.824115
0
LINE
8
boundary
62
5
39
2
10
42.966680
20
95.824115
11
41.996317
21
95.626874
0
LINE
8
boundary
62
5
39
2
10
41.996317
20
95.626874
11
41.173449
21
95.438221
0
LINE
8
boundary
62
5
39
2
10
41.173449
20
95.438221
11
40.479350
21
95.261234
0
LINE
8
boundary
62
5
39
2
10
40.479350
20
95.261234
11
39.743638
21
95.066228
0
LINE
8
boundary
62
5
39
2
10
39.743638
20
95.066228
11
39.085320
21
94.883647
0
LINE
8
boundary
62
5
39
2
10
39.085320
20
94.883647
11
38.546158
21
94.723656
0
LINE
8
boundary
62
5
39
2
10
38.546158
20
94.723656
11
38.130266
21
94.592691
0
LINE
8
boundary
62
5
39
2
10
38.130266
20
94.592691
11
37.835237
21
94.494918
0
LINE
8
boundary
62
5
39
2
10
37.835237
20
94.494918
11
36.815896
21
94.152729
0
LINE
8
boundary
62
5
39
2
10
36.815896
20
94.152729
11
36.563814
21
94.066227
0
LINE
8
boundary
62
5
39
2
10
36.563814
20
94.066227
11
36.416822
21
94.014756
0
LINE
8
boundary
62
5
39
2
10
36.416822
20
94.014756
11
36.361490
21
93.995053
0
LINE
8
boundary
62
5
39
2
10
36.361490
20
93.995053
11
35.970590
21
93.853227
0
LINE
8
boundary
62
5
39
2
10
35.970590
20
93.853227
11
34.284722
21
93.162902
0
LINE
8
boundary
62
5
39
2
10
34.284722
20
93.162902
11
33.273216
21
92.748713
0
LINE
8
boundary
62
5
39
2
10
33.273216
20
92.748713
11
31.635569
21
91.950709
0
LINE
8
boundary
62
5
39
2
10
31.635569
20
91.950709
11
30.652994
21
91.471914
0
LINE
8
boundary
62
5
39
2
10
30.652994
20
91.471914
11
29.070437
21
90.569577
0
LINE
8
boundary
62
5
39
2
10
29.070437
20
90.569577
11
28.120916
21
90.028182
0
LINE
8
boundary
62
5
39
2
10
28.120916
20
90.028182
11
26.600085
21
89.025301
0
LINE
8
boundary
62
5
39
2
10
26.600085
20
89.025301
11
25.687599
21
88.423580
0
LINE
8
boundary
62
5
39
2
10
25.687599
20
88.423580
11
24.234873
21
87.324360
0
LINE
8
boundary
62
5
39
2
10
24.234873
20
87.324360
11
23.363250
21
86.664837
0
LINE
8
boundary
62
5
39
2
10
23.363250
20
86.664837
11
21.984725
21
85.473885
0
LINE
8
boundary
62
5
39
2
10
21.984725
20
85.473885
11
21.157622
21
84.759324
0
LINE
8
boundary
62
5
39
2
10
21.157622
20
84.759324
11
19.859075
21
83.481637
0
LINE
8
boundary
62
5
39
2
10
19.859075
20
83.481637
11
19.079957
21
82.715035
0
LINE
8
boundary
62
5
39
2
10
19.079957
20
82.715035
11
17.866841
21
81.355975
0
LINE
8
boundary
62
5
39
2
10
17.866841
20
81.355975
11
17.138981
21
80.540549
0
LINE
8
boundary
62
5
39
2
10
17.138981
20
80.540549
11
16.016379
21
79.105817
0
LINE
8
boundary
62
5
39
2
10
16.016379
20
79.105817
11
15.342827
21
78.244990
0
LINE
8
boundary
62
5
39
2
10
15.342827
20
78.244990
11
14.315450
21
76.740597
0
LINE
8
boundary
62
5
39
2
10
14.315450
20
76.740597
11
13.699032
21
75.837973
0
LINE
8
boundary
62
5
39
2
10
13.699032
20
75.837973
11
12.771189
21
74.270235
0
LINE
8
boundary
62
5
39
2
10
12.771189
20
74.270235
11
12.214491
21
73.329605
0
LINE
8
boundary
62
5
39
2
10
12.214491
20
73.329605
11
11.390072
21
71.705095
0
LINE
8
boundary
62
5
39
2
10
11.390072
20
71.705095
11
10.895427
21
70.730402
0
LINE
8
boundary
62
5
39
2
10
10.895427
20
70.730402
11
10.177893
21
69.055934
0
LINE
8
boundary
62
5
39
2
10
10.177893
20
69.055934
11
9.747378
21
68.051267
0
LINE
8
boundary
62
5
39
2
10
9.747378
20
68.051267
11
9.139736
21
66.333865
0
LINE
8
boundary
62
5
39
2
10
9.139736
20
66.333865
11
8.775157
21
65.303438
0
LINE
8
boundary
62
5
39
2
10
8.775157
20
65.303438
11
8.279955
21
63.550304
0
LINE
8
boundary
62
5
39
2
10
8.279955
20
63.550304
11
7.982839
21
62.498439
0
LINE
8
boundary
62
5
39
2
10
7.982839
20
62.498439
11
7.602156
21
60.716929
0
LINE
8
boundary
62
5
39
2
10
7.602156
20
60.716929
11
7.373749
21
59.648038
0
LINE
8
boundary
62
5
39
2
10
7.373749
20
59.648038
11
7.109182
21
57.845622
0
LINE
8
boundary
62
5
39
2
10
7.109182
20
57.845622
11
6.950444
21
56.764187
0
LINE
8
boundary
62
5
39
2
10
6.950444
20
56.764187
11
6.803101
21
54.948426
0
LINE
8
boundary
62
5
39
2
10
6.803101
20
54.948426
11
6.714696
21
53.858985
0
LINE
8
boundary
62
5
39
2
10
6.714696
20
53.858985
11
6.685198
21
52.037494
0
LINE
8
boundary
62
5
39
2
10
6.685198
20
52.037494
11
6.667500
21
50.944614
0
LINE
8
boundary
62
5
39
2
10
6.667500
20
50.944614
11
6.755969
21
49.125034
0
LINE
8
boundary
62
5
39
2
10
6.755969
20
49.125034
11
6.809049
21
48.033301
0
LINE
8
boundary
62
5
39
2
10
6.809049
20
48.033301
11
7.015111
21
46.223264
0
LINE
8
boundary
62
5
39
2
10
7.015111
20
46.223264
11
7.138747
21
45.137256
0
LINE
8
boundary
62
5
39
2
10
7.138747
20
45.137256
11
7.461539
21
43.344352
0
LINE
8
boundary
62
5
39
2
10
7.461539
20
43.344352
11
7.655212
21
42.268625
0
LINE
8
boundary
62
5
39
2
10
7.655212
20
42.268625
11
8.093382
21
40.500376
0
LINE
8
boundary
62
5
39
2
10
8.093382
20
40.500376
11
8.356281
21
39.439441
0
LINE
8
boundary
62
5
39
2
10
8.356281
20
39.439441
11
8.907993
21
37.703264
0
LINE
8
boundary
62
5
39
2
10
8.907993
20
37.703264
11
9.239015
21
36.661572
0
LINE
8
boundary
62
5
39
2
10
9.239015
20
36.661572
11
9.901952
21
34.964747
0
LINE
8
boundary
62
5
39
2
10
9.901952
20
34.964747
11
10.299709
21
33.946666
0
LINE
8
boundary
62
5
39
2
10
10.299709
20
33.946666
11
11.071092
21
32.296311
0
LINE
8
boundary
62
5
39
2
10
11.071092
20
32.296311
11
11.533915
21
31.306112
0
LINE
8
boundary
62
5
39
2
10
11.533915
20
31.306112
11
12.410503
21
29.709151
0
LINE
8
boundary
62
5
39
2
10
12.410503
20
29.709151
11
12.936449
21
28.750987
0
LINE
8
boundary
62
5
39
2
10
12.936449
20
28.750987
11
13.914573
21
27.214115
0
LINE
8
boundary
62
5
39
2
10
13.914573
20
27.214115
11
14.501439
21
26.292005
0
LINE
8
boundary
62
5
39
2
10
14.501439
20
26.292005
11
15.576991
21
24.821669
0
LINE
8
boundary
62
5
39
2
10
15.576991
20
24.821669
11
16.222313
21
23.939480
0
LINE
8
boundary
62
5
39
2
10
16.222313
20
23.939480
11
17.390786
21
22.541850
0
LINE
8
boundary
62
5
39
2
10
17.390786
20
22.541850
11
18.091860
21
21.703283
0
LINE
8
boundary
62
5
39
2
10
18.091860
20
21.703283
11
19.348352
21
20.384219
0
LINE
8
boundary
62
5
39
2
10
19.348352
20
20.384219
11
20.102236
21
19.592792
0
LINE
8
boundary
62
5
39
2
10
20.102236
20
19.592792
11
21.441475
21
18.357825
0
LINE
8
boundary
62
5
39
2
10
21.441475
20
18.357825
11
22.245007
21
17.616856
0
LINE
8
boundary
62
5
39
2
10
22.245007
20
17.616856
11
23.661373
21
16.471170
0
LINE
8
boundary
62
5
39
2
10
23.661373
20
16.471170
11
24.511181
21
15.783768
0
LINE
8
boundary
62
5
39
2
10
24.511181
20
15.783768
11
25.998740
21
14.732165
0
LINE
8
boundary
62
5
39
2
10
25.998740
20
14.732165
11
26.891262
21
14.101212
0
LINE
8
boundary
62
5
39
2
10
26.891262
20
14.101212
11
28.443772
21
13.148103
0
LINE
8
boundary
62
5
39
2
10
28.443772
20
13.148103
11
29.375265
21
12.576245
0
LINE
8
boundary
62
5
39
2
10
29.375265
20
12.576245
11
30.986213
21
11.725629
0
LINE
8
boundary
62
5
39
2
10
30.986213
20
11.725629
11
31.952768
21
11.215266
0
LINE
8
boundary
62
5
39
2
10
31.952768
20
11.215266
11
33.615397
21
10.470711
0
LINE
8
boundary
62
5
39
2
10
33.615397
20
10.470711
11
34.612960
21
10.023984
0
LINE
8
boundary
62
5
39
2
10
34.612960
20
10.023984
11
35.767520
21
9.583802
0
LINE
8
boundary
62
5
39
2
10
35.767520
20
9.583802
11
35.851415
21
9.552940
0
LINE
8
boundary
62
5
39
2
10
35.851415
20
9.552940
11
36.989087
21
9.129563
0
LINE
8
boundary
62
5
39
2
10
36.989087
20
9.129563
11
37.104551
21
9.089247
0
LINE
8
boundary
62
5
39
2
10
37.104551
20
9.089247
11
37.322795
21
9.014718
0
LINE
8
boundary
62
5
39
2
10
37.322795
20
9.014718
11
37.653943
21
8.905468
0
LINE
8
boundary
62
5
39
2
10
37.653943
20
8.905468
11
38.107281
21
8.762604
0
LINE
8
boundary
62
5
39
2
10
38.107281
20
8.762604
11
38.684572
21
8.590496
0
LINE
8
boundary
62
5
39
2
10
38.684572
20
8.590496
11
39.489981
21
8.348845
0
LINE
8
boundary
62
5
39
2
10
39.489981
20
8.348845
11
40.109915
21
8.177107
0
LINE
8
boundary
62
5
39
2
10
40.109915
20
8.177107
11
40.841575
21
7.990812
0
LINE
8
boundary
62
5
39
2
10
40.841575
20
7.990812
11
41.700902
21
7.793125
0
LINE
8
boundary
62
5
39
2
10
41.700902
20
7.793125
11
42.293948
21
7.656322
0
LINE
8
boundary
62
5
39
2
10
42.293948
20
7.656322
11
43.228583
21
7.466716
0
LINE
8
boundary
62
5
39
2
10
43.228583
20
7.466716
11
44.301854
21
7.278692
0
LINE
8
boundary
62
5
39
2
10
44.301854
20
7.278692
11
44.763017
21
7.203353
0
LINE
8
boundary
62
5
39
2
10
44.763017
20
7.203353
11
45.897887
21
7.038856
0
LINE
8
boundary
62
5
39
2
10
45.897887
20
7.038856
11
47.137386
21
6.898791
0
LINE
8
boundary
62
5
39
2
10
47.137386
20
6.898791
11
47.493163
21
6.864113
0
LINE
8
boundary
62
5
39
2
10
47.493163
20
6.864113
11
48.764250
21
6.761239
0
LINE
8
boundary
62
5
39
2
10
48.764250
20
6.761239
11
50.074199
21
6.698059
0
LINE
8
boundary
62
5
39
2
10
50.074199
20
6.698059
11
50.372842
21
6.688384
0
LINE
8
boundary
62
5
39
2
10
50.372842
20
6.688384
11
51.667497
21
6.667500
0
LINE
8
boundary
62
5
39
2
10
51.667497
20
6.667500
11
52.962151
21
6.688384
0
LINE
8
boundary
62
5
39
2
10
52.962151
20
6.688384
11
53.260794
21
6.698059
0
LINE
8
boundary
62
5
39
2
10
53.260794
20
6.698059
11
54.570743
21
6.761239
0
LINE
8
boundary
62
5
39
2
10
54.570743
20
6.761239
11
55.841830
21
6.864113
0
LINE
8
boundary
62
5
39
2
10
55.841830
20
6.864113
11
56.197607
21
6.898791
0
LINE
8
boundary
62
5
39
2
10
56.197607
20
6.898791
11
57.437106
21
7.038856
0
LINE
8
boundary
62
5
39
2
10
57.437106
20
7.038856
11
58.571976
21
7.203353
0
LINE
8
boundary
62
5
39
2
10
58.571976
20
7.203353
11
59.033139
21
7.278692
0
LINE
8
boundary
62
5
39
2
10
59.033139
20
7.278692
11
60.106410
21
7.466716
0
LINE
8
boundary
62
5
39
2
10
60.106410
20
7.466716
11
61.041046
21
7.656322
0
LINE
8
boundary
62
5
39
2
10
61.041046
20
7.656322
11
61.827182
21
7.837126
0
LINE
8
boundary
62
5
39
2
10
61.827182
20
7.837126
11
62.493418
21
7.990813
0
LINE
8
boundary
62
5
39
2
10
62.493418
20
7.990813
11
63.225079
21
8.177107
0
LINE
8
boundary
62
5
39
2
10
63.225079
20
8.177107
11
63.845012
21
8.348845
0
LINE
8
boundary
62
5
39
2
10
63.845012
20
8.348845
11
64.345672
21
8.497961
0
LINE
8
boundary
62
5
39
2
10
64.345672
20
8.497961
11
65.227713
21
8.762604
0
LINE
8
boundary
62
5
39
2
10
65.227713
20
8.762604
11
65.681050
21
8.905467
0
LINE
8
boundary
62
5
39
2
10
65.681050
20
8.905467
11
66.012198
21
9.014718
0
LINE
8
boundary
62
5
39
2
10
66.012198
20
9.014718
11
66.230442
21
9.089248
0
LINE
8
boundary
62
5
39
2
10
66.230442
20
9.089248
11
66.345906
21
9.129563
0
LINE
8
boundary
62
5
39
2
10
66.345906
20
9.129563
11
66.372330
21
9.139038
0
LINE
8
boundary
62
5
39
2
10
66.372330
20
9.139038
11
67.567473
21
9.583802
0
LINE
8
boundary
62
5
39
2
10
67.567473
20
9.583802
11
68.722033
21
10.023984
0
LINE
8
boundary
62
5
39
2
10
68.722033
20
10.023984
11
70.384662
21
10.768539
0
LINE
8
boundary
62
5
39
2
10
70.384662
20
10.768539
11
71.382226
21
11.215266
0
LINE
8
boundary
62
5
39
2
10
71.382226
20
11.215266
11
72.993173
21
12.065882
0
LINE
8
boundary
62
5
39
2
10
72.993173
20
12.065882
11
73.959729
21
12.576245
0
LINE
8
boundary
62
5
39
2
10
73.959729
20
12.576245
11
75.512238
21
13.529354
0
LINE
8
boundary
62
5
39
2
10
75.512238
20
13.529354
11
76.443731
21
14.101212
0
LINE
8
boundary
62
5
39
2
10
76.443731
20
14.101212
11
77.931289
21
15.152815
0
LINE
8
boundary
62
5
39
2
10
77.931289
20
15.152815
11
78.823812
21
15.783768
0
LINE
8
boundary
62
5
39
2
10
78.823812
20
15.783768
11
80.240178
21
16.929454
0
LINE
8
boundary
62
5
39
2
10
80.240178
20
16.929454
11
81.089986
21
17.616856
0
LINE
8
boundary
62
5
39
2
10
81.089986
20
17.616856
11
82.429225
21
18.851822
0
LINE
8
boundary
62
5
39
2
10
82.429225
20
18.851822
11
83.232758
21
19.592792
0
LINE
8
annotation
62
1
39
211
10
78.251912
20
84.225370
11
78.251912
21
85.654120
0
LINE
8
annotation
62
1
39
211
10
78.251912
20
84.225370
11
78.251912
21
85.654120
0
LINE
8
annotation
62
1
39
211
10
78.251912
20
85.654120
11
78.251912
21
84.225370
0
LINE
8
annotation
62
1
39
211
10
78.251912
20
84.225370
11
76.823163
21
84.225370
0
LINE
8
annotation
62
1
39
211
10
78.251912
20
19.121426
11
79.680662
21
19.121426
0
LINE
8
annotation
62
1
39
211
10
78.251912
20
19.121426
11
79.680662
21
19.121426
0
LINE
8
annotation
62
1
39
211
10
79.680662
20
19.121426
11
78.251912
21
19.121426
0
LINE
8
annotation
62
1
39
211
10
78.251912
20
19.121426
11
76.823163
21
19.121426
0
LINE
8
annotation
62
1
39
211
10
26.511831
20
85.177870
11
26.511831
21
86.606620
0
LINE
8
annotation
62
1
39
211
10
26.511831
20
85.177870
11
26.511831
21
86.606620
0
LINE
8
annotation
62
1
39
211
10
26.511831
20
86.606620
11
26.511831
21
85.177870
0
LINE
8
annotation
62
1
39
211
10
26.511831
20
85.177870
11
27.940581
21
85.177870
0
LINE
8
annotation
62
1
39
211
10
26.511831
20
85.177870
11
26.511831
21
86.606620
0
LINE
8
annotation
62
1
39
211
10
26.511831
20
86.606620
11
26.511831
21
85.177870
0
LINE
8
annotation
62
1
39
211
10
26.511831
20
85.177870
11
27.940581
21
85.177870
0
LINE
8
annotation
62
1
39
211
10
27.940581
20
85.177870
11
26.511831
21
85.177870
0
LINE
8
annotation
62
1
39
211
10
26.511831
20
85.177870
11
25.083081
21
85.177870
0
LINE
8
annotation
62
1
39
211
10
26.511831
20
18.168926
11
26.511831
21
16.740176
0
LINE
8
annotation
62
1
39
211
10
26.511831
20
18.168926
11
26.511831
21
16.740176
0
LINE
8
annotation
62
1
39
211
10
26.511831
20
16.740176
11
26.511831
21
18.168926
0
LINE
8
annotation
62
1
39
211
10
26.511831
20
18.168926
11
25.083081
21
18.168926
0
LINE
8
annotation
62
1
39
211
10
87.905619
20
51.910343
11
87.905619
21
53.339093
0
LINE
8
annotation
62
1
39
211
10
15.429374
20
51.910343
11
16.858124
21
51.910343
0
LINE
8
annotation
62
1
39
211
10
50.259739
20
81.974674
11
52.421062
21
91.696666
0
LINE
8
annotation
62
1
39
211
10
52.421062
20
91.696666
11
48.097806
21
91.696666
0
LINE
8
annotation
62
1
39
211
10
52.421062
20
87.367313
11
50.259739
21
87.367313
0
LINE
8
hole
62
5
39
2
10
180.794863
20
51.624593
11
181.366363
21
51.624593
0
LINE
8
hole
62
5
39
2
10
181.366363
20
51.624593
11
181.366363
21
52.196093
0
LINE
8
hole
62
5
39
2
10
181.366363
20
52.196093
11
180.794863
21
52.196093
0
LINE
8
hole
62
5
39
2
10
180.794863
20
52.196093
11
180.794863
21
51.624593
0
LINE
8
hole
62
5
39
2
10
108.318618
20
51.624593
11
108.890118
21
51.624593
0
LINE
8
hole
62
5
39
2
10
108.890118
20
51.624593
11
108.890118
21
52.196093
0
LINE
8
hole
62
5
39
2
10
108.890118
20
52.196093
11
108.318618
21
52.196093
0
LINE
8
hole
62
5
39
2
10
108.318618
20
52.196093
11
108.318618
21
51.624593
0
LINE
8
hole
62
5
39
2
10
144.556740
20
87.385146
11
145.128240
21
87.385146
0
LINE
8
hole
62
5
39
2
10
145.128240
20
87.385146
11
145.128240
21
87.956646
0
LINE
8
hole
62
5
39
2
10
145.128240
20
87.956646
11
144.556740
21
87.956646
0
LINE
8
hole
62
5
39
2
10
144.556740
20
87.956646
11
144.556740
21
87.385146
0
LINE
8
hole
62
5
39
2
10
144.556740
20
15.382127
11
145.128240
21
15.382127
0
LINE
8
hole
62
5
39
2
10
145.128240
20
15.382127
11
145.128240
21
15.953627
0
LINE
8
hole
62
5
39
2
10
145.128240
20
15.953627
11
144.556740
21
15.953627
0
LINE
8
hole
62
5
39
2
10
144.556740
20
15.953627
11
144.556740
21
15.382127
0
LINE
8
hole
62
5
39
2
10
160.153729
20
28.536113
11
159.002515
21
28.265066
0
LINE
8
hole
62
5
39
2
10
159.002515
20
28.265066
11
158.108654
21
28.054611
0
LINE
8
hole
62
5
39
2
10
158.108654
20
28.054611
11
156.971595
21
27.884330
0
LINE
8
hole
62
5
39
2
10
156.971595
20
27.884330
11
156.086230
21
27.752710
0
LINE
8
hole
62
5
39
2
10
156.086230
20
27.752710
11
146.487891
21
27.752710
0
LINE
8
hole
62
5
39
2
10
146.487891
20
27.752710
11
133.598751
21
27.752710
0
LINE
8
hole
62
5
39
2
10
133.598751
20
27.752710
11
132.713386
21
27.884330
0
LINE
8
hole
62
5
39
2
10
132.713386
20
27.884330
11
131.576326
21
28.054611
0
LINE
8
hole
62
5
39
2
10
131.576326
20
28.054611
11
130.425113
21
28.325658
0
LINE
8
hole
62
5
39
2
10
130.425113
20
28.325658
11
129.531252
21
28.536113
0
LINE
8
hole
62
5
39
2
10
129.531252
20
28.536113
11
128.406917
21
28.903031
0
LINE
8
hole
62
5
39
2
10
128.406917
20
28.903031
11
127.533926
21
29.187924
0
LINE
8
hole
62
5
39
2
10
127.533926
20
29.187924
11
126.444438
21
29.648111
0
LINE
8
hole
62
5
39
2
10
126.444438
20
29.648111
11
125.598503
21
30.005424
0
LINE
8
hole
62
5
39
2
10
125.598503
20
30.005424
11
124.551582
21
30.555620
0
LINE
8
hole
62
5
39
2
10
124.551582
20
30.555620
11
123.738700
21
30.982818
0
LINE
8
hole
62
5
39
2
10
123.738700
20
30.982818
11
122.963341
21
31.477778
0
LINE
8
hole
62
5
39
2
10
122.963341
20
31.477778
11
121.964197
21
32.115630
0
LINE
8
hole
62
5
39
2
10
121.964197
20
32.115630
11
121.235715
21
32.672146
0
LINE
8
hole
62
5
39
2
10
121.235715
20
32.672146
11
120.298048
21
33.388502
0
LINE
8
hole
62
5
39
2
10
120.298048
20
33.388502
11
119.421884
21
34.182915
0
LINE
8
hole
62
5
39
2
10
119.421884
20
34.182915
11
118.741585
21
34.799739
0
LINE
8
hole
62
5
39
2
10
118.741585
20
34.799739
11
117.935342
21
35.665034
0
LINE
8
hole
62
5
39
2
10
117.935342
20
35.665034
11
117.309337
21
36.336893
0
LINE
8
hole
62
5
39
2
10
117.309337
20
36.336893
11
116.578736
21
37.266935
0
LINE
8
hole
62
5
39
2
10
116.578736
20
37.266935
11
116.011459
21
37.989068
0
LINE
8
hole
62
5
39
2
10
116.011459
20
37.989068
11
115.361675
21
38.977268
0
LINE
8
hole
62
5
39
2
10
115.361675
20
38.977268
11
114.857150
21
39.744555
0
LINE
8
hole
62
5
39
2
10
114.857150
20
39.744555
11
114.292787
21
40.783907
0
LINE
8
hole
62
5
39
2
10
114.292787
20
40.783907
11
113.854587
21
41.590914
0
LINE
8
hole
62
5
39
2
10
113.854587
20
41.590914
11
113.379645
21
42.674052
0
LINE
8
hole
62
5
39
2
10
113.379645
20
42.674052
11
113.010877
21
43.515056
0
LINE
8
hole
62
5
39
2
10
113.010877
20
43.515056
11
112.628724
21
44.634305
0
LINE
8
hole
62
5
39
2
10
112.628724
20
44.634305
11
112.331999
21
45.503346
0
LINE
8
hole
62
5
39
2
10
112.331999
20
45.503346
11
112.045344
21
46.650772
0
LINE
8
hole
62
5
39
2
10
112.045344
20
46.650772
11
111.822769
21
47.541692
0
LINE
8
hole
62
5
39
2
10
111.822769
20
47.541692
11
111.633637
21
48.709163
0
LINE
8
hole
62
5
39
2
10
111.633637
20
48.709163
11
111.486788
21
49.615647
0
LINE
8
hole
62
5
39
2
10
111.486788
20
49.615647
11
111.397036
21
50.772297
0
LINE
8
hole
62
5
39
2
10
111.397036
20
50.772297
11
111.327731
21
51.673398
0
LINE
8
hole
62
5
39
2
10
111.327731
20
51.673398
11
111.397036
21
52.574499
0
LINE
8
hole
62
5
39
2
10
111.397036
20
52.574499
11
111.486788
21
53.731150
0
LINE
8
hole
62
5
39
2
10
111.486788
20
53.731150
11
111.675920
21
54.898620
0
LINE
8
hole
62
5
39
2
10
111.675920
20
54.898620
11
111.822769
21
55.805104
0
LINE
8
hole
62
5
39
2
10
111.822769
20
55.805104
11
112.109424
21
56.952530
0
LINE
8
hole
62
5
39
2
10
112.109424
20
56.952530
11
112.331999
21
57.843450
0
LINE
8
hole
62
5
39
2
10
112.331999
20
57.843450
11
112.714152
21
58.962698
0
LINE
8
hole
62
5
39
2
10
112.714152
20
58.962698
11
113.010877
21
59.831740
0
LINE
8
hole
62
5
39
2
10
113.010877
20
59.831740
11
113.485818
21
60.914878
0
LINE
8
hole
62
5
39
2
10
113.485818
20
60.914878
11
113.854587
21
61.755882
0
LINE
8
hole
62
5
39
2
10
113.854587
20
61.755882
11
114.418950
21
62.795234
0
LINE
8
hole
62
5
39
2
10
114.418950
20
62.795234
11
114.857150
21
63.602241
0
LINE
8
hole
62
5
39
2
10
114.857150
20
63.602241
11
115.506934
21
64.590440
0
LINE
8
hole
62
5
39
2
10
115.506934
20
64.590440
11
116.011459
21
65.357728
0
LINE
8
hole
62
5
39
2
10
116.011459
20
65.357728
11
116.742060
21
66.287770
0
LINE
8
hole
62
5
39
2
10
116.742060
20
66.287770
11
117.309337
21
67.009903
0
LINE
8
hole
62
5
39
2
10
117.309337
20
67.009903
11
118.115580
21
67.875198
0
LINE
8
hole
62
5
39
2
10
118.115580
20
67.875198
11
118.741585
21
68.547057
0
LINE
8
hole
62
5
39
2
10
118.741585
20
68.547057
11
119.617749
21
69.341471
0
LINE
8
hole
62
5
39
2
10
119.617749
20
69.341471
11
120.298048
21
69.958294
0
LINE
8
hole
62
5
39
2
10
120.298048
20
69.958294
11
121.235715
21
70.674651
0
LINE
8
hole
62
5
39
2
10
121.235715
20
70.674651
11
121.964197
21
71.231166
0
LINE
8
hole
62
5
39
2
10
121.964197
20
71.231166
11
122.963341
21
71.869017
0
LINE
8
hole
62
5
39
2
10
122.963341
20
71.869017
11
123.738700
21
72.363978
0
LINE
8
hole
62
5
39
2
10
123.738700
20
72.363978
11
124.785621
21
72.914173
0
LINE
8
hole
62
5
39
2
10
124.785621
20
72.914173
11
125.598503
21
73.341372
0
LINE
8
hole
62
5
39
2
10
125.598503
20
73.341372
11
126.687992
21
73.801559
0
LINE
8
hole
62
5
39
2
10
126.687992
20
73.801559
11
127.533926
21
74.158872
0
LINE
8
hole
62
5
39
2
10
127.533926
20
74.158872
11
128.658261
21
74.525789
0
LINE
8
hole
62
5
39
2
10
128.658261
20
74.525789
11
129.531252
21
74.810683
0
LINE
8
hole
62
5
39
2
10
129.531252
20
74.810683
11
130.682465
21
75.081730
0
LINE
8
hole
62
5
39
2
10
130.682465
20
75.081730
11
131.576326
21
75.292185
0
LINE
8
hole
62
5
39
2
10
131.576326
20
75.292185
11
132.713386
21
75.462466
0
LINE
8
hole
62
5
39
2
10
132.713386
20
75.462466
11
133.598751
21
75.594086
0
LINE
8
hole
62
5
39
2
10
133.598751
20
75.594086
11
143.197089
21
75.594086
0
LINE
8
hole
62
5
39
2
10
143.197089
20
75.594086
11
156.086230
21
75.594086
0
LINE
8
hole
62
5
39
2
10
156.086230
20
75.594086
11
156.971595
21
75.462466
0
LINE
8
hole
62
5
39
2
10
156.971595
20
75.462466
11
158.108654
21
75.292185
0
LINE
8
hole
62
5
39
2
10
158.108654
20
75.292185
11
159.259867
21
75.021138
0
LINE
8
hole
62
5
39
2
10
159.259867
20
75.021138
11
160.153729
21
74.810683
0
LINE
8
hole
62
5
39
2
10
160.153729
20
74.810683
11
161.278064
21
74.443765
0
LINE
8
hole
62
5
39
2
10
161.278064
20
74.443765
11
162.151055
21
74.158872
0
LINE
8
hole
62
5
39
2
10
162.151055
20
74.158872
11
163.240543
21
73.698685
0
LINE
8
hole
62
5
39
2
10
163.240543
20
73.698685
11
164.086477
21
73.341372
0
LINE
8
hole
62
5
39
2
10
164.086477
20
73.341372
11
165.133398
21
72.791176
0
LINE
8
hole
62
5
39
2
10
165.133398
20
72.791176
11
165.946280
21
72.363978
0
LINE
8
hole
62
5
39
2
10
165.946280
20
72.363978
11
166.721639
21
71.869018
0
LINE
8
hole
62
5
39
2
10
166.721639
20
71.869018
11
167.720783
21
71.231166
0
LINE
8
hole
62
5
39
2
10
167.720783
20
71.231166
11
168.449265
21
70.674650
0
LINE
8
hole
62
5
39
2
10
168.449265
20
70.674650
11
169.386933
21
69.958294
0
LINE
8
hole
62
5
39
2
10
169.386933
20
69.958294
11
170.263097
21
69.163881
0
LINE
8
hole
62
5
39
2
10
170.263097
20
69.163881
11
170.943396
21
68.547057
0
LINE
8
hole
62
5
39
2
10
170.943396
20
68.547057
11
171.749638
21
67.681762
0
LINE
8
hole
62
5
39
2
10
171.749638
20
67.681762
11
172.375643
21
67.009903
0
LINE
8
hole
62
5
39
2
10
172.375643
20
67.009903
11
173.106245
21
66.079861
0
LINE
8
hole
62
5
39
2
10
173.106245
20
66.079861
11
173.673522
21
65.357728
0
LINE
8
hole
62
5
39
2
10
173.673522
20
65.357728
11
174.323305
21
64.369528
0
LINE
8
hole
62
5
39
2
10
174.323305
20
64.369528
11
174.827830
21
63.602241
0
LINE
8
hole
62
5
39
2
10
174.827830
20
63.602241
11
175.392193
21
62.562889
0
LINE
8
hole
62
5
39
2
10
175.392193
20
62.562889
11
175.830394
21
61.755882
0
LINE
8
hole
62
5
39
2
10
175.830394
20
61.755882
11
176.305336
21
60.672744
0
LINE
8
hole
62
5
39
2
10
176.305336
20
60.672744
11
176.674104
21
59.831740
0
LINE
8
hole
62
5
39
2
10
176.674104
20
59.831740
11
177.056257
21
58.712491
0
LINE
8
hole
62
5
39
2
10
177.056257
20
58.712491
11
177.352982
21
57.843450
0
LINE
8
hole
62
5
39
2
10
177.352982
20
57.843450
11
177.639637
21
56.696024
0
LINE
8
hole
62
5
39
2
10
177.639637
20
56.696024
11
177.862212
21
55.805104
0
LINE
8
hole
62
5
39
2
10
177.862212
20
55.805104
11
178.051343
21
54.637633
0
LINE
8
hole
62
5
39
2
10
178.051343
20
54.637633
11
178.198193
21
53.731149
0
LINE
8
hole
62
5
39
2
10
178.198193
20
53.731149
11
178.287945
21
52.574499
0
LINE
8
hole
62
5
39
2
10
178.287945
20
52.574499
11
178.357249
21
51.673398
0
LINE
8
hole
62
5
39
2
10
178.357249
20
51.673398
11
178.287945
21
50.772297
0
LINE
8
hole
62
5
39
2
10
178.287945
20
50.772297
11
178.198193
21
49.615647
0
LINE
8
hole
62
5
39
2
10
178.198193
20
49.615647
11
178.009061
21
48.448176
0
LINE
8
hole
62
5
39
2
10
178.009061
20
48.448176
11
177.862212
21
47.541692
0
LINE
8
hole
62
5
39
2
10
177.862212
20
47.541692
11
177.575556
21
46.394266
0
LINE
8
hole
62
5
39
2
10
177.575556
20
46.394266
11
177.352982
21
45.503346
0
LINE
8
hole
62
5
39
2
10
177.352982
20
45.503346
11
176.970829
21
44.384098
0
LINE
8
hole
62
5
39
2
10
176.970829
20
44.384098
11
176.674104
21
43.515056
0
LINE
8
hole
62
5
39
2
10
176.674104
20
43.515056
11
176.199162
21
42.431918
0
LINE
8
hole
62
5
39
2
10
176.199162
20
42.431918
11
175.830394
21
41.590914
0
LINE
8
hole
62
5
39
2
10
175.830394
20
41.590914
11
175.266031
21
40.551562
0
LINE
8
hole
62
5
39
2
10
175.266031
20
40.551562
11
174.827830
21
39.744556
0
LINE
8
hole
62
5
39
2
10
174.827830
20
39.744556
11
174.178047
21
38.756356
0
LINE
8
hole
62
5
39
2
10
174.178047
20
38.756356
11
173.673522
21
37.989068
0
LINE
8
hole
62
5
39
2
10
173.673522
20
37.989068
11
172.942920
21
37.059026
0
LINE
8
hole
62
5
39
2
10
172.942920
20
37.059026
11
172.375643
21
36.336893
0
LINE
8
hole
62
5
39
2
10
172.375643
20
36.336893
11
171.569401
21
35.471598
0
LINE
8
hole
62
5
39
2
10
171.569401
20
35.471598
11
170.943396
21
34.799739
0
LINE
8
hole
62
5
39
2
10
170.943396
20
34.799739
11
170.067232
21
34.005325
0
LINE
8
hole
62
5
39
2
10
170.067232
20
34.005325
11
169.386933
21
33.388502
0
LINE
8
hole
62
5
39
2
10
169.386933
20
33.388502
11
168.449265
21
32.672146
0
LINE
8
hole
62
5
39
2
10
168.449265
20
32.672146
11
167.720783
21
32.115630
0
LINE
8
hole
62
5
39
2
10
167.720783
20
32.115630
11
166.721639
21
31.477779
0
LINE
8
hole
62
5
39
2
10
166.721639
20
31.477779
11
165.946281
21
30.982818
0
LINE
8
hole
62
5
39
2
10
165.946281
20
30.982818
11
164.899360
21
30.432623
0
LINE
8
hole
62
5
39
2
10
164.899360
20
30.432623
11
164.086477
21
30.005424
0
LINE
8
hole
62
5
39
2
10
164.086477
20
30.005424
11
162.996989
21
29.545237
0
LINE
8
hole
62
5
39
2
10
162.996989
20
29.545237
11
162.151055
21
29.187924
0
LINE
8
hole
62
5
39
2
10
162.151055
20
29.187924
11
161.026719
21
28.821007
0
LINE
8
hole
62
5
39
2
10
161.026719
20
28.821007
11
160.153729
21
28.536113
0
LINE
8
boundary
62
5
39
2
10
176.407751
20
19.592792
11
177.865254
21
21.122877
0
LINE
8
boundary
62
5
39
2
10
177.865254
20
21.122877
11
178.418127
21
21.703283
0
LINE
8
boundary
62
5
39
2
10
178.418127
20
21.703283
11
179.773530
21
23.324504
0
LINE
8
boundary
62
5
39
2
10
179.773530
20
23.324504
11
180.287674
21
23.939480
0
LINE
8
boundary
62
5
39
2
10
180.287674
20
23.939480
11
181.535291
21
25.645037
0
LINE
8
boundary
62
5
39
2
10
181.535291
20
25.645037
11
182.008548
21
26.292005
0
LINE
8
boundary
62
5
39
2
10
182.008548
20
26.292005
11
183.143150
21
28.074743
0
LINE
8
boundary
62
5
39
2
10
183.143150
20
28.074743
11
183.573538
21
28.750987
0
LINE
8
boundary
62
5
39
2
10
183.573538
20
28.750987
11
184.590361
21
30.603428
0
LINE
8
boundary
62
5
39
2
10
184.590361
20
30.603428
11
184.976072
21
31.306112
0
LINE
8
boundary
62
5
39
2
10
184.976072
20
31.306112
11
185.870859
21
33.220487
0
LINE
8
boundary
62
5
39
2
10
185.870859
20
33.220487
11
186.210278
21
33.946666
0
LINE
8
boundary
62
5
39
2
10
186.210278
20
33.946666
11
186.979271
21
35.914946
0
LINE
8
boundary
62
5
39
2
10
186.979271
20
35.914946
11
187.270972
21
36.661572
0
LINE
8
boundary
62
5
39
2
10
187.270972
20
36.661572
11
187.910946
21
38.675500
0
LINE
8
boundary
62
5
39
2
10
187.910946
20
38.675500
11
188.153706
21
39.439441
0
LINE
8
boundary
62
5
39
2
10
188.153706
20
39.439441
11
188.661974
21
41.490571
0
LINE
8
boundary
62
5
39
2
10
188.661974
20
41.490571
11
188.854775
21
42.268624
0
LINE
8
boundary
62
5
39
2
10
188.854775
20
42.268624
11
189.229207
21
44.348354
0
LINE
8
boundary
62
5
39
2
10
189.229207
20
44.348354
11
189.371240
21
45.137256
0
LINE
8
boundary
62
5
39
2
10
189.371240
20
45.137256
11
189.610268
21
47.236860
0
LINE
8
boundary
62
5
39
2
10
189.610268
20
47.236860
11
189.700938
21
48.033301
0
LINE
8
boundary
62
5
39
2
10
189.700938
20
48.033301
11
189.803560
21
50.143974
0
LINE
8
boundary
62
5
39
2
10
189.803560
20
50.143974
11
189.842487
21
50.944614
0
LINE
8
boundary
62
5
39
2
10
189.842487
20
50.944614
11
189.808270
21
53.057504
0
LINE
8
boundary
62
5
39
2
10
189.808270
20
53.057504
11
189.795291
21
53.858985
0
LINE
8
boundary
62
5
39
2
10
189.795291
20
53.858985
11
189.624376
21
55.965228
0
LINE
8
boundary
62
5
39
2
10
189.624376
20
55.965228
11
189.559543
21
56.764187
0
LINE
8
boundary
62
5
39
2
10
189.559543
20
56.764187
11
189.252651
21
58.854951
0
LINE
8
boundary
62
5
39
2
10
189.252651
20
58.854951
11
189.136238
21
59.648038
0
LINE
8
boundary
62
5
39
2
10
189.136238
20
59.648038
11
188.694654
21
61.714551
0
LINE
8
boundary
62
5
39
2
10
188.694654
20
61.714551
11
188.527148
21
62.498439
0
LINE
8
boundary
62
5
39
2
10
188.527148
20
62.498439
11
187.952726
21
64.532035
0
LINE
8
boundary
62
5
39
2
10
187.952726
20
64.532035
11
187.734830
21
65.303437
0
LINE
8
boundary
62
5
39
2
10
187.734830
20
65.303437
11
187.029979
21
67.295587
0
LINE
8
boundary
62
5
39
2
10
187.029979
20
67.295587
11
186.762609
21
68.051267
0
LINE
8
boundary
62
5
39
2
10
186.762609
20
68.051267
11
185.930284
21
69.993613
0
LINE
8
boundary
62
5
39
2
10
185.930284
20
69.993613
11
185.614559
21
70.730402
0
LINE
8
boundary
62
5
39
2
10
185.614559
20
70.730402
11
184.658252
21
72.614799
0
LINE
8
boundary
62
5
39
2
10
184.658252
20
72.614799
11
184.295496
21
73.329606
0
LINE
8
boundary
62
5
39
2
10
184.295496
20
73.329606
11
183.219218
21
75.148148
0
LINE
8
boundary
62
5
39
2
10
183.219218
20
75.148148
11
182.810955
21
75.837973
0
LINE
8
boundary
62
5
39
2
10
182.810955
20
75.837973
11
181.619219
21
77.583036
0
LINE
8
boundary
62
5
39
2
10
181.619219
20
77.583036
11
181.167160
21
78.244989
0
LINE
8
boundary
62
5
39
2
10
181.167160
20
78.244989
11
179.864966
21
79.909248
0
LINE
8
boundary
62
5
39
2
10
179.864966
20
79.909248
11
179.371006
21
80.540550
0
LINE
8
boundary
62
5
39
2
10
179.371006
20
80.540550
11
177.963817
21
82.117030
0
LINE
8
boundary
62
5
39
2
10
177.963817
20
82.117030
11
177.430030
21
82.715035
0
LINE
8
boundary
62
5
39
2
10
177.430030
20
82.715035
11
175.923743
21
84.197124
0
LINE
8
boundary
62
5
39
2
10
175.923743
20
84.197124
11
175.352365
21
84.759324
0
LINE
8
boundary
62
5
39
2
10
175.352365
20
84.759324
11
173.753306
21
86.140802
0
LINE
8
boundary
62
5
39
2
10
173.753306
20
86.140802
11
173.146737
21
86.664836
0
LINE
8
boundary
62
5
39
2
10
173.146737
20
86.664836
11
171.461607
21
87.939909
0
LINE
8
boundary
62
5
39
2
10
171.461607
20
87.939909
11
170.822388
21
88.423580
0
LINE
8
boundary
62
5
39
2
10
170.822388
20
88.423580
11
169.058257
21
89.586901
0
LINE
8
boundary
62
5
39
2
10
169.058257
20
89.586901
11
168.389071
21
90.028182
0
LINE
8
boundary
62
5
39
2
10
168.389071
20
90.028182
11
166.553340
21
91.074873
0
LINE
8
boundary
62
5
39
2
10
166.553340
20
91.074873
11
165.856993
21
91.471914
0
LINE
8
boundary
62
5
39
2
10
165.856993
20
91.471914
11
163.957358
21
92.397581
0
LINE
8
boundary
62
5
39
2
10
163.957358
20
92.397581
11
163.236771
21
92.748713
0
LINE
8
boundary
62
5
39
2
10
163.236771
20
92.748713
11
161.281202
21
93.549475
0
LINE
8
boundary
62
5
39
2
10
161.281202
20
93.549475
11
160.539397
21
93.853227
0
LINE
8
boundary
62
5
39
2
10
160.539397
20
93.853227
11
160.252724
21
93.957238
0
LINE
8
boundary
62
5
39
2
10
160.252724
20
93.957238
11
160.212146
21
93.971687
0
LINE
8
boundary
62
5
39
2
10
160.212146
20
93.971687
11
160.104347
21
94.009434
0
LINE
8
boundary
62
5
39
2
10
160.104347
20
94.009434
11
159.919479
21
94.072871
0
LINE
8
boundary
62
5
39
2
10
159.919479
20
94.072871
11
158.435162
21
94.571152
0
LINE
8
boundary
62
5
39
2
10
158.435162
20
94.571152
11
158.218797
21
94.642855
0
LINE
8
boundary
62
5
39
2
10
158.218797
20
94.642855
11
157.913797
21
94.738900
0
LINE
8
boundary
62
5
39
2
10
157.913797
20
94.738900
11
157.518394
21
94.856233
0
LINE
8
boundary
62
5
39
2
10
157.518394
20
94.856233
11
157.035605
21
94.990131
0
LINE
8
boundary
62
5
39
2
10
157.035605
20
94.990131
11
155.744829
21
95.332262
0
LINE
8
boundary
62
5
39
2
10
155.744829
20
95.332262
11
155.235800
21
95.462058
0
LINE
8
boundary
62
5
39
2
10
155.235800
20
95.462058
11
154.632337
21
95.600409
0
LINE
8
boundary
62
5
39
2
10
154.632337
20
95.600409
11
153.920705
21
95.745059
0
LINE
8
boundary
62
5
39
2
10
153.920705
20
95.745059
11
152.772791
21
95.970980
0
LINE
8
boundary
62
5
39
2
10
152.772791
20
95.970980
11
152.010336
21
96.104433
0
LINE
8
boundary
62
5
39
2
10
152.010336
20
96.104433
11
151.156163
21
96.228283
0
LINE
8
boundary
62
5
39
2
10
151.156163
20
96.228283
11
150.089579
21
96.367236
0
LINE
8
boundary
62
5
39
2
10
150.089579
20
96.367236
11
149.198596
21
96.467904
0
LINE
8
boundary
62
5
39
2
10
149.198596
20
96.467904
11
148.253057
21
96.544433
0
LINE
8
boundary
62
5
39
2
10
148.253057
20
96.544433
11
147.242676
21
96.609974
0
LINE
8
boundary
62
5
39
2
10
147.242676
20
96.609974
11
146.290097
21
96.655914
0
LINE
8
boundary
62
5
39
2
10
146.290097
20
96.655914
11
145.337964
21
96.671273
0
LINE
8
boundary
62
5
39
2
10
145.337964
20
96.671273
11
144.347017
21
96.671273
0
LINE
8
boundary
62
5
39
2
10
144.347017
20
96.671273
11
143.394884
21
96.655914
0
LINE
8
boundary
62
5
39
2
10
143.394884
20
96.655914
11
142.442305
21
96.609974
0
LINE
8
boundary
62
5
39
2
10
142.442305
20
96.609974
11
141.431923
21
96.544433
0
LINE
8
boundary
62
5
39
2
10
141.431923
20
96.544433
11
140.486384
21
96.467904
0
LINE
8
boundary
62
5
39
2
10
140.486384
20
96.467904
11
139.595401
21
96.367236
0
LINE
8
boundary
62
5
39
2
10
139.595401
20
96.367236
11
138.528817
21
96.228283
0
LINE
8
boundary
62
5
39
2
10
138.528817
20
96.228283
11
137.674644
21
96.104433
0
LINE
8
boundary
62
5
39
2
10
137.674644
20
96.104433
11
136.912189
21
95.970979
0
LINE
8
boundary
62
5
39
2
10
136.912189
20
95.970979
11
135.764275
21
95.745059
0
LINE
8
boundary
62
5
39
2
10
135.764275
20
95.745059
11
135.052644
21
95.600409
0
LINE
8
boundary
62
5
39
2
10
135.052644
20
95.600409
11
134.449180
21
95.462058
0
LINE
8
boundary
62
5
39
2
10
134.449180
20
95.462058
11
133.940151
21
95.332262
0
LINE
8
boundary
62
5
39
2
10
133.940151
20
95.332262
11
132.649375
21
94.990131
0
LINE
8
boundary
62
5
39
2
10
132.649375
20
94.990131
11
132.166587
21
94.856233
0
LINE
8
boundary
62
5
39
2
10
132.166587
20
94.856233
11
131.771184
21
94.738900
0
LINE
8
boundary
62
5
39
2
10
131.771184
20
94.738900
11
131.466183
21
94.642855
0
LINE
8
boundary
62
5
39
2
10
131.466183
20
94.642855
11
131.249818
21
94.571152
0
LINE
8
boundary
62
5
39
2
10
131.249818
20
94.571152
11
129.765502
21
94.072871
0
LINE
8
boundary
62
5
39
2
10
129.765502
20
94.072871
11
129.580634
21
94.009434
0
LINE
8
boundary
62
5
39
2
10
129.580634
20
94.009434
11
129.472835
21
93.971687
0
LINE
8
boundary
62
5
39
2
10
129.472835
20
93.971687
11
129.432256
21
93.957238
0
LINE
8
boundary
62
5
39
2
10
129.432256
20
93.957238
11
129.145583
21
93.853227
0
LINE
8
boundary
62
5
39
2
10
129.145583
20
93.853227
11
127.190014
21
93.052465
0
LINE
8
boundary
62
5
39
2
10
127.190014
20
93.052465
11
126.448210
21
92.748713
0
LINE
8
boundary
62
5
39
2
10
126.448210
20
92.748713
11
124.548574
21
91.823046
0
LINE
8
boundary
62
5
39
2
10
124.548574
20
91.823046
11
123.827987
21
91.471914
0
LINE
8
boundary
62
5
39
2
10
123.827987
20
91.471914
11
121.992256
21
90.425223
0
LINE
8
boundary
62
5
39
2
10
121.992256
20
90.425223
11
121.295909
21
90.028182
0
LINE
8
boundary
62
5
39
2
10
121.295909
20
90.028182
11
119.531779
21
88.864862
0
LINE
8
boundary
62
5
39
2
10
119.531779
20
88.864862
11
118.862593
21
88.423580
0
LINE
8
boundary
62
5
39
2
10
118.862593
20
88.423580
11
117.177463
21
87.148508
0
LINE
8
boundary
62
5
39
2
10
117.177463
20
87.148508
11
116.538243
21
86.664837
0
LINE
8
boundary
62
5
39
2
10
116.538243
20
86.664837
11
114.939185
21
85.283358
0
LINE
8
boundary
62
5
39
2
10
114.939185
20
85.283358
11
114.332616
21
84.759324
0
LINE
8
boundary
62
5
39
2
10
114.332616
20
84.759324
11
112.826329
21
83.277235
0
LINE
8
boundary
62
5
39
2
10
112.826329
20
83.277235
11
112.254950
21
82.715035
0
LINE
8
boundary
62
5
39
2
10
112.254950
20
82.715035
11
110.847762
21
81.138555
0
LINE
8
boundary
62
5
39
2
10
110.847762
20
81.138555
11
110.313975
21
80.540549
0
LINE
8
boundary
62
5
39
2
10
110.313975
20
80.540549
11
109.011781
21
78.876291
0
LINE
8
boundary
62
5
39
2
10
109.011781
20
78.876291
11
108.517821
21
78.244990
0
LINE
8
boundary
62
5
39
2
10
108.517821
20
78.244990
11
107.326086
21
76.499927
0
LINE
8
boundary
62
5
39
2
10
107.326086
20
76.499927
11
106.874026
21
75.837973
0
LINE
8
boundary
62
5
39
2
10
106.874026
20
75.837973
11
105.797748
21
74.019432
0
LINE
8
boundary
62
5
39
2
10
105.797748
20
74.019432
11
105.389484
21
73.329605
0
LINE
8
boundary
62
5
39
2
10
105.389484
20
73.329605
11
104.433176
21
71.445208
0
LINE
8
boundary
62
5
39
2
10
104.433176
20
71.445208
11
104.070421
21
70.730402
0
LINE
8
boundary
62
5
39
2
10
104.070421
20
70.730402
11
103.238097
21
68.788055
0
LINE
8
boundary
62
5
39
2
10
103.238097
20
68.788055
11
102.922371
21
68.051267
0
LINE
8
boundary
62
5
39
2
10
102.922371
20
68.051267
11
102.217521
21
66.059118
0
LINE
8
boundary
62
5
39
2
10
102.217521
20
66.059118
11
101.950150
21
65.303438
0
LINE
8
boundary
62
5
39
2
10
101.950150
20
65.303438
11
101.375727
21
63.269841
0
LINE
8
boundary
62
5
39
2
10
101.375727
20
63.269841
11
101.157832
21
62.498439
0
LINE
8
boundary
62
5
39
2
10
101.157832
20
62.498439
11
100.716248
21
60.431927
0
LINE
8
boundary
62
5
39
2
10
100.716248
20
60.431927
11
100.548743
21
59.648038
0
LINE
8
boundary
62
5
39
2
10
100.548743
20
59.648038
11
100.241850
21
57.557275
0
LINE
8
boundary
62
5
39
2
10
100.241850
20
57.557275
11
100.125437
21
56.764187
0
LINE
8
boundary
62
5
39
2
10
100.125437
20
56.764187
11
99.954523
21
54.657944
0
LINE
8
boundary
62
5
39
2
10
99.954523
20
54.657944
11
99.889690
21
53.858985
0
LINE
8
boundary
62
5
39
2
10
99.889690
20
53.858985
11
99.855473
21
51.746095
0
LINE
8
boundary
62
5
39
2
10
99.855473
20
51.746095
11
99.842494
21
50.944614
0
LINE
8
boundary
62
5
39
2
10
99.842494
20
50.944614
11
99.945115
21
48.833941
0
LINE
8
boundary
62
5
39
2
10
99.945115
20
48.833941
11
99.984043
21
48.033301
0
LINE
8
boundary
62
5
39
2
10
99.984043
20
48.033301
11
100.223070
21
45.933697
0
LINE
8
boundary
62
5
39
2
10
100.223070
20
45.933697
11
100.313740
21
45.137256
0
LINE
8
boundary
62
5
39
2
10
100.313740
20
45.137256
11
100.688173
21
43.057527
0
LINE
8
boundary
62
5
39
2
10
100.688173
20
43.057527
11
100.830206
21
42.268625
0
LINE
8
boundary
62
5
39
2
10
100.830206
20
42.268625
11
101.338473
21
40.217495
0
LINE
8
boundary
62
5
39
2
10
101.338473
20
40.217495
11
101.531274
21
39.439441
0
LINE
8
boundary
62
5
39
2
10
101.531274
20
39.439441
11
102.171248
21
37.425513
0
LINE
8
boundary
62
5
39
2
10
102.171248
20
37.425513
11
102.414009
21
36.661572
0
LINE
8
boundary
62
5
39
2
10
102.414009
20
36.661572
11
103.183001
21
34.693292
0
LINE
8
boundary
62
5
39
2
10
103.183001
20
34.693292
11
103.474703
21
33.946666
0
LINE
8
boundary
62
5
39
2
10
103.474703
20
33.946666
11
104.369490
21
32.032290
0
LINE
8
boundary
62
5
39
2
10
104.369490
20
32.032290
11
104.708909
21
31.306112
0
LINE
8
boundary
62
5
39
2
10
104.708909
20
31.306112
11
105.725732
21
29.453672
0
LINE
8
boundary
62
5
39
2
10
105.725732
20
29.453672
11
106.111442
21
28.750987
0
LINE
8
boundary
62
5
39
2
10
106.111442
20
28.750987
11
107.246045
21
26.968249
0
LINE
8
boundary
62
5
39
2
10
107.246045
20
26.968249
11
107.676433
21
26.292005
0
LINE
8
boundary
62
5
39
2
10
107.676433
20
26.292005
11
108.924049
21
24.586448
0
LINE
8
boundary
62
5
39
2
10
108.924049
20
24.586448
11
109.397306
21
23.939480
0
LINE
8
boundary
62
5
39
2
10
109.397306
20
23.939480
11
110.752710
21
22.318259
0
LINE
8
boundary
62
5
39
2
10
110.752710
20
22.318259
11
111.266854
21
21.703283
0
LINE
8
boundary
62
5
39
2
10
111.266854
20
21.703283
11
112.724356
21
20.173198
0
LINE
8
boundary
62
5
39
2
10
112.724356
20
20.173198
11
113.277229
21
19.592792
0
LINE
8
boundary
62
5
39
2
10
113.277229
20
19.592792
11
114.830717
21
18.160258
0
LINE
8
boundary
62
5
39
2
10
114.830717
20
18.160258
11
115.420001
21
17.616856
0
LINE
8
boundary
62
5
39
2
10
115.420001
20
17.616856
11
117.062955
21
16.287885
0
LINE
8
boundary
62
5
39
2
10
117.062955
20
16.287885
11
117.686175
21
15.783768
0
LINE
8
boundary
62
5
39
2
10
117.686175
20
15.783768
11
119.411710
21
14.563932
0
LINE
8
boundary
62
5
39
2
10
119.411710
20
14.563932
11
120.066256
21
14.101212
0
LINE
8
boundary
62
5
39
2
10
120.066256
20
14.101212
11
121.867133
21
12.995626
0
LINE
8
boundary
62
5
39
2
10
121.867133
20
12.995626
11
122.550258
21
12.576245
0
LINE
8
boundary
62
5
39
2
10
122.550258
20
12.576245
11
124.418923
21
11.589549
0
LINE
8
boundary
62
5
39
2
10
124.418923
20
11.589549
11
125.127761
21
11.215266
0
LINE
8
boundary
62
5
39
2
10
125.127761
20
11.215266
11
127.056374
21
10.351598
0
LINE
8
boundary
62
5
39
2
10
127.056374
20
10.351598
11
127.787953
21
10.023984
0
LINE
8
boundary
62
5
39
2
10
127.787953
20
10.023984
11
128.634669
21
9.701170
0
LINE
8
boundary
62
5
39
2
10
128.634669
20
9.701170
11
128.696194
21
9.678536
0
LINE
8
boundary
62
5
39
2
10
128.696194
20
9.678536
11
130.258895
21
9.096988
0
LINE
8
boundary
62
5
39
2
10
130.258895
20
9.096988
11
130.343573
21
9.067422
0
LINE
8
boundary
62
5
39
2
10
130.343573
20
9.067422
11
130.503625
21
9.012765
0
LINE
8
boundary
62
5
39
2
10
130.503625
20
9.012765
11
130.746478
21
8.932644
0
LINE
8
boundary
62
5
39
2
10
130.746478
20
8.932644
11
131.078940
21
8.827873
0
LINE
8
boundary
62
5
39
2
10
131.078940
20
8.827873
11
131.502306
21
8.701654
0
LINE
8
boundary
62
5
39
2
10
131.502306
20
8.701654
11
132.837355
21
8.301094
0
LINE
8
boundary
62
5
39
2
10
132.837355
20
8.301094
11
133.291993
21
8.175146
0
LINE
8
boundary
62
5
39
2
10
133.291993
20
8.175146
11
133.828568
21
8.038525
0
LINE
8
boundary
62
5
39
2
10
133.828568
20
8.038525
11
134.458769
21
7.893547
0
LINE
8
boundary
62
5
39
2
10
134.458769
20
7.893547
11
135.650973
21
7.618531
0
LINE
8
boundary
62
5
39
2
10
135.650973
20
7.618531
11
136.336403
21
7.479480
0
LINE
8
boundary
62
5
39
2
10
136.336403
20
7.479480
11
137.123504
21
7.341590
0
LINE
8
boundary
62
5
39
2
10
137.123504
20
7.341590
11
138.228709
21
7.161036
0
LINE
8
boundary
62
5
39
2
10
138.228709
20
7.161036
11
139.060984
21
7.040400
0
LINE
8
boundary
62
5
39
2
10
139.060984
20
7.040400
11
139.969990
21
6.937681
0
LINE
8
boundary
62
5
39
2
10
139.969990
20
6.937681
11
141.004411
21
6.836855
0
LINE
8
boundary
62
5
39
2
10
141.004411
20
6.836855
11
141.936584
21
6.761411
0
LINE
8
boundary
62
5
39
2
10
141.936584
20
6.761411
11
142.897255
21
6.715077
0
LINE
8
boundary
62
5
39
2
10
142.897255
20
6.715077
11
143.893035
21
6.682816
0
LINE
8
boundary
62
5
39
2
10
143.893035
20
6.682816
11
144.842490
21
6.667500
0
LINE
8
boundary
62
5
39
2
10
144.842490
20
6.667500
11
145.791946
21
6.682816
0
LINE
8
boundary
62
5
39
2
10
145.791946
20
6.682816
11
146.787725
21
6.715077
0
LINE
8
boundary
62
5
39
2
10
146.787725
20
6.715077
11
147.748397
21
6.761411
0
LINE
8
boundary
62
5
39
2
10
147.748397
20
6.761411
11
148.680569
21
6.836855
0
LINE
8
boundary
62
5
39
2
10
148.680569
20
6.836855
11
149.714990
21
6.937681
0
LINE
8
boundary
62
5
39
2
10
149.714990
20
6.937681
11
150.623996
21
7.040400
0
LINE
8
boundary
62
5
39
2
10
150.623996
20
7.040400
11
151.456272
21
7.161036
0
LINE
8
boundary
62
5
39
2
10
151.456272
20
7.161036
11
152.561477
21
7.341590
0
LINE
8
boundary
62
5
39
2
10
152.561477
20
7.341590
11
153.348577
21
7.479480
0
LINE
8
boundary
62
5
39
2
10
153.348577
20
7.479480
11
154.034007
21
7.618531
0
LINE
8
boundary
62
5
39
2
10
154.034007
20
7.618531
11
154.610533
21
7.751127
0
LINE
8
boundary
62
5
39
2
10
154.610533
20
7.751127
11
155.856413
21
8.038525
0
LINE
8
boundary
62
5
39
2
10
155.856413
20
8.038525
11
156.392988
21
8.175146
0
LINE
8
boundary
62
5
39
2
10
156.392988
20
8.175146
11
156.847626
21
8.301094
0
LINE
8
boundary
62
5
39
2
10
156.847626
20
8.301094
11
157.214793
21
8.410450
0
LINE
8
boundary
62
5
39
2
10
157.214793
20
8.410450
11
158.606040
21
8.827873
0
LINE
8
boundary
62
5
39
2
10
158.606040
20
8.827873
11
158.938502
21
8.932644
0
LINE
8
boundary
62
5
39
2
10
158.938502
20
8.932644
11
159.181355
21
9.012765
0
LINE
8
boundary
62
5
39
2
10
159.181355
20
9.012765
11
159.341408
21
9.067422
0
LINE
8
boundary
62
5
39
2
10
159.341408
20
9.067422
11
159.426085
21
9.096988
0
LINE
8
boundary
62
5
39
2
10
159.426085
20
9.096988
11
159.445464
21
9.103937
0
LINE
8
boundary
62
5
39
2
10
159.445464
20
9.103937
11
161.050312
21
9.701170
0
LINE
8
boundary
62
5
39
2
10
161.050312
20
9.701170
11
161.897027
21
10.023984
0
LINE
8
boundary
62
5
39
2
10
161.897027
20
10.023984
11
163.825640
21
10.887652
0
LINE
8
boundary
62
5
39
2
10
163.825640
20
10.887652
11
164.557219
21
11.215266
0
LINE
8
boundary
62
5
39
2
10
164.557219
20
11.215266
11
166.425883
21
12.201962
0
LINE
8
boundary
62
5
39
2
10
166.425883
20
12.201962
11
167.134722
21
12.576245
0
LINE
8
boundary
62
5
39
2
10
167.134722
20
12.576245
11
168.935599
21
13.681831
0
LINE
8
boundary
62
5
39
2
10
168.935599
20
13.681831
11
169.618724
21
14.101212
0
LINE
8
boundary
62
5
39
2
10
169.618724
20
14.101212
11
171.344260
21
15.321048
0
LINE
8
boundary
62
5
39
2
10
171.344260
20
15.321048
11
171.998806
21
15.783768
0
LINE
8
boundary
62
5
39
2
10
171.998806
20
15.783768
11
173.641759
21
17.112738
0
LINE
8
boundary
62
5
39
2
10
173.641759
20
17.112738
11
174.264980
21
17.616856
0
LINE
8
boundary
62
5
39
2
10
174.264980
20
17.616856
11
175.818468
21
19.049390
0
LINE
8
boundary
62
5
39
2
10
175.818468
20
19.049390
11
176.407751
21
19.592792
0
LINE
8
annotation
62
1
39
211
10
181.080613
20
51.910343
11
181.080613
21
53.339093
0
LINE
8
annotation
62
1
39
211
10
108.604368
20
51.910343
11
110.033118
21
51.910343
0
LINE
8
annotation
62
1
39
211
10
144.842490
20
87.670896
11
144.842490
21
89.099646
0
LINE
8
annotation
62
1
39
211
10
144.842490
20
87.670896
11
144.842490
21
89.099646
0
LINE
8
annotation
62
1
39
211
10
144.842490
20
89.099646
11
144.842490
21
87.670896
0
LINE
8
annotation
62
1
39
211
10
144.842490
20
87.670896
11
146.271240
21
87.670896
0
LINE
8
annotation
62
1
39
211
10
144.842490
20
15.667877
11
144.842490
21
14.239127
0
LINE
8
annotation
62
1
39
211
10
103.988394
20
49.468777
11
103.988394
21
49.468777
0
LINE
8
annotation
62
1
39
211
10
103.988394
20
49.468777
11
104.034866
21
48.951242
0
LINE
8
annotation
62
1
39
211
10
104.034866
20
48.951242
11
104.168811
21
48.464501
0
LINE
8
annotation
62
1
39
211
10
104.168811
20
48.464501
11
104.382029
21
48.016591
0
LINE
8
annotation
62
1
39
211
10
104.382029
20
48.016591
11
104.666316
21
47.615545
0
LINE
8
annotation
62
1
39
211
10
104.666316
20
47.615545
11
105.013471
21
47.269399
0
LINE
8
annotation
62
1
39
211
10
105.013471
20
47.269399
11
105.415292
21
46.986187
0
LINE
8
annotation
62
1
39
211
10
105.415292
20
46.986187
11
105.863576
21
46.773945
0
LINE
8
annotation
62
1
39
211
10
105.863576
20
46.773945
11
106.350121
21
46.640708
0
LINE
8
annotation
62
1
39
211
10
106.350121
20
46.640708
11
106.866726
21
46.594510
0
LINE
8
annotation
62
1
39
211
10
106.866726
20
46.594510
11
106.866726
21
46.594510
0
LINE
8
annotation
62
1
39
211
10
106.866726
20
46.594510
11
107.383330
21
46.640708
0
LINE
8
annotation
62
1
39
211
10
107.383330
20
46.640708
11
107.869876
21
46.773945
0
LINE
8
annotation
62
1
39
211
10
107.869876
20
46.773945
11
108.318160
21
46.986187
0
LINE
8
annotation
62
1
39
211
10
108.318160
20
46.986187
11
108.719980
21
47.269399
0
LINE
8
annotation
62
1
39
211
10
108.719980
20
47.269399
11
109.067136
21
47.615545
0
LINE
8
annotation
62
1
39
211
10
109.067136
20
47.615545
11
109.351423
21
48.016591
0
LINE
8
annotation
62
1
39
211
10
109.351423
20
48.016591
11
109.564641
21
48.464501
0
LINE
8
annotation
62
1
39
211
10
109.564641
20
48.464501
11
109.698586
21
48.951242
0
LINE
8
annotation
62
1
39
211
10
109.698586
20
48.951242
11
109.745057
21
49.468777
0
LINE
8
annotation
62
1
39
211
10
109.745057
20
49.468777
11
109.745057
21
50.902659
0
LINE
8
annotation
62
1
39
211
10
109.745057
20
50.902659
11
109.745057
21
50.902659
0
LINE
8
annotation
62
1
39
211
10
109.745057
20
50.902659
11
109.698613
21
51.420446
0
LINE
8
annotation
62
1
39
211
10
109.698613
20
51.420446
11
109.564734
21
51.907858
0
LINE
8
annotation
62
1
39
211
10
109.564734
20
51.907858
11
109.351604
21
52.356742
0
LINE
8
annotation
62
1
39
211
10
109.351604
20
52.356742
11
109.067403
21
52.758942
0
LINE
8
annotation
62
1
39
211
10
109.067403
20
52.758942
11
108.720315
21
53.106303
0
LINE
8
annotation
62
1
39
211
10
108.720315
20
53.106303
11
108.318521
21
53.390668
0
LINE
8
annotation
62
1
39
211
10
108.318521
20
53.390668
11
107.870203
21
53.603883
0
LINE
8
annotation
62
1
39
211
10
107.870203
20
53.603883
11
107.383544
21
53.737793
0
LINE
8
annotation
62
1
39
211
10
107.383544
20
53.737793
11
106.866726
21
53.784242
0
LINE
8
annotation
62
1
39
211
10
106.866726
20
53.784242
11
106.866726
21
53.784242
0
LINE
8
annotation
62
1
39
211
10
106.866726
20
53.784242
11
106.349907
21
53.737766
0
LINE
8
annotation
62
1
39
211
10
106.349907
20
53.737766
11
105.863248
21
53.603790
0
LINE
8
annotation
62
1
39
211
10
105.863248
20
53.603790
11
105.414931
21
53.390487
0
LINE
8
annotation
62
1
39
211
10
105.414931
20
53.390487
11
105.013137
21
53.106035
0
LINE
8
annotation
62
1
39
211
10
105.013137
20
53.106035
11
104.666048
21
52.758608
0
LINE
8
annotation
62
1
39
211
10
104.666048
20
52.758608
11
104.381848
21
52.356381
0
LINE
8
annotation
62
1
39
211
10
104.381848
20
52.356381
11
104.168717
21
51.907531
0
LINE
8
annotation
62
1
39
211
10
104.168717
20
51.907531
11
104.034839
21
51.420231
0
LINE
8
annotation
62
1
39
211
10
104.034839
20
51.420231
11
103.988394
21
50.902659
0
LINE
8
annotation
62
1
39
211
10
103.988394
20
50.902659
11
103.988394
21
49.468777
0
LINE
8
annotation
62
1
39
211
10
109.745057
20
56.666638
11
109.745057
21
56.666638
0
LINE
8
annotation
62
1
39
211
10
109.745057
20
56.666638
11
109.698613
21
57.182032
0
LINE
8
annotation
62
1
39
211
10
109.698613
20
57.182032
11
109.564734
21
57.667636
0
LINE
8
annotation
62
1
39
211
10
109.564734
20
57.667636
11
109.351604
21
58.115212
0
LINE
8
annotation
62
1
39
211
10
109.351604
20
58.115212
11
109.067403
21
58.516525
0
LINE
8
annotation
62
1
39
211
10
109.067403
20
58.516525
11
108.720315
21
58.863340
0
LINE
8
annotation
62
1
39
211
10
108.720315
20
58.863340
11
108.318521
21
59.147421
0
LINE
8
annotation
62
1
39
211
10
108.318521
20
59.147421
11
107.870203
21
59.360533
0
LINE
8
annotation
62
1
39
211
10
107.870203
20
59.360533
11
107.383544
21
59.494439
0
LINE
8
annotation
62
1
39
211
10
107.383544
20
59.494439
11
106.866726
21
59.540905
0
LINE
8
annotation
62
1
39
211
10
106.866726
20
59.540905
11
106.866726
21
59.540905
0
LINE
8
annotation
62
1
39
211
10
106.866726
20
59.540905
11
106.349907
21
59.494439
0
LINE
8
annotation
62
1
39
211
10
106.349907
20
59.494439
11
105.863248
21
59.360533
0
LINE
8
annotation
62
1
39
211
10
105.863248
20
59.360533
11
105.414931
21
59.147421
0
LINE
8
annotation
62
1
39
211
10
105.414931
20
59.147421
11
105.013137
21
58.863340
0
LINE
8
annotation
62
1
39
211
10
105.013137
20
58.863340
11
104.666048
21
58.516525
0
LINE
8
annotation
62
1
39
211
10
104.666048
20
58.516525
11
104.381848
21
58.115212
0
LINE
8
annotation
62
1
39
211
10
104.381848
20
58.115212
11
104.168717
21
57.667636
0
LINE
8
annotation
62
1
39
211
10
104.168717
20
57.667636
11
104.034839
21
57.182032
0
LINE
8
annotation
62
1
39
211
10
104.034839
20
57.182032
11
103.988394
21
56.666638
0
LINE
8
annotation
62
1
39
211
10
103.988394
20
56.666638
11
103.988394
21
56.666638
0
LINE
8
annotation
62
1
39
211
10
103.988394
20
56.666638
11
104.034866
21
56.148824
0
LINE
8
annotation
62
1
39
211
10
104.034866
20
56.148824
11
104.168811
21
55.661336
0
LINE
8
annotation
62
1
39
211
10
104.168811
20
55.661336
11
104.382029
21
55.212344
0
LINE
8
annotation
62
1
39
211
10
104.382029
20
55.212344
11
104.666316
21
54.810016
0
LINE
8
annotation
62
1
39
211
10
104.666316
20
54.810016
11
105.013471
21
54.462521
0
LINE
8
annotation
62
1
39
211
10
105.013471
20
54.462521
11
105.415292
21
54.178027
0
LINE
8
annotation
62
1
39
211
10
105.415292
20
54.178027
11
105.863576
21
53.964703
0
LINE
8
annotation
62
1
39
211
10
105.863576
20
53.964703
11
106.350121
21
53.830719
0
LINE
8
annotation
62
1
39
211
10
106.350121
20
53.830719
11
106.866726
21
53.784242
0
LINE
8
annotation
62
1
39
211
10
106.866726
20
53.784242
11
106.866726
21
53.784242
0
LINE
8
annotation
62
1
39
211
10
106.866726
20
53.784242
11
107.383330
21
53.830719
0
LINE
8
annotation
62
1
39
211
10
107.383330
20
53.830719
11
107.869876
21
53.964703
0
LINE
8
annotation
62
1
39
211
10
107.869876
20
53.964703
11
108.318160
21
54.178027
0
LINE
8
annotation
62
1
39
211
10
108.318160
20
54.178027
11
108.719980
21
54.462521
0
LINE
8
annotation
62
1
39
211
10
108.719980
20
54.462521
11
109.067136
21
54.810016
0
LINE
8
annotation
62
1
39
211
10
109.067136
20
54.810016
11
109.351423
21
55.212344
0
LINE
8
annotation
62
1
39
211
10
109.351423
20
55.212344
11
109.564641
21
55.661336
0
LINE
8
annotation
62
1
39
211
10
109.564641
20
55.661336
11
109.698586
21
56.148824
0
LINE
8
annotation
62
1
39
211
10
109.698586
20
56.148824
11
109.745057
21
56.666638
0
LINE
8
hole
62
5
39
2
10
15.381749
20
144.565241
11
15.953249
21
144.565241
0
LINE
8
hole
62
5
39
2
10
15.953249
20
144.565241
11
15.953249
21
145.136741
0
LINE
8
hole
62
5
39
2
10
15.953249
20
145.136741
11
15.381749
21
145.136741
0
LINE
8
hole
62
5
39
2
10
15.381749
20
145.136741
11
15.381749
21
144.565241
0
LINE
8
hole
62
5
39
2
10
51.381747
20
180.569582
11
51.953247
21
180.569582
0
LINE
8
hole
62
5
39
2
10
51.953247
20
180.569582
11
51.953247
21
181.141082
0
LINE
8
hole
62
5
39
2
10
51.953247
20
181.141082
11
51.381747
21
181.141082
0
LINE
8
hole
62
5
39
2
10
51.381747
20
181.141082
11
51.381747
21
180.569582
0
LINE
8
hole
62
5
39
2
10
51.381747
20
108.566563
11
51.953247
21
108.566563
0
LINE
8
hole
62
5
39
2
10
51.953247
20
108.566563
11
51.953247
21
109.138063
0
LINE
8
hole
62
5
39
2
10
51.953247
20
109.138063
11
51.381747
21
109.138063
0
LINE
8
hole
62
5
39
2
10
51.381747
20
109.138063
11
51.381747
21
108.566563
0
LINE
8
hole
62
5
39
2
10
87.381744
20
144.565241
11
87.953244
21
144.565241
0
LINE
8
hole
62
5
39
2
10
87.953244
20
144.565241
11
87.953244
21
145.136741
0
LINE
8
hole
62
5
39
2
10
87.953244
20
145.136741
11
87.381744
21
145.136741
0
LINE
8
hole
62
5
39
2
10
87.381744
20
145.136741
11
87.381744
21
144.565241
0
LINE
8
hole
62
5
39
2
10
73.842286
20
129.418502
11
72.860949
21
128.668634
0
LINE
8
hole
62
5
39
2
10
72.860949
20
128.668634
11
72.426816
21
128.336916
0
LINE
8
hole
62
5
39
2
10
72.426816
20
128.336916
11
71.376344
21
127.666157
0
LINE
8
hole
62
5
39
2
10
71.376344
20
127.666157
11
70.912157
21
127.369774
0
LINE
8
hole
62
5
39
2
10
70.912157
20
127.369774
11
69.813889
21
126.792593
0
LINE
8
hole
62
5
39
2
10
69.813889
20
126.792593
11
69.328313
21
126.537405
0
LINE
8
hole
62
5
39
2
10
69.328313
20
126.537405
11
68.185387
21
126.054647
0
LINE
8
hole
62
5
39
2
10
68.185387
20
126.054647
11
67.680069
21
125.841206
0
LINE
8
hole
62
5
39
2
10
67.680069
20
125.841206
11
66.500587
21
125.456293
0
LINE
8
hole
62
5
39
2
10
66.500587
20
125.456293
11
65.979106
21
125.286112
0
LINE
8
hole
62
5
39
2
10
65.979106
20
125.286112
11
64.771427
21
125.001771
0
LINE
8
hole
62
5
39
2
10
64.771427
20
125.001771
11
64.237480
21
124.876055
0
LINE
8
hole
62
5
39
2
10
64.237480
20
124.876055
11
63.174704
21
124.711081
0
LINE
8
hole
62
5
39
2
10
63.174704
20
124.711081
11
62.704512
21
124.639651
0
LINE
8
hole
62
5
39
2
10
62.704512
20
124.639651
11
46.913254
21
124.639651
0
LINE
8
hole
62
5
39
2
10
46.913254
20
124.639651
11
40.630481
21
124.639651
0
LINE
8
hole
62
5
39
2
10
40.630481
20
124.639651
11
40.160290
21
124.711081
0
LINE
8
hole
62
5
39
2
10
40.160290
20
124.711081
11
39.097514
21
124.876055
0
LINE
8
hole
62
5
39
2
10
39.097514
20
124.876055
11
37.889835
21
125.160396
0
LINE
8
hole
62
5
39
2
10
37.889835
20
125.160396
11
37.355888
21
125.286112
0
LINE
8
hole
62
5
39
2
10
37.355888
20
125.286112
11
36.176407
21
125.671025
0
LINE
8
hole
62
5
39
2
10
36.176407
20
125.671025
11
35.654925
21
125.841206
0
LINE
8
hole
62
5
39
2
10
35.654925
20
125.841206
11
34.511999
21
126.323964
0
LINE
8
hole
62
5
39
2
10
34.511999
20
126.323964
11
34.006680
21
126.537405
0
LINE
8
hole
62
5
39
2
10
34.006680
20
126.537405
11
32.908412
21
127.114587
0
LINE
8
hole
62
5
39
2
10
32.908412
20
127.114587
11
32.422836
21
127.369774
0
LINE
8
hole
62
5
39
2
10
32.422836
20
127.369774
11
31.958650
21
127.666157
0
LINE
8
hole
62
5
39
2
10
31.958650
20
127.666157
11
30.908177
21
128.336916
0
LINE
8
hole
62
5
39
2
10
30.908177
20
128.336916
11
30.474045
21
128.668634
0
LINE
8
hole
62
5
39
2
10
30.474045
20
128.668634
11
29.492708
21
129.418502
0
LINE
8
hole
62
5
39
2
10
29.492708
20
129.418502
11
28.573570
21
130.251881
0
LINE
8
hole
62
5
39
2
10
28.573570
20
130.251881
11
28.167192
21
130.620340
0
LINE
8
hole
62
5
39
2
10
28.167192
20
130.620340
11
27.321407
21
131.528076
0
LINE
8
hole
62
5
39
2
10
27.321407
20
131.528076
11
26.947463
21
131.929411
0
LINE
8
hole
62
5
39
2
10
26.947463
20
131.929411
11
26.181027
21
132.905070
0
LINE
8
hole
62
5
39
2
10
26.181027
20
132.905070
11
25.842164
21
133.336435
0
LINE
8
hole
62
5
39
2
10
25.842164
20
133.336435
11
25.160509
21
134.373104
0
LINE
8
hole
62
5
39
2
10
25.160509
20
134.373104
11
24.859131
21
134.831444
0
LINE
8
hole
62
5
39
2
10
24.859131
20
134.831444
11
24.267088
21
135.921773
0
LINE
8
hole
62
5
39
2
10
24.267088
20
135.921773
11
24.005328
21
136.403838
0
LINE
8
hole
62
5
39
2
10
24.005328
20
136.403838
11
23.507091
21
137.540102
0
LINE
8
hole
62
5
39
2
10
23.507091
20
137.540102
11
23.286808
21
138.042476
0
LINE
8
hole
62
5
39
2
10
23.286808
20
138.042476
11
22.885911
21
139.216621
0
LINE
8
hole
62
5
39
2
10
22.885911
20
139.216621
11
22.708662
21
139.735743
0
LINE
8
hole
62
5
39
2
10
22.708662
20
139.735743
11
22.407946
21
140.939447
0
LINE
8
hole
62
5
39
2
10
22.407946
20
140.939447
11
22.274992
21
141.471638
0
LINE
8
hole
62
5
39
2
10
22.274992
20
141.471638
11
22.076585
21
142.696371
0
LINE
8
hole
62
5
39
2
10
22.076585
20
142.696371
11
21.988865
21
143.237859
0
LINE
8
hole
62
5
39
2
10
21.988865
20
143.237859
11
21.897808
21
144.358781
0
LINE
8
hole
62
5
39
2
10
21.897808
20
144.358781
11
21.858288
21
144.857834
0
LINE
8
hole
62
5
39
2
10
21.858288
20
144.857834
11
21.897808
21
145.356887
0
LINE
8
hole
62
5
39
2
10
21.897808
20
145.356887
11
21.988865
21
146.477809
0
LINE
8
hole
62
5
39
2
10
21.988865
20
146.477809
11
22.187271
21
147.702541
0
LINE
8
hole
62
5
39
2
10
22.187271
20
147.702541
11
22.274991
21
148.244030
0
LINE
8
hole
62
5
39
2
10
22.274991
20
148.244030
11
22.575708
21
149.447734
0
LINE
8
hole
62
5
39
2
10
22.575708
20
149.447734
11
22.708663
21
149.979925
0
LINE
8
hole
62
5
39
2
10
22.708663
20
149.979925
11
23.109559
21
151.154070
0
LINE
8
hole
62
5
39
2
10
23.109559
20
151.154070
11
23.286808
21
151.673192
0
LINE
8
hole
62
5
39
2
10
23.286808
20
151.673192
11
23.785044
21
152.809456
0
LINE
8
hole
62
5
39
2
10
23.785044
20
152.809456
11
24.005328
21
153.311830
0
LINE
8
hole
62
5
39
2
10
24.005328
20
153.311830
11
24.597372
21
154.402159
0
LINE
8
hole
62
5
39
2
10
24.597372
20
154.402159
11
24.859131
21
154.884224
0
LINE
8
hole
62
5
39
2
10
24.859131
20
154.884224
11
25.540786
21
155.920893
0
LINE
8
hole
62
5
39
2
10
25.540786
20
155.920893
11
25.842164
21
156.379233
0
LINE
8
hole
62
5
39
2
10
25.842164
20
156.379233
11
26.608600
21
157.354892
0
LINE
8
hole
62
5
39
2
10
26.608600
20
157.354892
11
26.947463
21
157.786257
0
LINE
8
hole
62
5
39
2
10
26.947463
20
157.786257
11
27.793248
21
158.693993
0
LINE
8
hole
62
5
39
2
10
27.793248
20
158.693993
11
28.167192
21
159.095328
0
LINE
8
hole
62
5
39
2
10
28.167192
20
159.095328
11
29.086330
21
159.928707
0
LINE
8
hole
62
5
39
2
10
29.086330
20
159.928707
11
29.492707
21
160.297166
0
LINE
8
hole
62
5
39
2
10
29.492707
20
160.297166
11
30.474045
21
161.047034
0
LINE
8
hole
62
5
39
2
10
30.474045
20
161.047034
11
30.908177
21
161.378752
0
LINE
8
hole
62
5
39
2
10
30.908177
20
161.378752
11
31.958650
21
162.049512
0
LINE
8
hole
62
5
39
2
10
31.958650
20
162.049512
11
32.422836
21
162.345894
0
LINE
8
hole
62
5
39
2
10
32.422836
20
162.345894
11
33.521105
21
162.923075
0
LINE
8
hole
62
5
39
2
10
33.521105
20
162.923075
11
34.006680
21
163.178263
0
LINE
8
hole
62
5
39
2
10
34.006680
20
163.178263
11
35.149606
21
163.661021
0
LINE
8
hole
62
5
39
2
10
35.149606
20
163.661021
11
35.654925
21
163.874462
0
LINE
8
hole
62
5
39
2
10
35.654925
20
163.874462
11
36.834406
21
164.259375
0
LINE
8
hole
62
5
39
2
10
36.834406
20
164.259375
11
37.355888
21
164.429556
0
LINE
8
hole
62
5
39
2
10
37.355888
20
164.429556
11
38.563566
21
164.713898
0
LINE
8
hole
62
5
39
2
10
38.563566
20
164.713898
11
39.097514
21
164.839613
0
LINE
8
hole
62
5
39
2
10
39.097514
20
164.839613
11
40.160290
21
165.004588
0
LINE
8
hole
62
5
39
2
10
40.160290
20
165.004588
11
40.630481
21
165.076017
0
LINE
8
hole
62
5
39
2
10
40.630481
20
165.076017
11
56.421739
21
165.076017
0
LINE
8
hole
62
5
39
2
10
56.421739
20
165.076017
11
62.704512
21
165.076017
0
LINE
8
hole
62
5
39
2
10
62.704512
20
165.076017
11
63.174704
21
165.004588
0
LINE
8
hole
62
5
39
2
10
63.174704
20
165.004588
11
64.237480
21
164.839613
0
LINE
8
hole
62
5
39
2
10
64.237480
20
164.839613
11
65.445158
21
164.555272
0
LINE
8
hole
62
5
39
2
10
65.445158
20
164.555272
11
65.979105
21
164.429556
0
LINE
8
hole
62
5
39
2
10
65.979105
20
164.429556
11
67.158587
21
164.044643
0
LINE
8
hole
62
5
39
2
10
67.158587
20
164.044643
11
67.680069
21
163.874462
0
LINE
8
hole
62
5
39
2
10
67.680069
20
163.874462
11
68.822994
21
163.391704
0
LINE
8
hole
62
5
39
2
10
68.822994
20
163.391704
11
69.328313
21
163.178263
0
LINE
8
hole
62
5
39
2
10
69.328313
20
163.178263
11
70.426581
21
162.601081
0
LINE
8
hole
62
5
39
2
10
70.426581
20
162.601081
11
70.912157
21
162.345894
0
LINE
8
hole
62
5
39
2
10
70.912157
20
162.345894
11
71.376344
21
162.049512
0
LINE
8
hole
62
5
39
2
10
71.376344
20
162.049512
11
72.426817
21
161.378752
0
LINE
8
hole
62
5
39
2
10
72.426817
20
161.378752
11
72.860949
21
161.047034
0
LINE
8
hole
62
5
39
2
10
72.860949
20
161.047034
11
73.842286
21
160.297166
0
LINE
8
hole
62
5
39
2
10
73.842286
20
160.297166
11
74.761424
21
159.463788
0
LINE
8
hole
62
5
39
2
10
74.761424
20
159.463788
11
75.167801
21
159.095328
0
LINE
8
hole
62
5
39
2
10
75.167801
20
159.095328
11
76.013586
21
158.187592
0
LINE
8
hole
62
5
39
2
10
76.013586
20
158.187592
11
76.387530
21
157.786257
0
LINE
8
hole
62
5
39
2
10
76.387530
20
157.786257
11
77.153966
21
156.810599
0
LINE
8
hole
62
5
39
2
10
77.153966
20
156.810599
11
77.492829
21
156.379233
0
LINE
8
hole
62
5
39
2
10
77.492829
20
156.379233
11
78.174484
21
155.342564
0
LINE
8
hole
62
5
39
2
10
78.174484
20
155.342564
11
78.475862
21
154.884224
0
LINE
8
hole
62
5
39
2
10
78.475862
20
154.884224
11
79.067906
21
153.793895
0
LINE
8
hole
62
5
39
2
10
79.067906
20
153.793895
11
79.329665
21
153.311830
0
LINE
8
hole
62
5
39
2
10
79.329665
20
153.311830
11
79.827902
21
152.175566
0
LINE
8
hole
62
5
39
2
10
79.827902
20
152.175566
11
80.048186
21
151.673192
0
LINE
8
hole
62
5
39
2
10
80.048186
20
151.673192
11
80.449082
21
150.499047
0
LINE
8
hole
62
5
39
2
10
80.449082
20
150.499047
11
80.626331
21
149.979925
0
LINE
8
hole
62
5
39
2
10
80.626331
20
149.979925
11
80.927047
21
148.776221
0
LINE
8
hole
62
5
39
2
10
80.927047
20
148.776221
11
81.060002
21
148.244030
0
LINE
8
hole
62
5
39
2
10
81.060002
20
148.244030
11
81.258408
21
147.019297
0
LINE
8
hole
62
5
39
2
10
81.258408
20
147.019297
11
81.346129
21
146.477809
0
LINE
8
hole
62
5
39
2
10
81.346129
20
146.477809
11
81.437185
21
145.356887
0
LINE
8
hole
62
5
39
2
10
81.437185
20
145.356887
11
81.476705
21
144.857834
0
LINE
8
hole
62
5
39
2
10
81.476705
20
144.857834
11
81.437185
21
144.358781
0
LINE
8
hole
62
5
39
2
10
81.437185
20
144.358781
11
81.346129
21
143.237859
0
LINE
8
hole
62
5
39
2
10
81.346129
20
143.237859
11
81.147722
21
142.013127
0
LINE
8
hole
62
5
39
2
10
81.147722
20
142.013127
11
81.060002
21
141.471638
0
LINE
8
hole
62
5
39
2
10
81.060002
20
141.471638
11
80.759286
21
140.267934
0
LINE
8
hole
62
5
39
2
10
80.759286
20
140.267934
11
80.626331
21
139.735743
0
LINE
8
hole
62
5
39
2
10
80.626331
20
139.735743
11
80.225434
21
138.561598
0
LINE
8
hole
62
5
39
2
10
80.225434
20
138.561598
11
80.048186
21
138.042476
0
LINE
8
hole
62
5
39
2
10
80.048186
20
138.042476
11
79.549949
21
136.906212
0
LINE
8
hole
62
5
39
2
10
79.549949
20
136.906212
11
79.329665
21
136.403838
0
LINE
8
hole
62
5
39
2
10
79.329665
20
136.403838
11
78.737622
21
135.313509
0
LINE
8
hole
62
5
39
2
10
78.737622
20
135.313509
11
78.475862
21
134.831444
0
LINE
8
hole
62
5
39
2
10
78.475862
20
134.831444
11
77.794207
21
133.794776
0
LINE
8
hole
62
5
39
2
10
77.794207
20
133.794776
11
77.492829
21
133.336435
0
LINE
8
hole
62
5
39
2
10
77.492829
20
133.336435
11
76.726394
21
132.360777
0
LINE
8
hole
62
5
39
2
10
76.726394
20
132.360777
11
76.387530
21
131.929411
0
LINE
8
hole
62
5
39
2
10
76.387530
20
131.929411
11
75.541746
21
131.021675
0
LINE
8
hole
62
5
39
2
10
75.541746
20
131.021675
11
75.167801
21
130.620340
0
LINE
8
hole
62
5
39
2
10
75.167801
20
130.620340
11
74.248663
21
129.786961
0
LINE
8
hole
62
5
39
2
10
74.248663
20
129.786961
11
73.842286
21
129.418502
0
LINE
8
boundary
62
5
39
2
10
83.232758
20
112.777228
11
84.891271
21
114.518334
0
LINE
8
boundary
62
5
39
2
10
84.891271
20
114.518334
11
85.243133
21
114.887719
0
LINE
8
boundary
62
5
39
2
10
85.243133
20
114.887719
11
86.785467
21
116.732531
0
LINE
8
boundary
62
5
39
2
10
86.785467
20
116.732531
11
87.112681
21
117.123916
0
LINE
8
boundary
62
5
39
2
10
87.112681
20
117.123916
11
88.532362
21
119.064695
0
LINE
8
boundary
62
5
39
2
10
88.532362
20
119.064695
11
88.833554
21
119.476441
0
LINE
8
boundary
62
5
39
2
10
88.833554
20
119.476441
11
90.124635
21
121.505045
0
LINE
8
boundary
62
5
39
2
10
90.124635
20
121.505045
11
90.398545
21
121.935423
0
LINE
8
boundary
62
5
39
2
10
90.398545
20
121.935423
11
91.555603
21
124.043343
0
LINE
8
boundary
62
5
39
2
10
91.555603
20
124.043343
11
91.801078
21
124.490548
0
LINE
8
boundary
62
5
39
2
10
91.801078
20
124.490548
11
92.819270
21
126.668944
0
LINE
8
boundary
62
5
39
2
10
92.819270
20
126.668944
11
93.035284
21
127.131102
0
LINE
8
boundary
62
5
39
2
10
93.035284
20
127.131102
11
93.910333
21
129.370837
0
LINE
8
boundary
62
5
39
2
10
93.910333
20
129.370837
11
94.095978
21
129.846008
0
LINE
8
boundary
62
5
39
2
10
94.095978
20
129.846008
11
94.824214
21
132.137686
0
LINE
8
boundary
62
5
39
2
10
94.824214
20
132.137686
11
94.978713
21
132.623877
0
LINE
8
boundary
62
5
39
2
10
94.978713
20
132.623877
11
95.557078
21
134.957888
0
LINE
8
boundary
62
5
39
2
10
95.557078
20
134.957888
11
95.679781
21
135.453061
0
LINE
8
boundary
62
5
39
2
10
95.679781
20
135.453061
11
96.105853
21
137.819616
0
LINE
8
boundary
62
5
39
2
10
96.105853
20
137.819616
11
96.196247
21
138.321692
0
LINE
8
boundary
62
5
39
2
10
96.196247
20
138.321692
11
96.468240
21
140.710863
0
LINE
8
boundary
62
5
39
2
10
96.468240
20
140.710863
11
96.525944
21
141.217737
0
LINE
8
boundary
62
5
39
2
10
96.525944
20
141.217737
11
96.642719
21
143.619504
0
LINE
8
boundary
62
5
39
2
10
96.642719
20
143.619504
11
96.667494
21
144.129050
0
LINE
8
boundary
62
5
39
2
10
96.667494
20
144.129050
11
96.628558
21
146.533339
0
LINE
8
boundary
62
5
39
2
10
96.628558
20
146.533339
11
96.620297
21
147.043421
0
LINE
8
boundary
62
5
39
2
10
96.620297
20
147.043421
11
96.425811
21
149.440146
0
LINE
8
boundary
62
5
39
2
10
96.425811
20
149.440146
11
96.384550
21
149.948623
0
LINE
8
boundary
62
5
39
2
10
96.384550
20
149.948623
11
96.035332
21
152.327734
0
LINE
8
boundary
62
5
39
2
10
96.035332
20
152.327734
11
95.961244
21
152.832474
0
LINE
8
boundary
62
5
39
2
10
95.961244
20
152.832474
11
95.458759
21
155.183990
0
LINE
8
boundary
62
5
39
2
10
95.458759
20
155.183990
11
95.352155
21
155.682875
0
LINE
8
boundary
62
5
39
2
10
95.352155
20
155.682875
11
94.698511
21
157.996935
0
LINE
8
boundary
62
5
39
2
10
94.698511
20
157.996935
11
94.559837
21
158.487874
0
LINE
8
boundary
62
5
39
2
10
94.559837
20
158.487874
11
93.757776
21
160.754770
0
LINE
8
boundary
62
5
39
2
10
93.757776
20
160.754770
11
93.587615
21
161.235703
0
LINE
8
boundary
62
5
39
2
10
93.587615
20
161.235703
11
92.640501
21
163.445927
0
LINE
8
boundary
62
5
39
2
10
92.640501
20
163.445927
11
92.439566
21
163.914838
0
LINE
8
boundary
62
5
39
2
10
92.439566
20
163.914838
11
91.351369
21
166.059121
0
LINE
8
boundary
62
5
39
2
10
91.351369
20
166.059121
11
91.120503
21
166.514042
0
LINE
8
boundary
62
5
39
2
10
91.120503
20
166.514042
11
89.895790
21
168.583387
0
LINE
8
boundary
62
5
39
2
10
89.895790
20
168.583387
11
89.635961
21
169.022410
0
LINE
8
boundary
62
5
39
2
10
89.635961
20
169.022410
11
88.279868
21
171.008142
0
LINE
8
boundary
62
5
39
2
10
88.279868
20
171.008142
11
87.992166
21
171.429426
0
LINE
8
boundary
62
5
39
2
10
87.992166
20
171.429426
11
86.510380
21
173.323210
0
LINE
8
boundary
62
5
39
2
10
86.510380
20
173.323210
11
86.196012
21
173.724986
0
LINE
8
boundary
62
5
39
2
10
86.196012
20
173.724986
11
84.594752
21
175.518886
0
LINE
8
boundary
62
5
39
2
10
84.594752
20
175.518886
11
84.255036
21
175.899471
0
LINE
8
boundary
62
5
39
2
10
84.255036
20
175.899471
11
82.541010
21
177.585962
0
LINE
8
boundary
62
5
39
2
10
82.541010
20
177.585962
11
82.177371
21
177.943760
0
LINE
8
boundary
62
5
39
2
10
82.177371
20
177.943760
11
80.357779
21
179.515764
0
LINE
8
boundary
62
5
39
2
10
80.357779
20
179.515764
11
79.971744
21
179.849273
0
LINE
8
boundary
62
5
39
2
10
79.971744
20
179.849273
11
78.054209
21
181.300196
0
LINE
8
boundary
62
5
39
2
10
78.054209
20
181.300196
11
77.647394
21
181.608016
0
LINE
8
boundary
62
5
39
2
10
77.647394
20
181.608016
11
75.639964
21
182.931776
0
LINE
8
boundary
62
5
39
2
10
75.639964
20
182.931776
11
75.214078
21
183.212618
0
LINE
8
boundary
62
5
39
2
10
75.214078
20
183.212618
11
73.125171
21
184.403663
0
LINE
8
boundary
62
5
39
2
10
73.125171
20
184.403663
11
72.681999
21
184.656350
0
LINE
8
boundary
62
5
39
2
10
72.681999
20
184.656350
11
70.520376
21
185.709680
0
LINE
8
boundary
62
5
39
2
10
70.520376
20
185.709680
11
70.061777
21
185.933149
0
LINE
8
boundary
62
5
39
2
10
70.061777
20
185.933149
11
67.836506
21
186.844348
0
LINE
8
boundary
62
5
39
2
10
67.836506
20
186.844348
11
67.364404
21
187.037663
0
LINE
8
boundary
62
5
39
2
10
67.364404
20
187.037663
11
67.181958
21
187.103858
0
LINE
8
boundary
62
5
39
2
10
67.181958
20
187.103858
11
67.156133
21
187.113054
0
LINE
8
boundary
62
5
39
2
10
67.156133
20
187.113054
11
67.087527
21
187.137077
0
LINE
8
boundary
62
5
39
2
10
67.087527
20
187.137077
11
66.969872
21
187.177450
0
LINE
8
boundary
62
5
39
2
10
66.969872
20
187.177450
11
65.020581
21
187.831821
0
LINE
8
boundary
62
5
39
2
10
65.020581
20
187.831821
11
64.882881
21
187.877455
0
LINE
8
boundary
62
5
39
2
10
64.882881
20
187.877455
11
64.688771
21
187.938581
0
LINE
8
boundary
62
5
39
2
10
64.688771
20
187.938581
11
64.437127
21
188.013254
0
LINE
8
boundary
62
5
39
2
10
64.437127
20
188.013254
11
64.129869
21
188.098470
0
LINE
8
boundary
62
5
39
2
10
64.129869
20
188.098470
11
62.284027
21
188.587725
0
LINE
8
boundary
62
5
39
2
10
62.284027
20
188.587725
11
61.960069
21
188.670330
0
LINE
8
boundary
62
5
39
2
10
61.960069
20
188.670330
11
61.576010
21
188.758381
0
LINE
8
boundary
62
5
39
2
10
61.576010
20
188.758381
11
61.123111
21
188.850439
0
LINE
8
boundary
62
5
39
2
10
61.123111
20
188.850439
11
59.352763
21
189.198860
0
LINE
8
boundary
62
5
39
2
10
59.352763
20
189.198860
11
58.867518
21
189.283793
0
LINE
8
boundary
62
5
39
2
10
58.867518
20
189.283793
11
58.323901
21
189.362615
0
LINE
8
boundary
62
5
39
2
10
58.323901
20
189.362615
11
56.594249
21
189.587952
0
LINE
8
boundary
62
5
39
2
10
56.594249
20
189.587952
11
56.027206
21
189.652019
0
LINE
8
boundary
62
5
39
2
10
56.027206
20
189.652019
11
55.425441
21
189.700724
0
LINE
8
boundary
62
5
39
2
10
55.425441
20
189.700724
11
53.724900
21
189.811033
0
LINE
8
boundary
62
5
39
2
10
53.724900
20
189.811033
11
53.118655
21
189.840271
0
LINE
8
boundary
62
5
39
2
10
53.118655
20
189.840271
11
52.512695
21
189.850046
0
LINE
8
boundary
62
5
39
2
10
52.512695
20
189.850046
11
50.822299
21
189.850046
0
LINE
8
boundary
62
5
39
2
10
50.822299
20
189.850046
11
50.216338
21
189.840271
0
LINE
8
boundary
62
5
39
2
10
50.216338
20
189.840271
11
49.610094
21
189.811033
0
LINE
8
boundary
62
5
39
2
10
49.610094
20
189.811033
11
47.909552
21
189.700724
0
LINE
8
boundary
62
5
39
2
10
47.909552
20
189.700724
11
47.307788
21
189.652019
0
LINE
8
boundary
62
5
39
2
10
47.307788
20
189.652019
11
46.740745
21
189.587952
0
LINE
8
boundary
62
5
39
2
10
46.740745
20
189.587952
11
45.011092
21
189.362614
0
LINE
8
boundary
62
5
39
2
10
45.011092
20
189.362614
11
44.467476
21
189.283793
0
LINE
8
boundary
62
5
39
2
10
44.467476
20
189.283793
11
43.982231
21
189.198860
0
LINE
8
boundary
62
5
39
2
10
43.982231
20
189.198860
11
42.211883
21
188.850439
0
LINE
8
boundary
62
5
39
2
10
42.211883
20
188.850439
11
41.758984
21
188.758381
0
LINE
8
boundary
62
5
39
2
10
41.758984
20
188.758381
11
41.374925
21
188.670330
0
LINE
8
boundary
62
5
39
2
10
41.374925
20
188.670330
11
41.050966
21
188.587725
0
LINE
8
boundary
62
5
39
2
10
41.050966
20
188.587725
11
39.205125
21
188.098470
0
LINE
8
boundary
62
5
39
2
10
39.205125
20
188.098470
11
38.897867
21
188.013254
0
LINE
8
boundary
62
5
39
2
10
38.897867
20
188.013254
11
38.646223
21
187.938581
0
LINE
8
boundary
62
5
39
2
10
38.646223
20
187.938581
11
38.452113
21
187.877455
0
LINE
8
boundary
62
5
39
2
10
38.452113
20
187.877455
11
38.314413
21
187.831821
0
LINE
8
boundary
62
5
39
2
10
38.314413
20
187.831821
11
36.365121
21
187.177450
0
LINE
8
boundary
62
5
39
2
10
36.365121
20
187.177450
11
36.247466
21
187.137077
0
LINE
8
boundary
62
5
39
2
10
36.247466
20
187.137077
11
36.178861
21
187.113054
0
LINE
8
boundary
62
5
39
2
10
36.178861
20
187.113054
11
36.153035
21
187.103858
0
LINE
8
boundary
62
5
39
2
10
36.153035
20
187.103858
11
35.970590
21
187.037663
0
LINE
8
boundary
62
5
39
2
10
35.970590
20
187.037663
11
33.745318
21
186.126464
0
LINE
8
boundary
62
5
39
2
10
33.745318
20
186.126464
11
33.273216
21
185.933149
0
LINE
8
boundary
62
5
39
2
10
33.273216
20
185.933149
11
31.111593
21
184.879819
0
LINE
8
boundary
62
5
39
2
10
31.111593
20
184.879819
11
30.652994
21
184.656350
0
LINE
8
boundary
62
5
39
2
10
30.652994
20
184.656350
11
28.564088
21
183.465304
0
LINE
8
boundary
62
5
39
2
10
28.564088
20
183.465304
11
28.120916
21
183.212618
0
LINE
8
boundary
62
5
39
2
10
28.120916
20
183.212618
11
26.113486
21
181.888859
0
LINE
8
boundary
62
5
39
2
10
26.113486
20
181.888859
11
25.687599
21
181.608016
0
LINE
8
boundary
62
5
39
2
10
25.687599
20
181.608016
11
23.770065
21
180.157093
0
LINE
8
boundary
62
5
39
2
10
23.770065
20
180.157093
11
23.363250
21
179.849273
0
LINE
8
boundary
62
5
39
2
10
23.363250
20
179.849273
11
21.543658
21
178.277268
0
LINE
8
boundary
62
5
39
2
10
21.543658
20
178.277268
11
21.157622
21
177.943760
0
LINE
8
boundary
62
5
39
2
10
21.157622
20
177.943760
11
19.443596
21
176.257269
0
LINE
8
boundary
62
5
39
2
10
19.443596
20
176.257269
11
19.079957
21
175.899471
0
LINE
8
boundary
62
5
39
2
10
19.079957
20
175.899471
11
17.478697
21
174.105571
0
LINE
8
boundary
62
5
39
2
10
17.478697
20
174.105571
11
17.138981
21
173.724986
0
LINE
8
boundary
62
5
39
2
10
17.138981
20
173.724986
11
15.657196
21
171.831201
0
LINE
8
boundary
62
5
39
2
10
15.657196
20
171.831201
11
15.342827
21
171.429426
0
LINE
8
boundary
62
5
39
2
10
15.342827
20
171.429426
11
13.986734
21
169.443693
0
LINE
8
boundary
62
5
39
2
10
13.986734
20
169.443693
11
13.699032
21
169.022410
0
LINE
8
boundary
62
5
39
2
10
13.699032
20
169.022410
11
12.474320
21
166.953064
0
LINE
8
boundary
62
5
39
2
10
12.474320
20
166.953064
11
12.214491
21
166.514042
0
LINE
8
boundary
62
5
39
2
10
12.214491
20
166.514042
11
11.126294
21
164.369758
0
LINE
8
boundary
62
5
39
2
10
11.126294
20
164.369758
11
10.895427
21
163.914838
0
LINE
8
boundary
62
5
39
2
10
10.895427
20
163.914838
11
9.948313
21
161.704613
0
LINE
8
boundary
62
5
39
2
10
9.948313
20
161.704613
11
9.747378
21
161.235703
0
LINE
8
boundary
62
5
39
2
10
9.747378
20
161.235703
11
8.945318
21
158.968807
0
LINE
8
boundary
62
5
39
2
10
8.945318
20
158.968807
11
8.775157
21
158.487874
0
LINE
8
boundary
62
5
39
2
10
8.775157
20
158.487874
11
8.121513
21
156.173814
0
LINE
8
boundary
62
5
39
2
10
8.121513
20
156.173814
11
7.982839
21
155.682875
0
LINE
8
boundary
62
5
39
2
10
7.982839
20
155.682875
11
7.480354
21
153.331360
0
LINE
8
boundary
62
5
39
2
10
7.480354
20
153.331360
11
7.373749
21
152.832474
0
LINE
8
boundary
62
5
39
2
10
7.373749
20
152.832474
11
7.024532
21
150.453364
0
LINE
8
boundary
62
5
39
2
10
7.024532
20
150.453364
11
6.950444
21
149.948623
0
LINE
8
boundary
62
5
39
2
10
6.950444
20
149.948623
11
6.755957
21
147.551898
0
LINE
8
boundary
62
5
39
2
10
6.755957
20
147.551898
11
6.714696
21
147.043421
0
LINE
8
boundary
62
5
39
2
10
6.714696
20
147.043421
11
6.675760
21
144.639132
0
LINE
8
boundary
62
5
39
2
10
6.675760
20
144.639132
11
6.667500
21
144.129050
0
LINE
8
boundary
62
5
39
2
10
6.667500
20
144.129050
11
6.784275
21
141.727284
0
LINE
8
boundary
62
5
39
2
10
6.784275
20
141.727284
11
6.809049
21
141.217737
0
LINE
8
boundary
62
5
39
2
10
6.809049
20
141.217737
11
7.081042
21
138.828567
0
LINE
8
boundary
62
5
39
2
10
7.081042
20
138.828567
11
7.138747
21
138.321692
0
LINE
8
boundary
62
5
39
2
10
7.138747
20
138.321692
11
7.564819
21
135.955137
0
LINE
8
boundary
62
5
39
2
10
7.564819
20
135.955137
11
7.655212
21
135.453061
0
LINE
8
boundary
62
5
39
2
10
7.655212
20
135.453061
11
8.233578
21
133.119049
0
LINE
8
boundary
62
5
39
2
10
8.233578
20
133.119049
11
8.356281
21
132.623877
0
LINE
8
boundary
62
5
39
2
10
8.356281
20
132.623877
11
9.084516
21
130.332199
0
LINE
8
boundary
62
5
39
2
10
9.084516
20
130.332199
11
9.239015
21
129.846008
0
LINE
8
boundary
62
5
39
2
10
9.239015
20
129.846008
11
10.114063
21
127.606273
0
LINE
8
boundary
62
5
39
2
10
10.114063
20
127.606273
11
10.299709
21
127.131102
0
LINE
8
boundary
62
5
39
2
10
10.299709
20
127.131102
11
11.317901
21
124.952706
0
LINE
8
boundary
62
5
39
2
10
11.317901
20
124.952706
11
11.533915
21
124.490548
0
LINE
8
boundary
62
5
39
2
10
11.533915
20
124.490548
11
12.690973
21
122.382629
0
LINE
8
boundary
62
5
39
2
10
12.690973
20
122.382629
11
12.936449
21
121.935423
0
LINE
8
boundary
62
5
39
2
10
12.936449
20
121.935423
11
14.227530
21
119.906819
0
LINE
8
boundary
62
5
39
2
10
14.227530
20
119.906819
11
14.501439
21
119.476441
0
LINE
8
boundary
62
5
39
2
10
14.501439
20
119.476441
11
15.921120
21
117.535662
0
LINE
8
boundary
62
5
39
2
10
15.921120
20
117.535662
11
16.222313
21
117.123916
0
LINE
8
boundary
62
5
39
2
10
16.222313
20
117.123916
11
17.764646
21
115.279105
0
LINE
8
boundary
62
5
39
2
10
17.764646
20
115.279105
11
18.091860
21
114.887719
0
LINE
8
boundary
62
5
39
2
10
18.091860
20
114.887719
11
19.750374
21
113.146612
0
LINE
8
boundary
62
5
39
2
10
19.750374
20
113.146612
11
20.102236
21
112.777228
0
LINE
8
boundary
62
5
39
2
10
20.102236
20
112.777228
11
21.869973
21
111.147126
0
LINE
8
boundary
62
5
39
2
10
21.869973
20
111.147126
11
22.245007
21
110.801292
0
LINE
8
boundary
62
5
39
2
10
22.245007
20
110.801292
11
24.114549
21
109.289036
0
LINE
8
boundary
62
5
39
2
10
24.114549
20
109.289036
11
24.511181
21
108.968204
0
LINE
8
boundary
62
5
39
2
10
24.511181
20
108.968204
11
26.474694
21
107.580134
0
LINE
8
boundary
62
5
39
2
10
26.474694
20
107.580134
11
26.891262
21
107.285648
0
LINE
8
boundary
62
5
39
2
10
26.891262
20
107.285648
11
28.940507
21
106.027585
0
LINE
8
boundary
62
5
39
2
10
28.940507
20
106.027585
11
29.375265
21
105.760681
0
LINE
8
boundary
62
5
39
2
10
29.375265
20
105.760681
11
31.501646
21
104.637905
0
LINE
8
boundary
62
5
39
2
10
31.501646
20
104.637905
11
31.952768
21
104.399702
0
LINE
8
boundary
62
5
39
2
10
31.952768
20
104.399702
11
34.147365
21
103.416922
0
LINE
8
boundary
62
5
39
2
10
34.147365
20
103.416922
11
34.612960
21
103.208420
0
LINE
8
boundary
62
5
39
2
10
34.612960
20
103.208420
11
35.151830
21
103.002973
0
LINE
8
boundary
62
5
39
2
10
35.151830
20
103.002973
11
35.190986
21
102.988569
0
LINE
8
boundary
62
5
39
2
10
35.190986
20
102.988569
11
37.178716
21
102.248849
0
LINE
8
boundary
62
5
39
2
10
37.178716
20
102.248849
11
37.232607
21
102.230032
0
LINE
8
boundary
62
5
39
2
10
37.232607
20
102.230032
11
37.334469
21
102.195247
0
LINE
8
boundary
62
5
39
2
10
37.334469
20
102.195247
11
37.489026
21
102.144256
0
LINE
8
boundary
62
5
39
2
10
37.489026
20
102.144256
11
37.700613
21
102.077577
0
LINE
8
boundary
62
5
39
2
10
37.700613
20
102.077577
11
37.970053
21
101.997249
0
LINE
8
boundary
62
5
39
2
10
37.970053
20
101.997249
11
39.834741
21
101.437778
0
LINE
8
boundary
62
5
39
2
10
39.834741
20
101.437778
11
40.124084
21
101.357622
0
LINE
8
boundary
62
5
39
2
10
40.124084
20
101.357622
11
40.465573
21
101.270673
0
LINE
8
boundary
62
5
39
2
10
40.465573
20
101.270673
11
40.866649
21
101.178406
0
LINE
8
boundary
62
5
39
2
10
40.866649
20
101.178406
11
42.658012
21
100.765177
0
LINE
8
boundary
62
5
39
2
10
42.658012
20
100.765177
11
43.094236
21
100.676681
0
LINE
8
boundary
62
5
39
2
10
43.094236
20
100.676681
11
43.595166
21
100.588925
0
LINE
8
boundary
62
5
39
2
10
43.595166
20
100.588925
11
45.344414
21
100.303155
0
LINE
8
boundary
62
5
39
2
10
45.344414
20
100.303155
11
45.874094
21
100.226379
0
LINE
8
boundary
62
5
39
2
10
45.874094
20
100.226379
11
46.452607
21
100.161006
0
LINE
8
boundary
62
5
39
2
10
46.452607
20
100.161006
11
48.165673
21
99.994033
0
LINE
8
boundary
62
5
39
2
10
48.165673
20
99.994033
11
48.758930
21
99.946019
0
LINE
8
boundary
62
5
39
2
10
48.758930
20
99.946019
11
49.370325
21
99.916531
0
LINE
8
boundary
62
5
39
2
10
49.370325
20
99.916531
11
51.063240
21
99.861683
0
LINE
8
boundary
62
5
39
2
10
51.063240
20
99.861683
11
51.667497
21
99.851936
0
LINE
8
boundary
62
5
39
2
10
51.667497
20
99.851936
11
52.271753
21
99.861683
0
LINE
8
boundary
62
5
39
2
10
52.271753
20
99.861683
11
53.964669
21
99.916531
0
LINE
8
boundary
62
5
39
2
10
53.964669
20
99.916531
11
54.576064
21
99.946018
0
LINE
8
boundary
62
5
39
2
10
54.576064
20
99.946018
11
55.169321
21
99.994033
0
LINE
8
boundary
62
5
39
2
10
55.169321
20
99.994033
11
56.882386
21
100.161006
0
LINE
8
boundary
62
5
39
2
10
56.882386
20
100.161006
11
57.460900
21
100.226379
0
LINE
8
boundary
62
5
39
2
10
57.460900
20
100.226379
11
57.990580
21
100.303155
0
LINE
8
boundary
62
5
39
2
10
57.990580
20
100.303155
11
59.739827
21
100.588925
0
LINE
8
boundary
62
5
39
2
10
59.739827
20
100.588925
11
60.240758
21
100.676681
0
LINE
8
boundary
62
5
39
2
10
60.240758
20
100.676681
11
60.676982
21
100.765177
0
LINE
8
boundary
62
5
39
2
10
60.676982
20
100.765177
11
61.043897
21
100.849564
0
LINE
8
boundary
62
5
39
2
10
61.043897
20
100.849564
11
62.869420
21
101.270673
0
LINE
8
boundary
62
5
39
2
10
62.869420
20
101.270673
11
63.210910
21
101.357622
0
LINE
8
boundary
62
5
39
2
10
63.210910
20
101.357622
11
63.500252
21
101.437778
0
LINE
8
boundary
62
5
39
2
10
63.500252
20
101.437778
11
63.733926
21
101.507375
0
LINE
8
boundary
62
5
39
2
10
63.733926
20
101.507375
11
65.634381
21
102.077577
0
LINE
8
boundary
62
5
39
2
10
65.634381
20
102.077577
11
65.845968
21
102.144256
0
LINE
8
boundary
62
5
39
2
10
65.845968
20
102.144256
11
66.000525
21
102.195247
0
LINE
8
boundary
62
5
39
2
10
66.000525
20
102.195247
11
66.102386
21
102.230032
0
LINE
8
boundary
62
5
39
2
10
66.102386
20
102.230032
11
66.156277
21
102.248849
0
LINE
8
boundary
62
5
39
2
10
66.156277
20
102.248849
11
66.168610
21
102.253271
0
LINE
8
boundary
62
5
39
2
10
66.168610
20
102.253271
11
68.183163
21
103.002973
0
LINE
8
boundary
62
5
39
2
10
68.183163
20
103.002973
11
68.722033
21
103.208420
0
LINE
8
boundary
62
5
39
2
10
68.722033
20
103.208420
11
70.916631
21
104.191201
0
LINE
8
boundary
62
5
39
2
10
70.916631
20
104.191201
11
71.382226
21
104.399702
0
LINE
8
boundary
62
5
39
2
10
71.382226
20
104.399702
11
73.508606
21
105.522478
0
LINE
8
boundary
62
5
39
2
10
73.508606
20
105.522478
11
73.959729
21
105.760681
0
LINE
8
boundary
62
5
39
2
10
73.959729
20
105.760681
11
76.008973
21
107.018744
0
LINE
8
boundary
62
5
39
2
10
76.008973
20
107.018744
11
76.443731
21
107.285648
0
LINE
8
boundary
62
5
39
2
10
76.443731
20
107.285648
11
78.407243
21
108.673718
0
LINE
8
boundary
62
5
39
2
10
78.407243
20
108.673718
11
78.823812
21
108.968204
0
LINE
8
boundary
62
5
39
2
10
78.823812
20
108.968204
11
80.693354
21
110.480459
0
LINE
8
boundary
62
5
39
2
10
80.693354
20
110.480459
11
81.089986
21
110.801292
0
LINE
8
boundary
62
5
39
2
10
81.089986
20
110.801292
11
82.857723
21
112.431394
0
LINE
8
boundary
62
5
39
2
10
82.857723
20
112.431394
11
83.232758
21
112.777228
0
LINE
8
annotation
62
1
39
211
10
51.667497
20
180.855332
11
51.667497
21
182.284082
0
LINE
8
annotation
62
1
39
211
10
51.667497
20
180.855332
11
51.667497
21
182.284082
0
LINE
8
annotation
62
1
39
211
10
51.667497
20
182.284082
11
51.667497
21
180.855332
0
LINE
8
annotation
62
1
39
211
10
51.667497
20
180.855332
11
53.096247
21
180.855332
0
LINE
8
annotation
62
1
39
211
10
51.667497
20
108.852313
11
51.667497
21
107.423563
0
LINE
8
annotation
62
1
39
211
10
87.667494
20
144.850991
11
87.667494
21
146.279741
0
LINE
8
annotation
62
1
39
211
10
87.667494
20
144.850991
11
87.667494
21
146.279741
0
LINE
8
annotation
62
1
39
211
10
87.667494
20
146.279741
11
87.667494
21
144.850991
0
LINE
8
annotation
62
1
39
211
10
87.667494
20
144.850991
11
87.667494
21
143.422241
0
LINE
8
annotation
62
1
39
211
10
15.667499
20
144.850991
11
17.096249
21
144.850991
0
LINE
8
annotation
62
1
39
211
10
15.667499
20
144.850991
11
17.096249
21
144.850991
0
LINE
8
annotation
62
1
39
211
10
17.096249
20
144.850991
11
15.667499
21
144.850991
0
LINE
8
annotation
62
1
39
211
10
15.667499
20
144.850991
11
15.667499
21
143.422241
0
LINE
8
annotation
62
1
39
211
10
14.704280
20
138.156572
11
14.704280
21
138.156572
0
LINE
8
annotation
62
1
39
211
10
14.704280
20
138.156572
11
15.733134
21
138.539974
0
LINE
8
annotation
62
1
39
211
10
15.733134
20
138.539974
11
16.677494
21
139.058210
0
LINE
8
annotation
62
1
39
211
10
16.677494
20
139.058210
11
17.527602
21
139.698078
0
LINE
8
annotation
62
1
39
211
10
17.527602
20
139.698078
11
18.273699
21
140.446373
0
LINE
8
annotation
62
1
39
211
10
18.273699
20
140.446373
11
18.906025
21
141.289890
0
LINE
8
annotation
62
1
39
211
10
18.906025
20
141.289890
11
19.414822
21
142.215425
0
LINE
8
annotation
62
1
39
211
10
19.414822
20
142.215425
11
19.790331
21
143.209774
0
LINE
8
annotation
62
1
39
211
10
19.790331
20
143.209774
11
20.022793
21
144.259734
0
LINE
8
annotation
62
1
39
211
10
20.022793
20
144.259734
11
20.102449
21
145.352098
0
LINE
8
annotation
62
1
39
211
10
20.102449
20
145.352098
11
20.102449
21
150.755347
0
LINE
8
annotation
62
1
39
211
10
20.102449
20
150.755347
11
20.102449
21
150.755347
0
LINE
8
annotation
62
1
39
211
10
20.102449
20
150.755347
11
20.044529
21
151.402588
0
LINE
8
annotation
62
1
39
211
10
20.044529
20
151.402588
11
19.877523
21
152.011922
0
LINE
8
annotation
62
1
39
211
10
19.877523
20
152.011922
11
19.611556
21
152.573139
0
LINE
8
annotation
62
1
39
211
10
19.611556
20
152.573139
11
19.256755
21
153.076028
0
LINE
8
annotation
62
1
39
211
10
19.256755
20
153.076028
11
18.823247
21
153.510378
0
LINE
8
annotation
62
1
39
211
10
18.823247
20
153.510378
11
18.321160
21
153.865981
0
LINE
8
annotation
62
1
39
211
10
18.321160
20
153.865981
11
17.760619
21
154.132624
0
LINE
8
annotation
62
1
39
211
10
17.760619
20
154.132624
11
17.151752
21
154.300097
0
LINE
8
annotation
62
1
39
211
10
17.151752
20
154.300097
11
16.504686
21
154.358191
0
LINE
8
annotation
62
1
39
211
10
16.504686
20
154.358191
11
16.504686
21
154.358191
0
LINE
8
annotation
62
1
39
211
10
16.504686
20
154.358191
11
15.858957
21
154.300097
0
LINE
8
annotation
62
1
39
211
10
15.858957
20
154.300097
11
15.250801
21
154.132624
0
LINE
8
annotation
62
1
39
211
10
15.250801
20
154.132624
11
14.690469
21
153.865981
0
LINE
8
annotation
62
1
39
211
10
14.690469
20
153.865981
11
14.188215
21
153.510378
0
LINE
8
annotation
62
1
39
211
10
14.188215
20
153.510378
11
13.754289
21
153.076028
0
LINE
8
annotation
62
1
39
211
10
13.754289
20
153.076028
11
13.398944
21
152.573139
0
LINE
8
annotation
62
1
39
211
10
13.398944
20
152.573139
11
13.132434
21
152.011922
0
LINE
8
annotation
62
1
39
211
10
13.132434
20
152.011922
11
12.965009
21
151.402588
0
LINE
8
annotation
62
1
39
211
10
12.965009
20
151.402588
11
12.906922
21
150.755347
0
LINE
8
annotation
62
1
39
211
10
12.906922
20
150.755347
11
12.906922
21
148.953926
0
LINE
8
annotation
62
1
39
211
10
12.906922
20
148.953926
11
12.906922
21
148.953926
0
LINE
8
annotation
62
1
39
211
10
12.906922
20
148.953926
11
12.965009
21
148.306720
0
LINE
8
annotation
62
1
39
211
10
12.965009
20
148.306720
11
13.132434
21
147.697480
0
LINE
8
annotation
62
1
39
211
10
13.132434
20
147.697480
11
13.398944
21
147.136398
0
LINE
8
annotation
62
1
39
211
10
13.398944
20
147.136398
11
13.754289
21
146.633669
0
LINE
8
annotation
62
1
39
211
10
13.754289
20
146.633669
11
14.188215
21
146.199487
0
LINE
8
annotation
62
1
39
211
10
14.188215
20
146.199487
11
14.690469
21
145.844045
0
LINE
8
annotation
62
1
39
211
10
14.690469
20
145.844045
11
15.250801
21
145.577537
0
LINE
8
annotation
62
1
39
211
10
15.250801
20
145.577537
11
15.858957
21
145.410157
0
LINE
8
annotation
62
1
39
211
10
15.858957
20
145.410157
11
16.504686
21
145.352098
0
LINE
8
annotation
62
1
39
211
10
16.504686
20
145.352098
11
20.102449
21
145.352098
0
LINE
8
annotation
62
1
39
211
10
12.457329
20
136.131370
11
20.558138
21
136.131370
0
LINE
8
hole
62
5
39
2
10
154.553488
20
116.274586
11
155.124988
21
116.274586
0
LINE
8
hole
62
5
39
2
10
155.124988
20
116.274586
11
155.124988
21
116.846086
0
LINE
8
hole
62
5
39
2
10
155.124988
20
116.846086
11
154.553488
21
116.846086
0
LINE
8
hole
62
5
39
2
10
154.553488
20
116.846086
11
154.553488
21
116.274586
0
LINE
8
hole
62
5
39
2
10
108.318618
20
144.801961
11
108.890118
21
144.801961
0
LINE
8
hole
62
5
39
2
10
108.890118
20
144.801961
11
108.890118
21
145.373461
0
LINE
8
hole
62
5
39
2
10
108.890118
20
145.373461
11
108.318618
21
145.373461
0
LINE
8
hole
62
5
39
2
10
108.318618
20
145.373461
11
108.318618
21
144.801961
0
LINE
8
hole
62
5
39
2
10
180.794863
20
144.801961
11
181.366363
21
144.801961
0
LINE
8
hole
62
5
39
2
10
181.366363
20
144.801961
11
181.366363
21
145.373461
0
LINE
8
hole
62
5
39
2
10
181.366363
20
145.373461
11
180.794863
21
145.373461
0
LINE
8
hole
62
5
39
2
10
180.794863
20
145.373461
11
180.794863
21
144.801961
0
LINE
8
hole
62
5
39
2
10
134.598613
20
116.703211
11
135.170113
21
116.703211
0
LINE
8
hole
62
5
39
2
10
135.170113
20
116.703211
11
135.170113
21
117.274711
0
LINE
8
hole
62
5
39
2
10
135.170113
20
117.274711
11
134.598613
21
117.274711
0
LINE
8
hole
62
5
39
2
10
134.598613
20
117.274711
11
134.598613
21
116.703211
0
LINE
8
hole
62
5
39
2
10
173.138147
20
128.752911
11
171.703738
21
127.213437
0
LINE
8
hole
62
5
39
2
10
171.703738
20
127.213437
11
171.638566
21
127.154345
0
LINE
8
hole
62
5
39
2
10
171.638566
20
127.154345
11
170.079752
21
125.740976
0
LINE
8
hole
62
5
39
2
10
170.079752
20
125.740976
11
170.009840
21
125.687576
0
LINE
8
hole
62
5
39
2
10
170.009840
20
125.687576
11
168.337671
21
124.410331
0
LINE
8
hole
62
5
39
2
10
168.337671
20
124.410331
11
168.263515
21
124.363001
0
LINE
8
hole
62
5
39
2
10
168.263515
20
124.363001
11
166.489837
21
123.230931
0
LINE
8
hole
62
5
39
2
10
166.489837
20
123.230931
11
166.411963
21
123.190005
0
LINE
8
hole
62
5
39
2
10
166.411963
20
123.190005
11
164.549350
21
122.211135
0
LINE
8
hole
62
5
39
2
10
164.549350
20
122.211135
11
164.468310
21
122.176904
0
LINE
8
hole
62
5
39
2
10
164.468310
20
122.176904
11
162.529964
21
121.358169
0
LINE
8
hole
62
5
39
2
10
162.529964
20
121.358169
11
162.446332
21
121.330877
0
LINE
8
hole
62
5
39
2
10
162.446332
20
121.330877
11
160.445991
21
120.678081
0
LINE
8
hole
62
5
39
2
10
160.445991
20
120.678081
11
160.400728
21
120.665973
0
LINE
8
hole
62
5
39
2
10
160.400728
20
120.665973
11
160.392950
21
120.663948
0
LINE
8
hole
62
5
39
2
10
160.392950
20
120.663948
11
160.373730
21
120.659106
0
LINE
8
hole
62
5
39
2
10
160.373730
20
120.659106
11
160.339919
21
120.650886
0
LINE
8
hole
62
5
39
2
10
160.339919
20
120.650886
11
158.406199
21
120.195602
0
LINE
8
hole
62
5
39
2
10
158.406199
20
120.195602
11
158.371824
21
120.187810
0
LINE
8
hole
62
5
39
2
10
158.371824
20
120.187810
11
158.317705
21
120.176756
0
LINE
8
hole
62
5
39
2
10
158.317705
20
120.176756
11
158.239248
21
120.162631
0
LINE
8
hole
62
5
39
2
10
158.239248
20
120.162631
11
158.131758
21
120.146029
0
LINE
8
hole
62
5
39
2
10
158.131758
20
120.146029
11
156.255288
21
119.868140
0
LINE
8
hole
62
5
39
2
10
156.255288
20
119.868140
11
156.143709
21
119.854556
0
LINE
8
hole
62
5
39
2
10
156.143709
20
119.854556
11
155.957146
21
119.854556
0
LINE
8
hole
62
5
39
2
10
155.957146
20
119.854556
11
155.700879
21
119.854556
0
LINE
8
hole
62
5
39
2
10
155.700879
20
119.854556
11
155.362555
21
119.854556
0
LINE
8
hole
62
5
39
2
10
155.362555
20
119.854556
11
154.935199
21
119.854556
0
LINE
8
hole
62
5
39
2
10
154.935199
20
119.854556
11
154.423974
21
119.854556
0
LINE
8
hole
62
5
39
2
10
154.423974
20
119.854556
11
153.853605
21
119.854556
0
LINE
8
hole
62
5
39
2
10
153.853605
20
119.854556
11
153.271763
21
119.854556
0
LINE
8
hole
62
5
39
2
10
153.271763
20
119.854556
11
152.742237
21
119.854556
0
LINE
8
hole
62
5
39
2
10
152.742237
20
119.854556
11
136.942743
21
119.854556
0
LINE
8
hole
62
5
39
2
10
136.942743
20
119.854556
11
136.413217
21
119.854556
0
LINE
8
hole
62
5
39
2
10
136.413217
20
119.854556
11
135.831375
21
119.854556
0
LINE
8
hole
62
5
39
2
10
135.831375
20
119.854556
11
135.261006
21
119.854556
0
LINE
8
hole
62
5
39
2
10
135.261006
20
119.854556
11
134.749782
21
119.854556
0
LINE
8
hole
62
5
39
2
10
134.749782
20
119.854556
11
134.322426
21
119.854556
0
LINE
8
hole
62
5
39
2
10
134.322426
20
119.854556
11
133.984101
21
119.854556
0
LINE
8
hole
62
5
39
2
10
133.984101
20
119.854556
11
133.727834
21
119.854556
0
LINE
8
hole
62
5
39
2
10
133.727834
20
119.854556
11
133.541272
21
119.854556
0
LINE
8
hole
62
5
39
2
10
133.541272
20
119.854556
11
133.429693
21
119.868140
0
LINE
8
hole
62
5
39
2
10
133.429693
20
119.868140
11
131.553222
21
120.146029
0
LINE
8
hole
62
5
39
2
10
131.553222
20
120.146029
11
131.445733
21
120.162631
0
LINE
8
hole
62
5
39
2
10
131.445733
20
120.162631
11
131.367276
21
120.176756
0
LINE
8
hole
62
5
39
2
10
131.367276
20
120.176756
11
131.313157
21
120.187810
0
LINE
8
hole
62
5
39
2
10
131.313157
20
120.187810
11
131.278781
21
120.195603
0
LINE
8
hole
62
5
39
2
10
131.278781
20
120.195603
11
129.345062
21
120.650886
0
LINE
8
hole
62
5
39
2
10
129.345062
20
120.650886
11
129.311250
21
120.659106
0
LINE
8
hole
62
5
39
2
10
129.311250
20
120.659106
11
129.292031
21
120.663948
0
LINE
8
hole
62
5
39
2
10
129.292031
20
120.663948
11
129.284253
21
120.665973
0
LINE
8
hole
62
5
39
2
10
129.284253
20
120.665973
11
129.238990
21
120.678081
0
LINE
8
hole
62
5
39
2
10
129.238990
20
120.678081
11
129.155358
21
120.705374
0
LINE
8
hole
62
5
39
2
10
129.155358
20
120.705374
11
127.155016
21
121.358169
0
LINE
8
hole
62
5
39
2
10
127.155016
20
121.358169
11
127.073976
21
121.392400
0
LINE
8
hole
62
5
39
2
10
127.073976
20
121.392400
11
125.135631
21
122.211135
0
LINE
8
hole
62
5
39
2
10
125.135631
20
122.211135
11
125.057757
21
122.252060
0
LINE
8
hole
62
5
39
2
10
125.057757
20
122.252060
11
123.195144
21
123.230931
0
LINE
8
hole
62
5
39
2
10
123.195144
20
123.230931
11
123.120988
21
123.278261
0
LINE
8
hole
62
5
39
2
10
123.120988
20
123.278261
11
121.347310
21
124.410331
0
LINE
8
hole
62
5
39
2
10
121.347310
20
124.410331
11
121.277398
21
124.463731
0
LINE
8
hole
62
5
39
2
10
121.277398
20
124.463731
11
119.605229
21
125.740976
0
LINE
8
hole
62
5
39
2
10
119.605229
20
125.740976
11
119.540056
21
125.800068
0
LINE
8
hole
62
5
39
2
10
119.540056
20
125.800068
11
117.981242
21
127.213437
0
LINE
8
hole
62
5
39
2
10
117.981242
20
127.213437
11
117.921271
21
127.277800
0
LINE
8
hole
62
5
39
2
10
117.921271
20
127.277800
11
116.486863
21
128.817275
0
LINE
8
hole
62
5
39
2
10
116.486863
20
128.817275
11
116.432518
21
128.886455
0
LINE
8
hole
62
5
39
2
10
116.432518
20
128.886455
11
115.132682
21
130.541127
0
LINE
8
hole
62
5
39
2
10
115.132682
20
130.541127
11
115.084349
21
130.614633
0
LINE
8
hole
62
5
39
2
10
115.084349
20
130.614633
11
113.928292
21
132.372769
0
LINE
8
hole
62
5
39
2
10
113.928292
20
132.372769
11
113.886313
21
132.450080
0
LINE
8
hole
62
5
39
2
10
113.886313
20
132.450080
11
112.882235
21
134.299227
0
LINE
8
hole
62
5
39
2
10
112.882235
20
134.299227
11
112.846907
21
134.379795
0
LINE
8
hole
62
5
39
2
10
112.846907
20
134.379795
11
112.001923
21
136.306843
0
LINE
8
hole
62
5
39
2
10
112.001923
20
136.306843
11
111.973497
21
136.390096
0
LINE
8
hole
62
5
39
2
10
111.973497
20
136.390096
11
111.293599
21
138.381388
0
LINE
8
hole
62
5
39
2
10
111.293599
20
138.381388
11
111.272277
21
138.466738
0
LINE
8
hole
62
5
39
2
10
111.272277
20
138.466738
11
110.762276
21
140.508162
0
LINE
8
hole
62
5
39
2
10
110.762276
20
140.508162
11
110.748208
21
140.595003
0
LINE
8
hole
62
5
39
2
10
110.748208
20
140.595003
11
110.411719
21
142.672089
0
LINE
8
hole
62
5
39
2
10
110.411719
20
142.672089
11
110.405005
21
142.759805
0
LINE
8
hole
62
5
39
2
10
110.405005
20
142.759805
11
110.244420
21
144.857834
0
LINE
8
hole
62
5
39
2
10
110.244420
20
144.857834
11
110.251134
21
144.945550
0
LINE
8
hole
62
5
39
2
10
110.251134
20
144.945550
11
110.411719
21
147.043579
0
LINE
8
hole
62
5
39
2
10
110.411719
20
147.043579
11
110.425787
21
147.130420
0
LINE
8
hole
62
5
39
2
10
110.425787
20
147.130420
11
110.762276
21
149.207506
0
LINE
8
hole
62
5
39
2
10
110.762276
20
149.207506
11
110.783598
21
149.292856
0
LINE
8
hole
62
5
39
2
10
110.783598
20
149.292856
11
111.293599
21
151.334280
0
LINE
8
hole
62
5
39
2
10
111.293599
20
151.334280
11
111.322025
21
151.417534
0
LINE
8
hole
62
5
39
2
10
111.322025
20
151.417534
11
112.001923
21
153.408826
0
LINE
8
hole
62
5
39
2
10
112.001923
20
153.408826
11
112.037251
21
153.489393
0
LINE
8
hole
62
5
39
2
10
112.037251
20
153.489393
11
112.882235
21
155.416441
0
LINE
8
hole
62
5
39
2
10
112.882235
20
155.416441
11
112.924214
21
155.493752
0
LINE
8
hole
62
5
39
2
10
112.924214
20
155.493752
11
113.928292
21
157.342899
0
LINE
8
hole
62
5
39
2
10
113.928292
20
157.342899
11
113.976625
21
157.416405
0
LINE
8
hole
62
5
39
2
10
113.976625
20
157.416405
11
115.132682
21
159.174541
0
LINE
8
hole
62
5
39
2
10
115.132682
20
159.174541
11
115.187027
21
159.243721
0
LINE
8
hole
62
5
39
2
10
115.187027
20
159.243721
11
116.486863
21
160.898393
0
LINE
8
hole
62
5
39
2
10
116.486863
20
160.898393
11
116.546834
21
160.962757
0
LINE
8
hole
62
5
39
2
10
116.546834
20
160.962757
11
117.981242
21
162.502232
0
LINE
8
hole
62
5
39
2
10
117.981242
20
162.502232
11
118.046415
21
162.561323
0
LINE
8
hole
62
5
39
2
10
118.046415
20
162.561323
11
119.605229
21
163.974692
0
LINE
8
hole
62
5
39
2
10
119.605229
20
163.974692
11
119.675140
21
164.028092
0
LINE
8
hole
62
5
39
2
10
119.675140
20
164.028092
11
121.347310
21
165.305337
0
LINE
8
hole
62
5
39
2
10
121.347310
20
165.305337
11
121.421465
21
165.352667
0
LINE
8
hole
62
5
39
2
10
121.421465
20
165.352667
11
123.195144
21
166.484737
0
LINE
8
hole
62
5
39
2
10
123.195144
20
166.484737
11
123.273018
21
166.525663
0
LINE
8
hole
62
5
39
2
10
123.273018
20
166.525663
11
125.135631
21
167.504533
0
LINE
8
hole
62
5
39
2
10
125.135631
20
167.504533
11
125.216671
21
167.538764
0
LINE
8
hole
62
5
39
2
10
125.216671
20
167.538764
11
127.155016
21
168.357499
0
LINE
8
hole
62
5
39
2
10
127.155016
20
168.357499
11
127.238648
21
168.384792
0
LINE
8
hole
62
5
39
2
10
127.238648
20
168.384792
11
129.238990
21
169.037587
0
LINE
8
hole
62
5
39
2
10
129.238990
20
169.037587
11
129.284253
21
169.049695
0
LINE
8
hole
62
5
39
2
10
129.284253
20
169.049695
11
129.292031
21
169.051720
0
LINE
8
hole
62
5
39
2
10
129.292031
20
169.051720
11
129.311250
21
169.056562
0
LINE
8
hole
62
5
39
2
10
129.311250
20
169.056562
11
129.345062
21
169.064782
0
LINE
8
hole
62
5
39
2
10
129.345062
20
169.064782
11
131.278782
21
169.520066
0
LINE
8
hole
62
5
39
2
10
131.278782
20
169.520066
11
131.313156
21
169.527858
0
LINE
8
hole
62
5
39
2
10
131.313156
20
169.527858
11
131.367276
21
169.538912
0
LINE
8
hole
62
5
39
2
10
131.367276
20
169.538912
11
131.445733
21
169.553037
0
LINE
8
hole
62
5
39
2
10
131.445733
20
169.553037
11
131.553222
21
169.569639
0
LINE
8
hole
62
5
39
2
10
131.553222
20
169.569639
11
133.429693
21
169.847528
0
LINE
8
hole
62
5
39
2
10
133.429693
20
169.847528
11
133.541272
21
169.861112
0
LINE
8
hole
62
5
39
2
10
133.541272
20
169.861112
11
133.727835
21
169.861112
0
LINE
8
hole
62
5
39
2
10
133.727835
20
169.861112
11
133.984101
21
169.861112
0
LINE
8
hole
62
5
39
2
10
133.984101
20
169.861112
11
134.322426
21
169.861112
0
LINE
8
hole
62
5
39
2
10
134.322426
20
169.861112
11
134.749782
21
169.861112
0
LINE
8
hole
62
5
39
2
10
134.749782
20
169.861112
11
135.261006
21
169.861112
0
LINE
8
hole
62
5
39
2
10
135.261006
20
169.861112
11
135.831375
21
169.861112
0
LINE
8
hole
62
5
39
2
10
135.831375
20
169.861112
11
136.413217
21
169.861112
0
LINE
8
hole
62
5
39
2
10
136.413217
20
169.861112
11
136.942743
21
169.861112
0
LINE
8
hole
62
5
39
2
10
136.942743
20
169.861112
11
152.742237
21
169.861112
0
LINE
8
hole
62
5
39
2
10
152.742237
20
169.861112
11
153.271763
21
169.861112
0
LINE
8
hole
62
5
39
2
10
153.271763
20
169.861112
11
153.853605
21
169.861112
0
LINE
8
hole
62
5
39
2
10
153.853605
20
169.861112
11
154.423974
21
169.861112
0
LINE
8
hole
62
5
39
2
10
154.423974
20
169.861112
11
154.935199
21
169.861112
0
LINE
8
hole
62
5
39
2
10
154.935199
20
169.861112
11
155.362555
21
169.861112
0
LINE
8
hole
62
5
39
2
10
155.362555
20
169.861112
11
155.700879
21
169.861112
0
LINE
8
hole
62
5
39
2
10
155.700879
20
169.861112
11
155.957146
21
169.861112
0
LINE
8
hole
62
5
39
2
10
155.957146
20
169.861112
11
156.143709
21
169.861112
0
LINE
8
hole
62
5
39
2
10
156.143709
20
169.861112
11
156.255288
21
169.847528
0
LINE
8
hole
62
5
39
2
10
156.255288
20
169.847528
11
158.131758
21
169.569639
0
LINE
8
hole
62
5
39
2
10
158.131758
20
169.569639
11
158.239248
21
169.553037
0
LINE
8
hole
62
5
39
2
10
158.239248
20
169.553037
11
158.317705
21
169.538912
0
LINE
8
hole
62
5
39
2
10
158.317705
20
169.538912
11
158.371824
21
169.527858
0
LINE
8
hole
62
5
39
2
10
158.371824
20
169.527858
11
158.406199
21
169.520066
0
LINE
8
hole
62
5
39
2
10
158.406199
20
169.520066
11
160.339919
21
169.064782
0
LINE
8
hole
62
5
39
2
10
160.339919
20
169.064782
11
160.373730
21
169.056562
0
LINE
8
hole
62
5
39
2
10
160.373730
20
169.056562
11
160.392950
21
169.051720
0
LINE
8
hole
62
5
39
2
10
160.392950
20
169.051720
11
160.400728
21
169.049695
0
LINE
8
hole
62
5
39
2
10
160.400728
20
169.049695
11
160.445991
21
169.037587
0
LINE
8
hole
62
5
39
2
10
160.445991
20
169.037587
11
160.529623
21
169.010294
0
LINE
8
hole
62
5
39
2
10
160.529623
20
169.010294
11
162.529964
21
168.357499
0
LINE
8
hole
62
5
39
2
10
162.529964
20
168.357499
11
162.611004
21
168.323269
0
LINE
8
hole
62
5
39
2
10
162.611004
20
168.323269
11
164.549350
21
167.504533
0
LINE
8
hole
62
5
39
2
10
164.549350
20
167.504533
11
164.627224
21
167.463608
0
LINE
8
hole
62
5
39
2
10
164.627224
20
167.463608
11
166.489837
21
166.484737
0
LINE
8
hole
62
5
39
2
10
166.489837
20
166.484737
11
166.563992
21
166.437407
0
LINE
8
hole
62
5
39
2
10
166.563992
20
166.437407
11
168.337671
21
165.305337
0
LINE
8
hole
62
5
39
2
10
168.337671
20
165.305337
11
168.407582
21
165.251937
0
LINE
8
hole
62
5
39
2
10
168.407582
20
165.251937
11
170.079752
21
163.974692
0
LINE
8
hole
62
5
39
2
10
170.079752
20
163.974692
11
170.144924
21
163.915601
0
LINE
8
hole
62
5
39
2
10
170.144924
20
163.915601
11
171.703738
21
162.502232
0
LINE
8
hole
62
5
39
2
10
171.703738
20
162.502232
11
171.763709
21
162.437868
0
LINE
8
hole
62
5
39
2
10
171.763709
20
162.437868
11
173.198118
21
160.898393
0
LINE
8
hole
62
5
39
2
10
173.198118
20
160.898393
11
173.252462
21
160.829213
0
LINE
8
hole
62
5
39
2
10
173.252462
20
160.829213
11
174.552299
21
159.174541
0
LINE
8
hole
62
5
39
2
10
174.552299
20
159.174541
11
174.600632
21
159.101036
0
LINE
8
hole
62
5
39
2
10
174.600632
20
159.101036
11
175.756689
21
157.342899
0
LINE
8
hole
62
5
39
2
10
175.756689
20
157.342899
11
175.798668
21
157.265588
0
LINE
8
hole
62
5
39
2
10
175.798668
20
157.265588
11
176.802746
21
155.416441
0
LINE
8
hole
62
5
39
2
10
176.802746
20
155.416441
11
176.838074
21
155.335874
0
LINE
8
hole
62
5
39
2
10
176.838074
20
155.335874
11
177.683058
21
153.408826
0
LINE
8
hole
62
5
39
2
10
177.683058
20
153.408826
11
177.711484
21
153.325572
0
LINE
8
hole
62
5
39
2
10
177.711484
20
153.325572
11
178.391381
21
151.334280
0
LINE
8
hole
62
5
39
2
10
178.391381
20
151.334280
11
178.412704
21
151.248930
0
LINE
8
hole
62
5
39
2
10
178.412704
20
151.248930
11
178.922705
21
149.207506
0
LINE
8
hole
62
5
39
2
10
178.922705
20
149.207506
11
178.936773
21
149.120666
0
LINE
8
hole
62
5
39
2
10
178.936773
20
149.120666
11
179.273262
21
147.043579
0
LINE
8
hole
62
5
39
2
10
179.273262
20
147.043579
11
179.279976
21
146.955863
0
LINE
8
hole
62
5
39
2
10
179.279976
20
146.955863
11
179.440560
21
144.857834
0
LINE
8
hole
62
5
39
2
10
179.440560
20
144.857834
11
179.433846
21
144.770118
0
LINE
8
hole
62
5
39
2
10
179.433846
20
144.770118
11
179.273262
21
142.672089
0
LINE
8
hole
62
5
39
2
10
179.273262
20
142.672089
11
179.259194
21
142.585248
0
LINE
8
hole
62
5
39
2
10
179.259194
20
142.585248
11
178.922705
21
140.508162
0
LINE
8
hole
62
5
39
2
10
178.922705
20
140.508162
11
178.901382
21
140.422812
0
LINE
8
hole
62
5
39
2
10
178.901382
20
140.422812
11
178.391381
21
138.381388
0
LINE
8
hole
62
5
39
2
10
178.391381
20
138.381388
11
178.362955
21
138.298135
0
LINE
8
hole
62
5
39
2
10
178.362955
20
138.298135
11
177.683058
21
136.306843
0
LINE
8
hole
62
5
39
2
10
177.683058
20
136.306843
11
177.647730
21
136.226275
0
LINE
8
hole
62
5
39
2
10
177.647730
20
136.226275
11
176.802746
21
134.299227
0
LINE
8
hole
62
5
39
2
10
176.802746
20
134.299227
11
176.760766
21
134.221916
0
LINE
8
hole
62
5
39
2
10
176.760766
20
134.221916
11
175.756689
21
132.372769
0
LINE
8
hole
62
5
39
2
10
175.756689
20
132.372769
11
175.708355
21
132.299264
0
LINE
8
hole
62
5
39
2
10
175.708355
20
132.299264
11
174.552299
21
130.541127
0
LINE
8
hole
62
5
39
2
10
174.552299
20
130.541127
11
174.497954
21
130.471947
0
LINE
8
hole
62
5
39
2
10
174.497954
20
130.471947
11
173.198118
21
128.817275
0
LINE
8
hole
62
5
39
2
10
173.198118
20
128.817275
11
173.138147
21
128.752911
0
LINE
8
boundary
62
5
39
2
10
176.407751
20
112.777228
11
176.458175
21
112.830163
0
LINE
8
boundary
62
5
39
2
10
176.458175
20
112.830163
11
178.418127
21
114.887719
0
LINE
8
boundary
62
5
39
2
10
178.418127
20
114.887719
11
178.465019
21
114.943807
0
LINE
8
boundary
62
5
39
2
10
178.465019
20
114.943807
11
180.287674
21
117.123916
0
LINE
8
boundary
62
5
39
2
10
180.287674
20
117.123916
11
180.330837
21
117.182922
0
LINE
8
boundary
62
5
39
2
10
180.330837
20
117.182922
11
182.008548
21
119.476441
0
LINE
8
boundary
62
5
39
2
10
182.008548
20
119.476441
11
182.047801
21
119.538117
0
LINE
8
boundary
62
5
39
2
10
182.047801
20
119.538117
11
183.573538
21
121.935423
0
LINE
8
boundary
62
5
39
2
10
183.573538
20
121.935423
11
183.608717
21
121.999511
0
LINE
8
boundary
62
5
39
2
10
183.608717
20
121.999511
11
184.976072
21
124.490548
0
LINE
8
boundary
62
5
39
2
10
184.976072
20
124.490548
11
185.007028
21
124.556778
0
LINE
8
boundary
62
5
39
2
10
185.007028
20
124.556778
11
186.210278
21
127.131102
0
LINE
8
boundary
62
5
39
2
10
186.210278
20
127.131102
11
186.236882
21
127.199197
0
LINE
8
boundary
62
5
39
2
10
186.236882
20
127.199197
11
187.270972
21
129.846008
0
LINE
8
boundary
62
5
39
2
10
187.270972
20
129.846008
11
187.293113
21
129.915682
0
LINE
8
boundary
62
5
39
2
10
187.293113
20
129.915682
11
188.153706
21
132.623877
0
LINE
8
boundary
62
5
39
2
10
188.153706
20
132.623877
11
188.171290
21
132.694839
0
LINE
8
boundary
62
5
39
2
10
188.171290
20
132.694839
11
188.854775
21
135.453061
0
LINE
8
boundary
62
5
39
2
10
188.854775
20
135.453061
11
188.867729
21
135.525011
0
LINE
8
boundary
62
5
39
2
10
188.867729
20
135.525011
11
189.371240
21
138.321692
0
LINE
8
boundary
62
5
39
2
10
189.371240
20
138.321692
11
189.379510
21
138.394331
0
LINE
8
boundary
62
5
39
2
10
189.379510
20
138.394331
11
189.700938
21
141.217737
0
LINE
8
boundary
62
5
39
2
10
189.700938
20
141.217737
11
189.704488
21
141.290758
0
LINE
8
boundary
62
5
39
2
10
189.704488
20
141.290758
11
189.842487
21
144.129050
0
LINE
8
boundary
62
5
39
2
10
189.842487
20
144.129050
11
189.841303
21
144.202148
0
LINE
8
boundary
62
5
39
2
10
189.841303
20
144.202148
11
189.795291
21
147.043421
0
LINE
8
boundary
62
5
39
2
10
189.795291
20
147.043421
11
189.789378
21
147.116289
0
LINE
8
boundary
62
5
39
2
10
189.789378
20
147.116289
11
189.559543
21
149.948623
0
LINE
8
boundary
62
5
39
2
10
189.559543
20
149.948623
11
189.548926
21
150.020956
0
LINE
8
boundary
62
5
39
2
10
189.548926
20
150.020956
11
189.136238
21
152.832475
0
LINE
8
boundary
62
5
39
2
10
189.136238
20
152.832475
11
189.120961
21
152.903968
0
LINE
8
boundary
62
5
39
2
10
189.120961
20
152.903968
11
188.527148
21
155.682875
0
LINE
8
boundary
62
5
39
2
10
188.527148
20
155.682875
11
188.507275
21
155.753230
0
LINE
8
boundary
62
5
39
2
10
188.507275
20
155.753230
11
187.734830
21
158.487874
0
LINE
8
boundary
62
5
39
2
10
187.734830
20
158.487874
11
187.710445
21
158.556794
0
LINE
8
boundary
62
5
39
2
10
187.710445
20
158.556794
11
186.762609
21
161.235703
0
LINE
8
boundary
62
5
39
2
10
186.762609
20
161.235703
11
186.733814
21
161.302901
0
LINE
8
boundary
62
5
39
2
10
186.733814
20
161.302901
11
185.614559
21
163.914838
0
LINE
8
boundary
62
5
39
2
10
185.614559
20
163.914838
11
185.581475
21
163.980031
0
LINE
8
boundary
62
5
39
2
10
185.581475
20
163.980031
11
184.295496
21
166.514042
0
LINE
8
boundary
62
5
39
2
10
184.295496
20
166.514042
11
184.258261
21
166.576956
0
LINE
8
boundary
62
5
39
2
10
184.258261
20
166.576956
11
182.810955
21
169.022410
0
LINE
8
boundary
62
5
39
2
10
182.810955
20
169.022410
11
182.769725
21
169.082782
0
LINE
8
boundary
62
5
39
2
10
182.769725
20
169.082782
11
181.167160
21
171.429426
0
LINE
8
boundary
62
5
39
2
10
181.167160
20
171.429426
11
181.122109
21
171.487003
0
LINE
8
boundary
62
5
39
2
10
181.122109
20
171.487003
11
179.371006
21
173.724986
0
LINE
8
boundary
62
5
39
2
10
179.371006
20
173.724986
11
179.322323
21
173.779526
0
LINE
8
boundary
62
5
39
2
10
179.322323
20
173.779526
11
177.430030
21
175.899471
0
LINE
8
boundary
62
5
39
2
10
177.430030
20
175.899471
11
177.377918
21
175.950746
0
LINE
8
boundary
62
5
39
2
10
177.377918
20
175.950746
11
175.352365
21
177.943760
0
LINE
8
boundary
62
5
39
2
10
175.352365
20
177.943760
11
175.297044
21
177.991554
0
LINE
8
boundary
62
5
39
2
10
175.297044
20
177.991554
11
173.146737
21
179.849273
0
LINE
8
boundary
62
5
39
2
10
173.146737
20
179.849273
11
173.088438
21
179.893385
0
LINE
8
boundary
62
5
39
2
10
173.088438
20
179.893385
11
170.822388
21
181.608016
0
LINE
8
boundary
62
5
39
2
10
170.822388
20
181.608016
11
170.761356
21
181.648263
0
LINE
8
boundary
62
5
39
2
10
170.761356
20
181.648263
11
168.389071
21
183.212618
0
LINE
8
boundary
62
5
39
2
10
168.389071
20
183.212618
11
168.325562
21
183.248830
0
LINE
8
boundary
62
5
39
2
10
168.325562
20
183.248830
11
165.856993
21
184.656350
0
LINE
8
boundary
62
5
39
2
10
165.856993
20
184.656350
11
165.791273
21
184.688374
0
LINE
8
boundary
62
5
39
2
10
165.791273
20
184.688374
11
163.236771
21
185.933149
0
LINE
8
boundary
62
5
39
2
10
163.236771
20
185.933149
11
163.169116
21
185.960852
0
LINE
8
boundary
62
5
39
2
10
163.169116
20
185.960852
11
160.539397
21
187.037663
0
LINE
8
boundary
62
5
39
2
10
160.539397
20
187.037663
11
160.487106
21
187.056636
0
LINE
8
boundary
62
5
39
2
10
160.487106
20
187.056636
11
160.477385
21
187.060111
0
LINE
8
boundary
62
5
39
2
10
160.477385
20
187.060111
11
160.453310
21
187.068573
0
LINE
8
boundary
62
5
39
2
10
160.453310
20
187.068573
11
160.410612
21
187.083293
0
LINE
8
boundary
62
5
39
2
10
160.410612
20
187.083293
11
160.344454
21
187.105432
0
LINE
8
boundary
62
5
39
2
10
160.344454
20
187.105432
11
157.873246
21
187.935009
0
LINE
8
boundary
62
5
39
2
10
157.873246
20
187.935009
11
157.808207
21
187.955508
0
LINE
8
boundary
62
5
39
2
10
157.808207
20
187.955508
11
157.712215
21
187.983976
0
LINE
8
boundary
62
5
39
2
10
157.712215
20
187.983976
11
157.579389
21
188.020883
0
LINE
8
boundary
62
5
39
2
10
157.579389
20
188.020883
11
155.167618
21
188.660143
0
LINE
8
boundary
62
5
39
2
10
155.167618
20
188.660143
11
155.037789
21
188.693347
0
LINE
8
boundary
62
5
39
2
10
155.037789
20
188.693347
11
154.858399
21
188.734430
0
LINE
8
boundary
62
5
39
2
10
154.858399
20
188.734430
11
154.613752
21
188.784319
0
LINE
8
boundary
62
5
39
2
10
154.613752
20
188.784319
11
152.322815
21
189.235196
0
LINE
8
boundary
62
5
39
2
10
152.322815
20
189.235196
11
152.067007
21
189.279929
0
LINE
8
boundary
62
5
39
2
10
152.067007
20
189.279929
11
151.733296
21
189.328347
0
LINE
8
boundary
62
5
39
2
10
151.733296
20
189.328347
11
149.550158
21
189.612764
0
LINE
8
boundary
62
5
39
2
10
149.550158
20
189.612764
11
149.204400
21
189.651823
0
LINE
8
boundary
62
5
39
2
10
149.204400
20
189.651823
11
148.791496
21
189.685244
0
LINE
8
boundary
62
5
39
2
10
148.791496
20
189.685244
11
146.711360
21
189.820177
0
LINE
8
boundary
62
5
39
2
10
146.711360
20
189.820177
11
146.295460
21
189.840231
0
LINE
8
boundary
62
5
39
2
10
146.295460
20
189.840231
11
145.861221
21
189.847236
0
LINE
8
boundary
62
5
39
2
10
145.861221
20
189.847236
11
143.823759
21
189.847236
0
LINE
8
boundary
62
5
39
2
10
143.823759
20
189.847236
11
143.389520
21
189.840231
0
LINE
8
boundary
62
5
39
2
10
143.389520
20
189.840231
11
142.973621
21
189.820177
0
LINE
8
boundary
62
5
39
2
10
142.973621
20
189.820177
11
140.893485
21
189.685244
0
LINE
8
boundary
62
5
39
2
10
140.893485
20
189.685244
11
140.480581
21
189.651823
0
LINE
8
boundary
62
5
39
2
10
140.480581
20
189.651823
11
140.134823
21
189.612764
0
LINE
8
boundary
62
5
39
2
10
140.134823
20
189.612764
11
137.951685
21
189.328347
0
LINE
8
boundary
62
5
39
2
10
137.951685
20
189.328347
11
137.617974
21
189.279929
0
LINE
8
boundary
62
5
39
2
10
137.617974
20
189.279929
11
137.362166
21
189.235196
0
LINE
8
boundary
62
5
39
2
10
137.362166
20
189.235196
11
135.071229
21
188.784319
0
LINE
8
boundary
62
5
39
2
10
135.071229
20
188.784319
11
134.826582
21
188.734430
0
LINE
8
boundary
62
5
39
2
10
134.826582
20
188.734430
11
134.647192
21
188.693347
0
LINE
8
boundary
62
5
39
2
10
134.647192
20
188.693347
11
134.517363
21
188.660143
0
LINE
8
boundary
62
5
39
2
10
134.517363
20
188.660143
11
132.105591
21
188.020884
0
LINE
8
boundary
62
5
39
2
10
132.105591
20
188.020884
11
131.972765
21
187.983976
0
LINE
8
boundary
62
5
39
2
10
131.972765
20
187.983976
11
131.876774
21
187.955509
0
LINE
8
boundary
62
5
39
2
10
131.876774
20
187.955509
11
131.811735
21
187.935009
0
LINE
8
boundary
62
5
39
2
10
131.811735
20
187.935009
11
131.771896
21
187.921706
0
LINE
8
boundary
62
5
39
2
10
131.771896
20
187.921706
11
129.274369
21
187.083294
0
LINE
8
boundary
62
5
39
2
10
129.274369
20
187.083294
11
129.231671
21
187.068573
0
LINE
8
boundary
62
5
39
2
10
129.231671
20
187.068573
11
129.207596
21
187.060111
0
LINE
8
boundary
62
5
39
2
10
129.207596
20
187.060111
11
129.197874
21
187.056636
0
LINE
8
boundary
62
5
39
2
10
129.197874
20
187.056636
11
129.145583
21
187.037663
0
LINE
8
boundary
62
5
39
2
10
129.145583
20
187.037663
11
129.077928
21
187.009960
0
LINE
8
boundary
62
5
39
2
10
129.077928
20
187.009960
11
126.448210
21
185.933149
0
LINE
8
boundary
62
5
39
2
10
126.448210
20
185.933149
11
126.382490
21
185.901125
0
LINE
8
boundary
62
5
39
2
10
126.382490
20
185.901125
11
123.827988
21
184.656350
0
LINE
8
boundary
62
5
39
2
10
123.827988
20
184.656350
11
123.764478
21
184.620138
0
LINE
8
boundary
62
5
39
2
10
123.764478
20
184.620138
11
121.295909
21
183.212618
0
LINE
8
boundary
62
5
39
2
10
121.295909
20
183.212618
11
121.234877
21
183.172372
0
LINE
8
boundary
62
5
39
2
10
121.234877
20
183.172372
11
118.862593
21
181.608016
0
LINE
8
boundary
62
5
39
2
10
118.862593
20
181.608016
11
118.804294
21
181.563904
0
LINE
8
boundary
62
5
39
2
10
118.804294
20
181.563904
11
116.538244
21
179.849273
0
LINE
8
boundary
62
5
39
2
10
116.538244
20
179.849273
11
116.482922
21
179.801479
0
LINE
8
boundary
62
5
39
2
10
116.482922
20
179.801479
11
114.332616
21
177.943760
0
LINE
8
boundary
62
5
39
2
10
114.332616
20
177.943760
11
114.280504
21
177.892485
0
LINE
8
boundary
62
5
39
2
10
114.280504
20
177.892485
11
112.254951
21
175.899471
0
LINE
8
boundary
62
5
39
2
10
112.254951
20
175.899471
11
112.206267
21
175.844931
0
LINE
8
boundary
62
5
39
2
10
112.206267
20
175.844931
11
110.313975
21
173.724986
0
LINE
8
boundary
62
5
39
2
10
110.313975
20
173.724986
11
110.268924
21
173.667409
0
LINE
8
boundary
62
5
39
2
10
110.268924
20
173.667409
11
108.517821
21
171.429426
0
LINE
8
boundary
62
5
39
2
10
108.517821
20
171.429426
11
108.476592
21
171.369053
0
LINE
8
boundary
62
5
39
2
10
108.476592
20
171.369053
11
106.874026
21
169.022410
0
LINE
8
boundary
62
5
39
2
10
106.874026
20
169.022410
11
106.836791
21
168.959495
0
LINE
8
boundary
62
5
39
2
10
106.836791
20
168.959495
11
105.389484
21
166.514042
0
LINE
8
boundary
62
5
39
2
10
105.389484
20
166.514042
11
105.356400
21
166.448849
0
LINE
8
boundary
62
5
39
2
10
105.356400
20
166.448849
11
104.070421
21
163.914838
0
LINE
8
boundary
62
5
39
2
10
104.070421
20
163.914838
11
104.041626
21
163.847640
0
LINE
8
boundary
62
5
39
2
10
104.041626
20
163.847640
11
102.922372
21
161.235703
0
LINE
8
boundary
62
5
39
2
10
102.922372
20
161.235703
11
102.897986
21
161.166782
0
LINE
8
boundary
62
5
39
2
10
102.897986
20
161.166782
11
101.950150
21
158.487874
0
LINE
8
boundary
62
5
39
2
10
101.950150
20
158.487874
11
101.930277
21
158.417519
0
LINE
8
boundary
62
5
39
2
10
101.930277
20
158.417519
11
101.157832
21
155.682875
0
LINE
8
boundary
62
5
39
2
10
101.157832
20
155.682875
11
101.142555
21
155.611382
0
LINE
8
boundary
62
5
39
2
10
101.142555
20
155.611382
11
100.548743
21
152.832474
0
LINE
8
boundary
62
5
39
2
10
100.548743
20
152.832474
11
100.538126
21
152.760142
0
LINE
8
boundary
62
5
39
2
10
100.538126
20
152.760142
11
100.125437
21
149.948623
0
LINE
8
boundary
62
5
39
2
10
100.125437
20
149.948623
11
100.119524
21
149.875755
0
LINE
8
boundary
62
5
39
2
10
100.119524
20
149.875755
11
99.889690
21
147.043421
0
LINE
8
boundary
62
5
39
2
10
99.889690
20
147.043421
11
99.888506
21
146.970323
0
LINE
8
boundary
62
5
39
2
10
99.888506
20
146.970323
11
99.842494
21
144.129051
0
LINE
8
boundary
62
5
39
2
10
99.842494
20
144.129051
11
99.846044
21
144.056029
0
LINE
8
boundary
62
5
39
2
10
99.846044
20
144.056029
11
99.984043
21
141.217737
0
LINE
8
boundary
62
5
39
2
10
99.984043
20
141.217737
11
99.992312
21
141.145099
0
LINE
8
boundary
62
5
39
2
10
99.992312
20
141.145099
11
100.313740
21
138.321692
0
LINE
8
boundary
62
5
39
2
10
100.313740
20
138.321692
11
100.326694
21
138.249741
0
LINE
8
boundary
62
5
39
2
10
100.326694
20
138.249741
11
100.830206
21
135.453061
0
LINE
8
boundary
62
5
39
2
10
100.830206
20
135.453061
11
100.847790
21
135.382099
0
LINE
8
boundary
62
5
39
2
10
100.847790
20
135.382099
11
101.531274
21
132.623877
0
LINE
8
boundary
62
5
39
2
10
101.531274
20
132.623877
11
101.553415
21
132.554203
0
LINE
8
boundary
62
5
39
2
10
101.553415
20
132.554203
11
102.414009
21
129.846008
0
LINE
8
boundary
62
5
39
2
10
102.414009
20
129.846008
11
102.440613
21
129.777913
0
LINE
8
boundary
62
5
39
2
10
102.440613
20
129.777913
11
103.474703
21
127.131102
0
LINE
8
boundary
62
5
39
2
10
103.474703
20
127.131102
11
103.505659
21
127.064871
0
LINE
8
boundary
62
5
39
2
10
103.505659
20
127.064871
11
104.708909
21
124.490548
0
LINE
8
boundary
62
5
39
2
10
104.708909
20
124.490548
11
104.744087
21
124.426461
0
LINE
8
boundary
62
5
39
2
10
104.744087
20
124.426461
11
106.111442
21
121.935423
0
LINE
8
boundary
62
5
39
2
10
106.111442
20
121.935423
11
106.150695
21
121.873747
0
LINE
8
boundary
62
5
39
2
10
106.150695
20
121.873747
11
107.676433
21
119.476441
0
LINE
8
boundary
62
5
39
2
10
107.676433
20
119.476441
11
107.719596
21
119.417435
0
LINE
8
boundary
62
5
39
2
10
107.719596
20
119.417435
11
109.397307
21
117.123916
0
LINE
8
boundary
62
5
39
2
10
109.397307
20
117.123916
11
109.444198
21
117.067828
0
LINE
8
boundary
62
5
39
2
10
109.444198
20
117.067828
11
111.266854
21
114.887719
0
LINE
8
boundary
62
5
39
2
10
111.266854
20
114.887719
11
111.317278
21
114.834784
0
LINE
8
boundary
62
5
39
2
10
111.317278
20
114.834784
11
113.277230
21
112.777228
0
LINE
8
boundary
62
5
39
2
10
113.277230
20
112.777228
11
113.330974
21
112.727668
0
LINE
8
boundary
62
5
39
2
10
113.330974
20
112.727668
11
115.420001
21
110.801292
0
LINE
8
boundary
62
5
39
2
10
115.420001
20
110.801292
11
115.476841
21
110.755315
0
LINE
8
boundary
62
5
39
2
10
115.476841
20
110.755315
11
117.686175
21
108.968204
0
LINE
8
boundary
62
5
39
2
10
117.686175
20
108.968204
11
117.745872
21
108.926002
0
LINE
8
boundary
62
5
39
2
10
117.745872
20
108.926002
11
120.066256
21
107.285648
0
LINE
8
boundary
62
5
39
2
10
120.066256
20
107.285648
11
120.128560
21
107.247399
0
LINE
8
boundary
62
5
39
2
10
120.128560
20
107.247399
11
122.550258
21
105.760681
0
LINE
8
boundary
62
5
39
2
10
122.550258
20
105.760681
11
122.614907
21
105.726545
0
LINE
8
boundary
62
5
39
2
10
122.614907
20
105.726545
11
125.127761
21
104.399702
0
LINE
8
boundary
62
5
39
2
10
125.127761
20
104.399702
11
125.194484
21
104.369823
0
LINE
8
boundary
62
5
39
2
10
125.194484
20
104.369823
11
127.787954
21
103.208420
0
LINE
8
boundary
62
5
39
2
10
127.787954
20
103.208420
11
127.942401
21
103.149537
0
LINE
8
boundary
62
5
39
2
10
127.942401
20
103.149537
11
127.960060
21
103.142960
0
LINE
8
boundary
62
5
39
2
10
127.960060
20
103.142960
11
130.470262
21
102.208806
0
LINE
8
boundary
62
5
39
2
10
130.470262
20
102.208806
11
130.484831
21
102.203706
0
LINE
8
boundary
62
5
39
2
10
130.484831
20
102.203706
11
130.516344
21
102.192944
0
LINE
8
boundary
62
5
39
2
10
130.516344
20
102.192944
11
130.569414
21
102.175436
0
LINE
8
boundary
62
5
39
2
10
130.569414
20
102.175436
11
130.649817
21
102.150054
0
LINE
8
boundary
62
5
39
2
10
130.649817
20
102.150054
11
130.763513
21
102.115961
0
LINE
8
boundary
62
5
39
2
10
130.763513
20
102.115961
11
133.193827
21
101.386782
0
LINE
8
boundary
62
5
39
2
10
133.193827
20
101.386782
11
133.306301
21
101.355624
0
LINE
8
boundary
62
5
39
2
10
133.306301
20
101.355624
11
133.459031
21
101.316744
0
LINE
8
boundary
62
5
39
2
10
133.459031
20
101.316744
11
133.664135
21
101.269290
0
LINE
8
boundary
62
5
39
2
10
133.664135
20
101.269290
11
135.997747
21
100.730976
0
LINE
8
boundary
62
5
39
2
10
135.997747
20
100.730976
11
136.213047
21
100.687358
0
LINE
8
boundary
62
5
39
2
10
136.213047
20
100.687358
11
136.501152
21
100.636810
0
LINE
8
boundary
62
5
39
2
10
136.501152
20
100.636810
11
138.740721
21
100.270938
0
LINE
8
boundary
62
5
39
2
10
138.740721
20
100.270938
11
139.040951
21
100.227435
0
LINE
8
boundary
62
5
39
2
10
139.040951
20
100.227435
11
139.418459
21
100.184761
0
LINE
8
boundary
62
5
39
2
10
139.418459
20
100.184761
11
141.546061
21
99.977383
0
LINE
8
boundary
62
5
39
2
10
141.546061
20
99.977383
11
141.932460
21
99.946113
0
LINE
8
boundary
62
5
39
2
10
141.932460
20
99.946113
11
142.365827
21
99.925210
0
LINE
8
boundary
62
5
39
2
10
142.365827
20
99.925210
11
144.414289
21
99.858843
0
LINE
8
boundary
62
5
39
2
10
144.414289
20
99.858843
11
144.842490
21
99.851936
0
LINE
8
boundary
62
5
39
2
10
144.842490
20
99.851936
11
145.270692
21
99.858843
0
LINE
8
boundary
62
5
39
2
10
145.270692
20
99.858843
11
147.319154
21
99.925210
0
LINE
8
boundary
62
5
39
2
10
147.319154
20
99.925210
11
147.752520
21
99.946113
0
LINE
8
boundary
62
5
39
2
10
147.752520
20
99.946113
11
148.138920
21
99.977383
0
LINE
8
boundary
62
5
39
2
10
148.138920
20
99.977383
11
150.266521
21
100.184761
0
LINE
8
boundary
62
5
39
2
10
150.266521
20
100.184761
11
150.644030
21
100.227435
0
LINE
8
boundary
62
5
39
2
10
150.644030
20
100.227435
11
150.944259
21
100.270938
0
LINE
8
boundary
62
5
39
2
10
150.944259
20
100.270938
11
153.183829
21
100.636810
0
LINE
8
boundary
62
5
39
2
10
153.183829
20
100.636810
11
153.471934
21
100.687358
0
LINE
8
boundary
62
5
39
2
10
153.471934
20
100.687358
11
153.687233
21
100.730976
0
LINE
8
boundary
62
5
39
2
10
153.687233
20
100.730976
11
153.840716
21
100.766522
0
LINE
8
boundary
62
5
39
2
10
153.840716
20
100.766522
11
156.225950
21
101.316744
0
LINE
8
boundary
62
5
39
2
10
156.225950
20
101.316744
11
156.378680
21
101.355624
0
LINE
8
boundary
62
5
39
2
10
156.378680
20
101.355624
11
156.491153
21
101.386782
0
LINE
8
boundary
62
5
39
2
10
156.491153
20
101.386782
11
156.569268
21
101.410200
0
LINE
8
boundary
62
5
39
2
10
156.569268
20
101.410200
11
159.035163
21
102.150054
0
LINE
8
boundary
62
5
39
2
10
159.035163
20
102.150054
11
159.115567
21
102.175436
0
LINE
8
boundary
62
5
39
2
10
159.115567
20
102.175436
11
159.168637
21
102.192944
0
LINE
8
boundary
62
5
39
2
10
159.168637
20
102.192944
11
159.200150
21
102.203706
0
LINE
8
boundary
62
5
39
2
10
159.200150
20
102.203706
11
159.214719
21
102.208806
0
LINE
8
boundary
62
5
39
2
10
159.214719
20
102.208806
11
159.216405
21
102.209438
0
LINE
8
boundary
62
5
39
2
10
159.216405
20
102.209438
11
161.742580
21
103.149536
0
LINE
8
boundary
62
5
39
2
10
161.742580
20
103.149536
11
161.897027
21
103.208420
0
LINE
8
boundary
62
5
39
2
10
161.897027
20
103.208420
11
161.963750
21
103.238300
0
LINE
8
boundary
62
5
39
2
10
161.963750
20
103.238300
11
164.557219
21
104.399702
0
LINE
8
boundary
62
5
39
2
10
164.557219
20
104.399702
11
164.621868
21
104.433838
0
LINE
8
boundary
62
5
39
2
10
164.621868
20
104.433838
11
167.134722
21
105.760681
0
LINE
8
boundary
62
5
39
2
10
167.134722
20
105.760681
11
167.197026
21
105.798930
0
LINE
8
boundary
62
5
39
2
10
167.197026
20
105.798930
11
169.618724
21
107.285648
0
LINE
8
boundary
62
5
39
2
10
169.618724
20
107.285648
11
169.678421
21
107.327850
0
LINE
8
boundary
62
5
39
2
10
169.678421
20
107.327850
11
171.998806
21
108.968204
0
LINE
8
boundary
62
5
39
2
10
171.998806
20
108.968204
11
172.055646
21
109.014181
0
LINE
8
boundary
62
5
39
2
10
172.055646
20
109.014181
11
174.264980
21
110.801292
0
LINE
8
boundary
62
5
39
2
10
174.264980
20
110.801292
11
174.318725
21
110.850852
0
LINE
8
boundary
62
5
39
2
10
174.318725
20
110.850852
11
176.407751
21
112.777228
0
LINE
8
annotation
62
1
39
211
10
153.112491
20
113.854556
11
153.123923
21
106.758742
0
LINE
8
annotation
62
1
39
211
10
153.123852
20
182.962447
11
153.112429
21
175.861112
0
LINE
8
annotation
62
1
39
211
10
136.561121
20
106.758586
11
136.572523
21
113.854556
0
LINE
8
annotation
62
1
39
211
10
136.572527
20
175.861112
11
136.561089
21
182.962439
0
LINE
8
annotation
62
1
39
211
10
181.080613
20
145.087711
11
181.080613
21
146.516461
0
LINE
8
annotation
62
1
39
211
10
134.884363
20
116.988961
11
136.313113
21
116.988961
0
LINE
8
annotation
62
1
39
211
10
154.839238
20
116.560336
11
154.839238
21
117.989086
0
LINE
8
annotation
62
1
39
211
10
154.839238
20
116.560336
11
154.839238
21
117.989086
0
LINE
8
annotation
62
1
39
211
10
154.839238
20
117.989086
11
154.839238
21
116.560336
0
LINE
8
annotation
62
1
39
211
10
154.839238
20
116.560336
11
156.267988
21
116.560336
0
LINE
8
annotation
62
1
39
211
10
108.604368
20
145.087711
11
108.604368
21
143.658961
0
LINE
8
annotation
62
1
39
211
10
109.029214
20
136.535005
11
109.029214
21
155.976948
0
LINE
8
annotation
62
1
39
211
10
109.029214
20
155.976948
11
104.707021
21
151.653536
0
LINE
8
frame
62
5
39
2
10
0.000000
20
0.000000
11
215.900000
21
0.000000
0
LINE
8
frame
62
5
39
2
10
215.900000
20
0.000000
11
215.900000
21
279.400000
0
LINE
8
frame
62
5
39
2
10
215.900000
20
279.400000
11
0.000000
21
279.400000
0
LINE
8
frame
62
5
39
2
10
0.000000
20
279.400000
11
0.000000
21
0.000000
0
ENDSEC
0
EOF
