0
SECTION
2
HEADER
9
$ACADVER
1
AC1009
0
ENDSEC
0
SECTION
2
TABLES
0
TABLE
2
VPORT
70
1
0
VPORT
2
ACTIVE
70
0
10
0.0
20
0.0
11
0.0
21
0.0
12
0.0
22
0.0
13
0.0
23
0.0
14
0.0
24
0.0
15
0.0
25
0.0
16
0.0
26
0.0
36
0.0
17
0.0
27
0.0
37
0.0
40
0.0
41
0.0
42
0.0
43
0.0
44
0.0
50
0.0
51
0.0
71
0
72
1000
73
1
74
3
75
0
76
0
77
0
78
0
0
ENDTAB
0
ENDSEC
0
SECTION
2
ENTITIES
0
LINE
8
boundary
62
5
39
2
10
150.098249
20
7.708436
11
150.577464
21
7.916630
0
LINE
8
boundary
62
5
39
2
10
150.577464
20
7.916630
11
151.854309
21
8.826796
0
LINE
8
boundary
62
5
39
2
10
151.854309
20
8.826796
11
152.279767
21
9.130075
0
LINE
8
boundary
62
5
39
2
10
152.279767
20
9.130075
11
153.339481
21
10.285839
0
LINE
8
boundary
62
5
39
2
10
153.339481
20
10.285839
11
153.692585
21
10.670947
0
LINE
8
boundary
62
5
39
2
10
153.692585
20
10.670947
11
153.957906
21
11.121055
0
LINE
8
boundary
62
5
39
2
10
153.957906
20
11.121055
11
154.754160
21
12.471884
0
LINE
8
boundary
62
5
39
2
10
154.754160
20
12.471884
11
155.252167
21
13.958737
0
LINE
8
boundary
62
5
39
2
10
155.252167
20
13.958737
11
155.418107
21
14.454173
0
LINE
8
boundary
62
5
39
2
10
155.418107
20
14.454173
11
155.596087
21
16.012087
0
LINE
8
boundary
62
5
39
2
10
155.596087
20
16.012087
11
155.655393
21
16.531197
0
LINE
8
boundary
62
5
39
2
10
155.655393
20
16.531197
11
155.605475
21
17.051291
0
LINE
8
boundary
62
5
39
2
10
155.605475
20
17.051291
11
155.455660
21
18.612168
0
LINE
8
boundary
62
5
39
2
10
155.455660
20
18.612168
11
155.298699
21
19.110517
0
LINE
8
boundary
62
5
39
2
10
155.298699
20
19.110517
11
154.827637
21
20.606126
0
LINE
8
boundary
62
5
39
2
10
154.827637
20
20.606126
11
154.570490
21
21.060957
0
LINE
8
boundary
62
5
39
2
10
154.570490
20
21.060957
11
153.798765
21
22.425950
0
LINE
8
boundary
62
5
39
2
10
153.798765
20
22.425950
11
153.452678
21
22.817375
0
LINE
8
boundary
62
5
39
2
10
153.452678
20
22.817375
11
152.414029
21
23.992088
0
LINE
8
boundary
62
5
39
2
10
152.414029
20
23.992088
11
151.994119
21
24.303002
0
LINE
8
boundary
62
5
39
2
10
151.994119
20
24.303002
11
150.733917
21
25.236093
0
LINE
8
boundary
62
5
39
2
10
150.733917
20
25.236093
11
150.258803
21
25.452823
0
LINE
8
boundary
62
5
39
2
10
150.258803
20
25.452823
11
148.832541
21
26.103383
0
LINE
8
boundary
62
5
39
2
10
148.832541
20
26.103383
11
148.239891
21
26.230487
0
LINE
8
boundary
62
5
39
2
10
148.239891
20
26.230487
11
147.651399
21
26.359112
0
LINE
8
boundary
62
5
39
2
10
147.651399
20
26.359112
11
146.789998
21
26.550145
0
LINE
8
boundary
62
5
39
2
10
146.789998
20
26.550145
11
96.243291
21
32.485362
0
LINE
8
boundary
62
5
39
2
10
96.243291
20
32.485362
11
72.858365
21
35.159629
0
LINE
8
boundary
62
5
39
2
10
72.858365
20
35.159629
11
71.691812
21
35.365046
0
LINE
8
boundary
62
5
39
2
10
71.691812
20
35.365046
11
70.558711
21
35.709510
0
LINE
8
boundary
62
5
39
2
10
70.558711
20
35.709510
11
68.225386
21
36.418832
0
LINE
8
boundary
62
5
39
2
10
68.225386
20
36.418832
11
67.142055
21
36.897370
0
LINE
8
boundary
62
5
39
2
10
67.142055
20
36.897370
11
64.911645
21
37.882621
0
LINE
8
boundary
62
5
39
2
10
64.911645
20
37.882621
11
63.893900
21
38.488253
0
LINE
8
boundary
62
5
39
2
10
63.893900
20
38.488253
11
61.798510
21
39.735171
0
LINE
8
boundary
62
5
39
2
10
61.798510
20
39.735171
11
60.861189
21
40.459064
0
LINE
8
boundary
62
5
39
2
10
60.861189
20
40.459064
11
58.931379
21
41.949459
0
LINE
8
boundary
62
5
39
2
10
58.931379
20
41.949459
11
58.088144
21
42.781055
0
LINE
8
boundary
62
5
39
2
10
58.088144
20
42.781055
11
56.352048
21
44.493195
0
LINE
8
boundary
62
5
39
2
10
56.352048
20
44.493195
11
55.615201
21
45.420368
0
LINE
8
boundary
62
5
39
2
10
55.615201
20
45.420368
11
54.098136
21
47.329289
0
LINE
8
boundary
62
5
39
2
10
54.098136
20
47.329289
11
53.478417
21
48.338520
0
LINE
8
boundary
62
5
39
2
10
53.478417
20
48.338520
11
52.202515
21
50.416379
0
LINE
8
boundary
62
5
39
2
10
52.202515
20
50.416379
11
51.708968
21
51.492951
0
LINE
8
boundary
62
5
39
2
10
51.708968
20
51.492951
11
50.692824
21
53.709460
0
LINE
8
boundary
62
5
39
2
10
50.692824
20
53.709460
11
50.332641
21
54.837675
0
LINE
8
boundary
62
5
39
2
10
50.332641
20
54.837675
11
49.591082
21
57.160504
0
LINE
8
boundary
62
5
39
2
10
49.591082
20
57.160504
11
49.369514
21
58.323906
0
LINE
8
boundary
62
5
39
2
10
49.369514
20
58.323906
11
48.913333
21
60.719184
0
LINE
8
boundary
62
5
39
2
10
48.913333
20
60.719184
11
48.833605
21
61.900822
0
LINE
8
boundary
62
5
39
2
10
48.833605
20
61.900822
11
48.669486
21
64.333421
0
LINE
8
boundary
62
5
39
2
10
48.669486
20
64.333421
11
48.732771
21
65.516050
0
LINE
8
boundary
62
5
39
2
10
48.732771
20
65.516050
11
48.856843
21
67.951467
0
LINE
8
boundary
62
5
39
2
10
48.856843
20
67.951467
11
51.642273
21
92.253996
0
LINE
8
boundary
62
5
39
2
10
51.642273
20
92.253996
11
51.821365
21
93.820224
0
LINE
8
boundary
62
5
39
2
10
51.821365
20
93.820224
11
52.011692
21
95.484311
0
LINE
8
boundary
62
5
39
2
10
52.011692
20
95.484311
11
52.204604
21
97.171046
0
LINE
8
boundary
62
5
39
2
10
52.204604
20
97.171046
11
52.390533
21
98.796787
0
LINE
8
boundary
62
5
39
2
10
52.390533
20
98.796787
11
52.559859
21
100.277351
0
LINE
8
boundary
62
5
39
2
10
52.559859
20
100.277351
11
58.882147
21
155.562307
0
LINE
8
boundary
62
5
39
2
10
58.882147
20
155.562307
11
59.060852
21
157.126084
0
LINE
8
boundary
62
5
39
2
10
59.060852
20
157.126084
11
59.251517
21
158.793015
0
LINE
8
boundary
62
5
39
2
10
59.251517
20
158.793015
11
62.919605
21
189.572498
0
LINE
8
boundary
62
5
39
2
10
62.919605
20
189.572498
11
63.125026
21
190.739029
0
LINE
8
boundary
62
5
39
2
10
63.125026
20
190.739029
11
63.469490
21
191.872135
0
LINE
8
boundary
62
5
39
2
10
63.469490
20
191.872135
11
64.178795
21
194.205437
0
LINE
8
boundary
62
5
39
2
10
64.178795
20
194.205437
11
64.657336
21
195.288762
0
LINE
8
boundary
62
5
39
2
10
64.657336
20
195.288762
11
65.642594
21
197.519166
0
LINE
8
boundary
62
5
39
2
10
65.642594
20
197.519166
11
66.248222
21
198.536906
0
LINE
8
boundary
62
5
39
2
10
66.248222
20
198.536906
11
67.495134
21
200.632300
0
LINE
8
boundary
62
5
39
2
10
67.495134
20
200.632300
11
68.219025
21
201.569626
0
LINE
8
boundary
62
5
39
2
10
68.219025
20
201.569626
11
69.709425
21
203.499444
0
LINE
8
boundary
62
5
39
2
10
69.709425
20
203.499444
11
70.541018
21
204.342673
0
LINE
8
boundary
62
5
39
2
10
70.541018
20
204.342673
11
72.253159
21
206.078766
0
LINE
8
boundary
62
5
39
2
10
72.253159
20
206.078766
11
73.180336
21
206.815623
0
LINE
8
boundary
62
5
39
2
10
73.180336
20
206.815623
11
75.089254
21
208.332681
0
LINE
8
boundary
62
5
39
2
10
75.089254
20
208.332681
11
76.098482
21
208.952396
0
LINE
8
boundary
62
5
39
2
10
76.098482
20
208.952396
11
78.176349
21
210.228303
0
LINE
8
boundary
62
5
39
2
10
78.176349
20
210.228303
11
79.252918
21
210.721851
0
LINE
8
boundary
62
5
39
2
10
79.252918
20
210.721851
11
81.469424
21
211.737990
0
LINE
8
boundary
62
5
39
2
10
81.469424
20
211.737990
11
82.597638
21
212.098176
0
LINE
8
boundary
62
5
39
2
10
82.597638
20
212.098176
11
84.920469
21
212.839744
0
LINE
8
boundary
62
5
39
2
10
84.920469
20
212.839744
11
86.083872
21
213.061307
0
LINE
8
boundary
62
5
39
2
10
86.083872
20
213.061307
11
88.479149
21
213.517470
0
LINE
8
boundary
62
5
39
2
10
88.479149
20
213.517470
11
89.660773
21
213.597196
0
LINE
8
boundary
62
5
39
2
10
89.660773
20
213.597196
11
92.093370
21
213.761332
0
LINE
8
boundary
62
5
39
2
10
92.093370
20
213.761332
11
93.275983
21
213.698048
0
LINE
8
boundary
62
5
39
2
10
93.275983
20
213.698048
11
95.711383
21
213.573950
0
LINE
8
boundary
62
5
39
2
10
95.711383
20
213.573950
11
115.614754
21
211.292649
0
LINE
8
boundary
62
5
39
2
10
115.614754
20
211.292649
11
162.907854
21
206.061125
0
LINE
8
boundary
62
5
39
2
10
162.907854
20
206.061125
11
169.337426
21
205.368796
0
LINE
8
boundary
62
5
39
2
10
169.337426
20
205.368796
11
169.849054
21
205.472782
0
LINE
8
boundary
62
5
39
2
10
169.849054
20
205.472782
11
171.383011
21
205.784677
0
LINE
8
boundary
62
5
39
2
10
171.383011
20
205.784677
11
172.821184
21
206.409491
0
LINE
8
boundary
62
5
39
2
10
172.821184
20
206.409491
11
173.300396
21
206.617688
0
LINE
8
boundary
62
5
39
2
10
173.300396
20
206.617688
11
174.577243
21
207.527867
0
LINE
8
boundary
62
5
39
2
10
174.577243
20
207.527867
11
175.002700
21
207.831147
0
LINE
8
boundary
62
5
39
2
10
175.002700
20
207.831147
11
176.062406
21
208.986890
0
LINE
8
boundary
62
5
39
2
10
176.062406
20
208.986890
11
176.415509
21
209.371994
0
LINE
8
boundary
62
5
39
2
10
176.415509
20
209.371994
11
177.211774
21
210.722840
0
LINE
8
boundary
62
5
39
2
10
177.211774
20
210.722840
11
177.477096
21
211.172948
0
LINE
8
boundary
62
5
39
2
10
177.477096
20
211.172948
11
177.643035
21
211.668379
0
LINE
8
boundary
62
5
39
2
10
177.643035
20
211.668379
11
178.141037
21
213.155234
0
LINE
8
boundary
62
5
39
2
10
178.141037
20
213.155234
11
178.200344
21
213.674350
0
LINE
8
boundary
62
5
39
2
10
178.200344
20
213.674350
11
178.378327
21
215.232281
0
LINE
8
boundary
62
5
39
2
10
178.378327
20
215.232281
11
178.328407
21
215.752368
0
LINE
8
boundary
62
5
39
2
10
178.328407
20
215.752368
11
178.178588
21
217.313213
0
LINE
8
boundary
62
5
39
2
10
178.178588
20
217.313213
11
178.021629
21
217.811570
0
LINE
8
boundary
62
5
39
2
10
178.021629
20
217.811570
11
177.550566
21
219.307179
0
LINE
8
boundary
62
5
39
2
10
177.550566
20
219.307179
11
177.293420
21
219.762004
0
LINE
8
boundary
62
5
39
2
10
177.293420
20
219.762004
11
176.521696
21
221.127006
0
LINE
8
boundary
62
5
39
2
10
176.521696
20
221.127006
11
176.175610
21
221.518434
0
LINE
8
boundary
62
5
39
2
10
176.175610
20
221.518434
11
175.136956
21
222.693138
0
LINE
8
boundary
62
5
39
2
10
175.136956
20
222.693138
11
174.717049
21
223.004054
0
LINE
8
boundary
62
5
39
2
10
174.717049
20
223.004054
11
173.457224
21
223.936923
0
LINE
8
boundary
62
5
39
2
10
173.457224
20
223.936923
11
172.031107
21
224.587541
0
LINE
8
boundary
62
5
39
2
10
172.031107
20
224.587541
11
171.555810
21
224.804330
0
LINE
8
boundary
62
5
39
2
10
171.555810
20
224.804330
11
169.506520
21
225.201230
0
LINE
8
boundary
62
5
39
2
10
169.506520
20
225.201230
11
151.059498
21
227.308644
0
LINE
8
boundary
62
5
39
2
10
151.059498
20
227.308644
11
98.991826
21
233.149863
0
LINE
8
boundary
62
5
39
2
10
98.991826
20
233.149863
11
56.023923
21
238.104996
0
LINE
8
boundary
62
5
39
2
10
56.023923
20
238.104996
11
54.625320
21
238.178925
0
LINE
8
boundary
62
5
39
2
10
54.625320
20
238.178925
11
52.407731
21
238.029323
0
LINE
8
boundary
62
5
39
2
10
52.407731
20
238.029323
11
51.011248
21
237.933193
0
LINE
8
boundary
62
5
39
2
10
51.011248
20
237.933193
11
49.635765
21
237.672158
0
LINE
8
boundary
62
5
39
2
10
49.635765
20
237.672158
11
47.452296
21
237.256344
0
LINE
8
boundary
62
5
39
2
10
47.452296
20
237.256344
11
46.117962
21
236.831782
0
LINE
8
boundary
62
5
39
2
10
46.117962
20
236.831782
11
44.000644
21
236.155824
0
LINE
8
boundary
62
5
39
2
10
44.000644
20
236.155824
11
41.980229
21
235.229572
0
LINE
8
boundary
62
5
39
2
10
41.980229
20
235.229572
11
40.708475
21
234.643169
0
LINE
8
boundary
62
5
39
2
10
40.708475
20
234.643169
11
39.515193
21
233.911155
0
LINE
8
boundary
62
5
39
2
10
39.515193
20
233.911155
11
37.621029
21
232.748047
0
LINE
8
boundary
62
5
39
2
10
37.621029
20
232.748047
11
36.524442
21
231.877715
0
LINE
8
boundary
62
5
39
2
10
36.524442
20
231.877715
11
34.784308
21
230.494806
0
LINE
8
boundary
62
5
39
2
10
34.784308
20
230.494806
11
33.800053
21
229.498997
0
LINE
8
boundary
62
5
39
2
10
33.800053
20
229.498997
11
32.239390
21
227.916496
0
LINE
8
boundary
62
5
39
2
10
32.239390
20
227.916496
11
30.880854
21
226.157412
0
LINE
8
boundary
62
5
39
2
10
30.880854
20
226.157412
11
30.027516
21
225.046939
0
LINE
8
boundary
62
5
39
2
10
30.027516
20
225.046939
11
29.310761
21
223.844632
0
LINE
8
boundary
62
5
39
2
10
29.310761
20
223.844632
11
28.174065
21
221.934490
0
LINE
8
boundary
62
5
39
2
10
28.174065
20
221.934490
11
27.831703
21
221.221523
0
LINE
8
boundary
62
5
39
2
10
27.831703
20
221.221523
11
26.933741
21
219.188698
0
LINE
8
boundary
62
5
39
2
10
26.933741
20
219.188698
11
26.708495
21
218.621578
0
LINE
8
boundary
62
5
39
2
10
26.708495
20
218.621578
11
26.532718
21
218.123704
0
LINE
8
boundary
62
5
39
2
10
26.532718
20
218.123704
11
25.886303
21
215.997326
0
LINE
8
boundary
62
5
39
2
10
25.886303
20
215.997326
11
25.605856
21
214.894977
0
LINE
8
boundary
62
5
39
2
10
25.605856
20
214.894977
11
25.410650
21
213.774870
0
LINE
8
boundary
62
5
39
2
10
25.410650
20
213.774870
11
25.023399
21
211.586440
0
LINE
8
boundary
62
5
39
2
10
25.023399
20
211.586440
11
21.203276
21
178.174409
0
LINE
8
boundary
62
5
39
2
10
21.203276
20
178.174409
11
21.004082
21
176.431361
0
LINE
8
boundary
62
5
39
2
10
21.004082
20
176.431361
11
20.793695
21
174.590794
0
LINE
8
boundary
62
5
39
2
10
20.793695
20
174.590794
11
16.437847
21
136.367625
0
LINE
8
boundary
62
5
39
2
10
16.437847
20
136.367625
11
16.303749
21
135.196410
0
LINE
8
boundary
62
5
39
2
10
16.303749
20
135.196410
11
16.152447
21
133.874137
0
LINE
8
boundary
62
5
39
2
10
16.152447
20
133.874137
11
15.990895
21
132.462683
0
LINE
8
boundary
62
5
39
2
10
15.990895
20
132.462683
11
15.827443
21
131.033037
0
LINE
8
boundary
62
5
39
2
10
15.827443
20
131.033037
11
15.670284
21
129.657708
0
LINE
8
boundary
62
5
39
2
10
15.670284
20
129.657708
11
15.527094
21
128.403882
0
LINE
8
boundary
62
5
39
2
10
15.527094
20
128.403882
11
15.404070
21
127.326893
0
LINE
8
boundary
62
5
39
2
10
15.404070
20
127.326893
11
11.003619
21
88.724653
0
LINE
8
boundary
62
5
39
2
10
11.003619
20
88.724653
11
6.866903
21
52.543062
0
LINE
8
boundary
62
5
39
2
10
6.866903
20
52.543062
11
6.787948
21
51.969611
0
LINE
8
boundary
62
5
39
2
10
6.787948
20
51.969611
11
6.681681
21
49.741892
0
LINE
8
boundary
62
5
39
2
10
6.681681
20
49.741892
11
6.667500
21
48.659844
0
LINE
8
boundary
62
5
39
2
10
6.667500
20
48.659844
11
6.850374
21
45.949176
0
LINE
8
boundary
62
5
39
2
10
6.850374
20
45.949176
11
6.962214
21
44.999296
0
LINE
8
boundary
62
5
39
2
10
6.962214
20
44.999296
11
7.470476
21
42.330436
0
LINE
8
boundary
62
5
39
2
10
7.470476
20
42.330436
11
7.702275
21
41.402509
0
LINE
8
boundary
62
5
39
2
10
7.702275
20
41.402509
11
8.528541
21
38.814374
0
LINE
8
boundary
62
5
39
2
10
8.528541
20
38.814374
11
8.876526
21
37.923489
0
LINE
8
boundary
62
5
39
2
10
8.876526
20
37.923489
11
10.008734
21
35.453818
0
LINE
8
boundary
62
5
39
2
10
10.008734
20
35.453818
11
10.467253
21
34.614452
0
LINE
8
boundary
62
5
39
2
10
10.467253
20
34.614452
11
11.888881
21
32.299264
0
LINE
8
boundary
62
5
39
2
10
11.888881
20
32.299264
11
12.450478
21
31.525068
0
LINE
8
boundary
62
5
39
2
10
12.450478
20
31.525068
11
14.140816
21
29.398116
0
LINE
8
boundary
62
5
39
2
10
14.140816
20
29.398116
11
14.796366
21
28.701678
0
LINE
8
boundary
62
5
39
2
10
14.796366
20
28.701678
11
16.730739
21
26.793980
0
LINE
8
boundary
62
5
39
2
10
16.730739
20
26.793980
11
17.469572
21
26.186614
0
LINE
8
boundary
62
5
39
2
10
17.469572
20
26.186614
11
19.619807
21
24.525990
0
LINE
8
boundary
62
5
39
2
10
19.619807
20
24.525990
11
20.429918
21
24.017578
0
LINE
8
boundary
62
5
39
2
10
20.429918
20
24.017578
11
22.764638
21
22.628242
0
LINE
8
boundary
62
5
39
2
10
22.764638
20
22.628242
11
23.632864
21
22.227049
0
LINE
8
boundary
62
5
39
2
10
23.632864
20
22.227049
11
26.118027
21
21.129266
0
LINE
8
boundary
62
5
39
2
10
26.118027
20
21.129266
11
27.030244
21
20.841811
0
LINE
8
boundary
62
5
39
2
10
27.030244
20
20.841811
11
29.629940
21
20.051501
0
LINE
8
boundary
62
5
39
2
10
29.629940
20
20.051501
11
30.571451
21
19.882430
0
LINE
8
boundary
62
5
39
2
10
30.571451
20
19.882430
11
33.247536
21
19.411272
0
LINE
8
boundary
62
5
39
2
10
33.247536
20
19.411272
11
69.407725
21
15.276095
0
LINE
8
boundary
62
5
39
2
10
69.407725
20
15.276095
11
117.182597
21
9.812686
0
LINE
8
boundary
62
5
39
2
10
117.182597
20
9.812686
11
145.826300
21
6.674524
0
LINE
8
boundary
62
5
39
2
10
145.826300
20
6.674524
11
146.611819
21
6.667500
0
LINE
8
boundary
62
5
39
2
10
146.611819
20
6.667500
11
147.124119
21
6.771535
0
LINE
8
boundary
62
5
39
2
10
147.124119
20
6.771535
11
148.660072
21
7.083618
0
LINE
8
boundary
62
5
39
2
10
148.660072
20
7.083618
11
150.098249
21
7.708436
0
LINE
8
annotation
62
1
39
211
10
27.889029
20
74.292827
11
20.485266
21
74.292827
0
LINE
8
annotation
62
1
39
211
10
20.485266
20
74.292827
11
27.326586
21
85.306473
0
LINE
8
annotation
62
1
39
211
10
27.326586
20
85.306473
11
27.326586
21
85.306473
0
LINE
8
annotation
62
1
39
211
10
27.326586
20
85.306473
11
27.334765
21
85.316594
0
LINE
8
annotation
62
1
39
211
10
27.334765
20
85.316594
11
27.342607
21
85.326800
0
LINE
8
annotation
62
1
39
211
10
27.342607
20
85.326800
11
27.350166
21
85.337178
0
LINE
8
annotation
62
1
39
211
10
27.350166
20
85.337178
11
27.357493
21
85.347815
0
LINE
8
annotation
62
1
39
211
10
27.357493
20
85.347815
11
27.364639
21
85.358795
0
LINE
8
annotation
62
1
39
211
10
27.364639
20
85.358795
11
27.371656
21
85.370206
0
LINE
8
annotation
62
1
39
211
10
27.371656
20
85.370206
11
27.378595
21
85.382133
0
LINE
8
annotation
62
1
39
211
10
27.378595
20
85.382133
11
27.385509
21
85.394663
0
LINE
8
annotation
62
1
39
211
10
27.385509
20
85.394663
11
27.392448
21
85.407880
0
LINE
8
annotation
62
1
39
211
10
27.392448
20
85.407880
11
27.392448
21
85.407880
0
LINE
8
annotation
62
1
39
211
10
27.392448
20
85.407880
11
27.674925
21
86.014381
0
LINE
8
annotation
62
1
39
211
10
27.674925
20
86.014381
11
27.839943
21
86.643073
0
LINE
8
annotation
62
1
39
211
10
27.839943
20
86.643073
11
27.891546
21
87.279749
0
LINE
8
annotation
62
1
39
211
10
27.891546
20
87.279749
11
27.833779
21
87.910205
0
LINE
8
annotation
62
1
39
211
10
27.833779
20
87.910205
11
27.670686
21
88.520233
0
LINE
8
annotation
62
1
39
211
10
27.670686
20
88.520233
11
27.406310
21
89.095629
0
LINE
8
annotation
62
1
39
211
10
27.406310
20
89.095629
11
27.044696
21
89.622187
0
LINE
8
annotation
62
1
39
211
10
27.044696
20
89.622187
11
26.589888
21
90.085700
0
LINE
8
annotation
62
1
39
211
10
26.589888
20
90.085700
11
26.045929
21
90.471962
0
LINE
8
annotation
62
1
39
211
10
26.045929
20
90.471962
11
26.045929
21
90.471962
0
LINE
8
annotation
62
1
39
211
10
26.045929
20
90.471962
11
25.437742
21
90.750425
0
LINE
8
annotation
62
1
39
211
10
25.437742
20
90.750425
11
24.808087
21
90.912900
0
LINE
8
annotation
62
1
39
211
10
24.808087
20
90.912900
11
24.171041
21
90.963045
0
LINE
8
annotation
62
1
39
211
10
24.171041
20
90.963045
11
23.540680
21
90.904517
0
LINE
8
annotation
62
1
39
211
10
23.540680
20
90.904517
11
22.931081
21
90.740972
0
LINE
8
annotation
62
1
39
211
10
22.931081
20
90.740972
11
22.356322
21
90.476067
0
LINE
8
annotation
62
1
39
211
10
22.356322
20
90.476067
11
21.830479
21
90.113459
0
LINE
8
annotation
62
1
39
211
10
21.830479
20
90.113459
11
21.367628
21
89.656805
0
LINE
8
annotation
62
1
39
211
10
21.367628
20
89.656805
11
20.981847
21
89.109762
0
LINE
8
annotation
62
1
39
211
10
20.981847
20
89.109762
11
20.495721
21
88.177235
0
LINE
8
annotation
62
1
39
211
10
37.848307
20
74.292962
11
41.554371
21
90.963452
0
LINE
8
annotation
62
1
39
211
10
41.554371
20
90.963452
11
34.141199
21
90.963452
0
LINE
8
annotation
62
1
39
211
10
41.554371
20
83.539826
11
37.848307
21
83.539826
0
LINE
8
hole
62
5
39
2
10
205.929865
20
121.032339
11
205.661018
21
119.504405
0
LINE
8
hole
62
5
39
2
10
205.661018
20
119.504405
11
205.875244
21
120.885714
0
LINE
8
hole
62
5
39
2
10
205.875244
20
120.885714
11
206.447888
21
124.585237
0
LINE
8
hole
62
5
39
2
10
206.447888
20
124.585237
11
206.716400
21
125.393569
0
LINE
8
hole
62
5
39
2
10
206.716400
20
125.393569
11
205.929865
21
121.032339
0
LINE
8
boundary
62
5
39
2
10
300.048887
20
66.241428
11
298.296582
21
65.392581
0
LINE
8
boundary
62
5
39
2
10
298.296582
20
65.392581
11
297.564508
21
65.096089
0
LINE
8
boundary
62
5
39
2
10
297.564508
20
65.096089
11
293.734160
21
63.677321
0
LINE
8
boundary
62
5
39
2
10
293.734160
20
63.677321
11
292.976203
21
63.455193
0
LINE
8
boundary
62
5
39
2
10
292.976203
20
63.455193
11
289.023900
21
62.423874
0
LINE
8
boundary
62
5
39
2
10
289.023900
20
62.423874
11
288.247597
21
62.278318
0
LINE
8
boundary
62
5
39
2
10
288.247597
20
62.278318
11
284.212407
21
61.644642
0
LINE
8
boundary
62
5
39
2
10
284.212407
20
61.644642
11
283.425467
21
61.577105
0
LINE
8
boundary
62
5
39
2
10
283.425467
20
61.577105
11
279.347215
21
61.347240
0
LINE
8
boundary
62
5
39
2
10
279.347215
20
61.347240
11
278.557381
21
61.358396
0
LINE
8
boundary
62
5
39
2
10
278.557381
20
61.358396
11
274.476115
21
61.534809
0
LINE
8
boundary
62
5
39
2
10
274.476115
20
61.534809
11
273.691322
21
61.624560
0
LINE
8
boundary
62
5
39
2
10
273.691322
20
61.624560
11
269.647757
21
62.205466
0
LINE
8
boundary
62
5
39
2
10
269.647757
20
62.205466
11
268.875874
21
62.372899
0
LINE
8
boundary
62
5
39
2
10
268.875874
20
62.372899
11
264.910400
21
63.352455
0
LINE
8
boundary
62
5
39
2
10
264.910400
20
63.352455
11
264.159022
21
63.595911
0
LINE
8
boundary
62
5
39
2
10
264.159022
20
63.595911
11
260.310430
21
64.964486
0
LINE
8
boundary
62
5
39
2
10
260.310430
20
64.964486
11
259.587026
21
65.281546
0
LINE
8
boundary
62
5
39
2
10
259.587026
20
65.281546
11
255.893398
21
67.025594
0
LINE
8
boundary
62
5
39
2
10
255.893398
20
67.025594
11
255.205159
21
67.413105
0
LINE
8
boundary
62
5
39
2
10
255.205159
20
67.413105
11
251.703004
21
69.515362
0
LINE
8
boundary
62
5
39
2
10
251.703004
20
69.515362
11
251.056768
21
69.969472
0
LINE
8
boundary
62
5
39
2
10
251.056768
20
69.969472
11
247.780717
21
72.409173
0
LINE
8
boundary
62
5
39
2
10
247.780717
20
72.409173
11
247.182908
21
72.925373
0
LINE
8
boundary
62
5
39
2
10
247.182908
20
72.925373
11
244.165368
21
75.678385
0
LINE
8
boundary
62
5
39
2
10
244.165368
20
75.678385
11
243.621928
21
76.251541
0
LINE
8
boundary
62
5
39
2
10
243.621928
20
76.251541
11
240.892733
21
79.290619
0
LINE
8
boundary
62
5
39
2
10
240.892733
20
79.290619
11
240.409058
21
79.915036
0
LINE
8
boundary
62
5
39
2
10
240.409058
20
79.915036
11
237.995184
21
83.210165
0
LINE
8
boundary
62
5
39
2
10
237.995184
20
83.210165
11
237.576087
21
83.879639
0
LINE
8
boundary
62
5
39
2
10
237.576087
20
83.879639
11
235.501418
21
87.398201
0
LINE
8
boundary
62
5
39
2
10
235.501418
20
87.398201
11
235.151061
21
88.106077
0
LINE
8
boundary
62
5
39
2
10
235.151061
20
88.106077
11
233.436119
21
91.813319
0
LINE
8
boundary
62
5
39
2
10
233.436119
20
91.813319
11
233.157984
21
92.552561
0
LINE
8
boundary
62
5
39
2
10
233.157984
20
92.552561
11
231.819704
21
96.411776
0
LINE
8
boundary
62
5
39
2
10
231.819704
20
96.411776
11
231.616556
21
97.175038
0
LINE
8
boundary
62
5
39
2
10
231.616556
20
97.175038
11
230.668185
21
101.148113
0
LINE
8
boundary
62
5
39
2
10
230.668185
20
101.148113
11
230.542044
21
101.927807
0
LINE
8
boundary
62
5
39
2
10
230.542044
20
101.927807
11
229.993064
21
105.975507
0
LINE
8
boundary
62
5
39
2
10
229.993064
20
105.975507
11
229.945181
21
106.763884
0
LINE
8
boundary
62
5
39
2
10
229.945181
20
106.763884
11
229.800765
21
110.845964
0
LINE
8
boundary
62
5
39
2
10
229.800765
20
110.845964
11
229.831617
21
111.635193
0
LINE
8
boundary
62
5
39
2
10
229.831617
20
111.635193
11
230.093354
21
115.711430
0
LINE
8
boundary
62
5
39
2
10
230.093354
20
115.711430
11
230.202638
21
116.493667
0
LINE
8
boundary
62
5
39
2
10
230.202638
20
116.493667
11
230.867941
21
120.523773
0
LINE
8
boundary
62
5
39
2
10
230.867941
20
120.523773
11
231.054565
21
121.291242
0
LINE
8
boundary
62
5
39
2
10
231.054565
20
121.291242
11
232.116864
21
125.235360
0
LINE
8
boundary
62
5
39
2
10
232.116864
20
125.235360
11
232.378977
21
125.980437
0
LINE
8
boundary
62
5
39
2
10
232.378977
20
125.980437
11
233.827746
21
129.799538
0
LINE
8
boundary
62
5
39
2
10
233.827746
20
129.799538
11
234.162740
21
130.514812
0
LINE
8
boundary
62
5
39
2
10
234.162740
20
130.514812
11
235.983660
21
134.171141
0
LINE
8
boundary
62
5
39
2
10
235.983660
20
134.171141
11
236.388210
21
134.849508
0
LINE
8
boundary
62
5
39
2
10
236.388210
20
134.849508
11
238.563292
21
138.306941
0
LINE
8
boundary
62
5
39
2
10
238.563292
20
138.306941
11
239.033374
21
138.941655
0
LINE
8
boundary
62
5
39
2
10
239.033374
20
138.941655
11
241.541054
21
142.165954
0
LINE
8
boundary
62
5
39
2
10
241.541054
20
142.165954
11
242.071999
21
142.750710
0
LINE
8
boundary
62
5
39
2
10
242.071999
20
142.750710
11
244.887513
21
145.710001
0
LINE
8
boundary
62
5
39
2
10
244.887513
20
145.710001
11
245.474043
21
146.238987
0
LINE
8
boundary
62
5
39
2
10
245.474043
20
146.238987
11
248.569558
21
148.904013
0
LINE
8
boundary
62
5
39
2
10
248.569558
20
148.904013
11
249.205843
21
149.371971
0
LINE
8
boundary
62
5
39
2
10
249.205843
20
149.371971
11
252.550759
21
151.716391
0
LINE
8
boundary
62
5
39
2
10
252.550759
20
151.716391
11
253.230472
21
152.118667
0
LINE
8
boundary
62
5
39
2
10
253.230472
20
152.118667
11
256.791667
21
154.119262
0
LINE
8
boundary
62
5
39
2
10
256.791667
20
154.119262
11
257.508057
21
154.451863
0
LINE
8
boundary
62
5
39
2
10
257.508057
20
154.451863
11
261.250342
21
156.088889
0
LINE
8
boundary
62
5
39
2
10
261.250342
20
156.088889
11
261.996292
21
156.348507
0
LINE
8
boundary
62
5
39
2
10
261.996292
20
156.348507
11
265.882652
21
157.605782
0
LINE
8
boundary
62
5
39
2
10
265.882652
20
157.605782
11
266.650743
21
157.789839
0
LINE
8
boundary
62
5
39
2
10
266.650743
20
157.789839
11
270.642759
21
158.654882
0
LINE
8
boundary
62
5
39
2
10
270.642759
20
158.654882
11
271.425359
21
158.761546
0
LINE
8
boundary
62
5
39
2
10
271.425359
20
158.761546
11
275.483592
21
159.225830
0
LINE
8
boundary
62
5
39
2
10
275.483592
20
159.225830
11
276.272922
21
159.254043
0
LINE
8
boundary
62
5
39
2
10
276.272922
20
159.254043
11
280.357168
21
159.312994
0
LINE
8
boundary
62
5
39
2
10
280.357168
20
159.312994
11
281.145310
21
159.262482
0
LINE
8
boundary
62
5
39
2
10
281.145310
20
159.262482
11
285.214804
21
158.915559
0
LINE
8
boundary
62
5
39
2
10
285.214804
20
158.915559
11
285.994004
21
158.786834
0
LINE
8
boundary
62
5
39
2
10
285.994004
20
158.786834
11
290.008994
21
158.037468
0
LINE
8
boundary
62
5
39
2
10
290.008994
20
158.037468
11
290.771578
21
157.831781
0
LINE
8
boundary
62
5
39
2
10
290.771578
20
157.831781
11
294.692624
21
156.687277
0
LINE
8
boundary
62
5
39
2
10
294.692624
20
156.687277
11
295.430939
21
156.406684
0
LINE
8
boundary
62
5
39
2
10
295.430939
20
156.406684
11
299.218933
21
154.878398
0
LINE
8
boundary
62
5
39
2
10
299.218933
20
154.878398
11
299.925640
21
154.525687
0
LINE
8
boundary
62
5
39
2
10
299.925640
20
154.525687
11
303.543126
21
152.628764
0
LINE
8
boundary
62
5
39
2
10
303.543126
20
152.628764
11
304.211209
21
152.207439
0
LINE
8
boundary
62
5
39
2
10
304.211209
20
152.207439
11
307.622427
21
149.960580
0
LINE
8
boundary
62
5
39
2
10
307.622427
20
149.960580
11
309.112368
21
148.777223
0
LINE
8
boundary
62
5
39
2
10
309.112368
20
148.777223
11
310.021910
21
148.048499
0
LINE
8
boundary
62
5
39
2
10
310.021910
20
148.048499
11
311.745633
21
146.649284
0
LINE
8
boundary
62
5
39
2
10
311.745633
20
146.649284
11
312.378095
21
146.347477
0
LINE
8
boundary
62
5
39
2
10
312.378095
20
146.347477
11
313.171400
21
146.323697
0
LINE
8
boundary
62
5
39
2
10
313.171400
20
146.323697
11
313.803465
21
146.518510
0
LINE
8
boundary
62
5
39
2
10
313.803465
20
146.518510
11
314.319287
21
146.929940
0
LINE
8
boundary
62
5
39
2
10
314.319287
20
146.929940
11
314.659895
21
147.427475
0
LINE
8
boundary
62
5
39
2
10
314.659895
20
147.427475
11
317.454330
21
170.884867
0
LINE
8
boundary
62
5
39
2
10
317.454330
20
170.884867
11
317.692707
21
172.978460
0
LINE
8
boundary
62
5
39
2
10
317.692707
20
172.978460
11
319.257023
21
186.644238
0
LINE
8
boundary
62
5
39
2
10
319.257023
20
186.644238
11
319.781157
21
191.223215
0
LINE
8
boundary
62
5
39
2
10
319.781157
20
191.223215
11
319.799506
21
191.923183
0
LINE
8
boundary
62
5
39
2
10
319.799506
20
191.923183
11
319.854139
21
194.009587
0
LINE
8
boundary
62
5
39
2
10
319.854139
20
194.009587
11
319.750319
21
194.701972
0
LINE
8
boundary
62
5
39
2
10
319.750319
20
194.701972
11
319.440872
21
196.765583
0
LINE
8
boundary
62
5
39
2
10
319.440872
20
196.765583
11
319.218067
21
197.429315
0
LINE
8
boundary
62
5
39
2
10
319.218067
20
197.429315
11
318.553999
21
199.407522
0
LINE
8
boundary
62
5
39
2
10
318.553999
20
199.407522
11
318.219023
21
200.022302
0
LINE
8
boundary
62
5
39
2
10
318.219023
20
200.022302
11
317.220615
21
201.854640
0
LINE
8
boundary
62
5
39
2
10
317.220615
20
201.854640
11
316.783699
21
202.401703
0
LINE
8
boundary
62
5
39
2
10
316.783699
20
202.401703
11
315.481469
21
204.032200
0
LINE
8
boundary
62
5
39
2
10
315.481469
20
204.032200
11
314.955964
21
204.494813
0
LINE
8
boundary
62
5
39
2
10
314.955964
20
204.494813
11
313.389702
21
205.873613
0
LINE
8
boundary
62
5
39
2
10
313.389702
20
205.873613
11
312.791668
21
206.237660
0
LINE
8
boundary
62
5
39
2
10
312.791668
20
206.237660
11
311.009234
21
207.322665
0
LINE
8
boundary
62
5
39
2
10
311.009234
20
207.322665
11
309.581411
21
207.934670
0
LINE
8
boundary
62
5
39
2
10
309.581411
20
207.934670
11
305.325800
21
209.758773
0
LINE
8
boundary
62
5
39
2
10
305.325800
20
209.758773
11
303.857261
21
210.265650
0
LINE
8
boundary
62
5
39
2
10
303.857261
20
210.265650
11
299.480276
21
211.776398
0
LINE
8
boundary
62
5
39
2
10
299.480276
20
211.776398
11
297.978838
21
212.175437
0
LINE
8
boundary
62
5
39
2
10
297.978838
20
212.175437
11
293.503795
21
213.364754
0
LINE
8
boundary
62
5
39
2
10
293.503795
20
213.364754
11
291.977370
21
213.653838
0
LINE
8
boundary
62
5
39
2
10
291.977370
20
213.653838
11
287.427853
21
214.515451
0
LINE
8
boundary
62
5
39
2
10
287.427853
20
214.515451
11
285.884579
21
214.693050
0
LINE
8
boundary
62
5
39
2
10
285.884579
20
214.693050
11
281.284838
21
215.222387
0
LINE
8
boundary
62
5
39
2
10
281.284838
20
215.222387
11
279.732739
21
215.287604
0
LINE
8
boundary
62
5
39
2
10
279.732739
20
215.287604
11
275.106700
21
215.481965
0
LINE
8
boundary
62
5
39
2
10
275.106700
20
215.481965
11
273.553875
21
215.434439
0
LINE
8
boundary
62
5
39
2
10
273.553875
20
215.434439
11
268.925677
21
215.292789
0
LINE
8
boundary
62
5
39
2
10
268.925677
20
215.292789
11
267.380381
21
215.132753
0
LINE
8
boundary
62
5
39
2
10
267.380381
20
215.132753
11
262.774617
21
214.655748
0
LINE
8
boundary
62
5
39
2
10
262.774617
20
214.655748
11
261.244999
21
214.384050
0
LINE
8
boundary
62
5
39
2
10
261.244999
20
214.384050
11
256.685973
21
213.574273
0
LINE
8
boundary
62
5
39
2
10
256.685973
20
213.574273
11
255.180091
21
213.192359
0
LINE
8
boundary
62
5
39
2
10
255.180091
20
213.192359
11
250.691804
21
212.054044
0
LINE
8
boundary
62
5
39
2
10
250.691804
20
212.054044
11
249.217592
21
211.563913
0
LINE
8
boundary
62
5
39
2
10
249.217592
20
211.563913
11
244.823694
21
210.103078
0
LINE
8
boundary
62
5
39
2
10
244.823694
20
210.103078
11
243.388909
21
209.507316
0
LINE
8
boundary
62
5
39
2
10
243.388909
20
209.507316
11
239.112535
21
207.731630
0
LINE
8
boundary
62
5
39
2
10
239.112535
20
207.731630
11
237.724739
21
207.033369
0
LINE
8
boundary
62
5
39
2
10
237.724739
20
207.033369
11
233.588403
21
204.952196
0
LINE
8
boundary
62
5
39
2
10
233.588403
20
204.952196
11
232.254910
21
204.155126
0
LINE
8
boundary
62
5
39
2
10
232.254910
20
204.155126
11
228.280426
21
201.779454
0
LINE
8
boundary
62
5
39
2
10
228.280426
20
201.779454
11
227.008250
21
200.887755
0
LINE
8
boundary
62
5
39
2
10
227.008250
20
200.887755
11
223.216544
21
198.230046
0
LINE
8
boundary
62
5
39
2
10
223.216544
20
198.230046
11
222.012399
21
197.248432
0
LINE
8
boundary
62
5
39
2
10
222.012399
20
197.248432
11
218.423438
21
194.322706
0
LINE
8
boundary
62
5
39
2
10
218.423438
20
194.322706
11
217.293649
21
193.256329
0
LINE
8
boundary
62
5
39
2
10
217.293649
20
193.256329
11
213.926304
21
190.077995
0
LINE
8
boundary
62
5
39
2
10
213.926304
20
190.077995
11
212.732284
21
188.785561
0
LINE
8
boundary
62
5
39
2
10
212.732284
20
188.785561
11
209.173519
21
184.933470
0
LINE
8
boundary
62
5
39
2
10
209.173519
20
184.933470
11
208.064951
21
183.567034
0
LINE
8
boundary
62
5
39
2
10
208.064951
20
183.567034
11
204.760874
21
179.494344
0
LINE
8
boundary
62
5
39
2
10
204.760874
20
179.494344
11
203.742346
21
178.059534
0
LINE
8
boundary
62
5
39
2
10
203.742346
20
178.059534
11
200.706631
21
173.783083
0
LINE
8
boundary
62
5
39
2
10
200.706631
20
173.783083
11
199.782337
21
172.285827
0
LINE
8
boundary
62
5
39
2
10
199.782337
20
172.285827
11
197.027456
21
167.823260
0
LINE
8
boundary
62
5
39
2
10
197.027456
20
167.823260
11
196.201214
21
166.269752
0
LINE
8
boundary
62
5
39
2
10
196.201214
20
166.269752
11
193.738614
21
161.639496
0
LINE
8
boundary
62
5
39
2
10
193.738614
20
161.639496
11
193.013833
21
160.036133
0
LINE
8
boundary
62
5
39
2
10
193.013833
20
160.036133
11
190.853624
21
155.257312
0
LINE
8
boundary
62
5
39
2
10
190.853624
20
155.257312
11
190.233298
21
153.610719
0
LINE
8
boundary
62
5
39
2
10
190.233298
20
153.610719
11
188.384416
21
148.703042
0
LINE
8
boundary
62
5
39
2
10
188.384416
20
148.703042
11
187.871104
21
147.020007
0
LINE
8
boundary
62
5
39
2
10
187.871104
20
147.020007
11
186.341180
21
142.003710
0
LINE
8
boundary
62
5
39
2
10
186.341180
20
142.003710
11
185.937012
21
140.291201
0
LINE
8
boundary
62
5
39
2
10
185.937012
20
140.291201
11
184.732389
21
135.187044
0
LINE
8
boundary
62
5
39
2
10
184.732389
20
135.187044
11
184.439001
21
133.452090
0
LINE
8
boundary
62
5
39
2
10
184.439001
20
133.452090
11
183.564587
21
128.281135
0
LINE
8
boundary
62
5
39
2
10
183.564587
20
128.281135
11
183.383239
21
126.530946
0
LINE
8
boundary
62
5
39
2
10
183.383239
20
126.530946
11
182.842725
21
121.314483
0
LINE
8
boundary
62
5
39
2
10
182.842725
20
121.314483
11
182.624479
21
119.568489
0
LINE
8
boundary
62
5
39
2
10
182.624479
20
119.568489
11
181.973992
21
114.364606
0
LINE
8
boundary
62
5
39
2
10
181.973992
20
114.364606
11
181.868307
21
112.608202
0
LINE
8
boundary
62
5
39
2
10
181.868307
20
112.608202
11
181.553327
21
107.373292
0
LINE
8
boundary
62
5
39
2
10
181.553327
20
107.373292
11
181.560649
21
105.613726
0
LINE
8
boundary
62
5
39
2
10
181.560649
20
105.613726
11
181.582479
21
100.369395
0
LINE
8
boundary
62
5
39
2
10
181.582479
20
100.369395
11
181.702774
21
98.613931
0
LINE
8
boundary
62
5
39
2
10
181.702774
20
98.613931
11
182.061308
21
93.381821
0
LINE
8
boundary
62
5
39
2
10
182.061308
20
93.381821
11
182.294080
21
91.637704
0
LINE
8
boundary
62
5
39
2
10
182.294080
20
91.637704
11
182.987856
21
86.439417
0
LINE
8
boundary
62
5
39
2
10
182.987856
20
86.439417
11
183.332144
21
84.713848
0
LINE
8
boundary
62
5
39
2
10
183.332144
20
84.713848
11
184.358293
21
79.570833
0
LINE
8
boundary
62
5
39
2
10
184.358293
20
79.570833
11
184.812681
21
77.870933
0
LINE
8
boundary
62
5
39
2
10
184.812681
20
77.870933
11
186.166963
21
72.804432
0
LINE
8
boundary
62
5
39
2
10
186.166963
20
72.804432
11
186.729563
21
71.137219
0
LINE
8
boundary
62
5
39
2
10
186.729563
20
71.137219
11
188.406379
21
66.168139
0
LINE
8
boundary
62
5
39
2
10
188.406379
20
66.168139
11
189.074880
21
64.540492
0
LINE
8
boundary
62
5
39
2
10
189.074880
20
64.540492
11
191.067332
21
59.689342
0
LINE
8
boundary
62
5
39
2
10
191.067332
20
59.689342
11
191.838966
21
58.107983
0
LINE
8
boundary
62
5
39
2
10
191.838966
20
58.107983
11
194.138794
21
53.394799
0
LINE
8
boundary
62
5
39
2
10
194.138794
20
53.394799
11
195.010382
21
51.866263
0
LINE
8
boundary
62
5
39
2
10
195.010382
20
51.866263
11
197.608128
21
47.310503
0
LINE
8
boundary
62
5
39
2
10
197.608128
20
47.310503
11
198.468141
21
46.016690
0
LINE
8
boundary
62
5
39
2
10
198.468141
20
46.016690
11
201.031400
21
42.160518
0
LINE
8
boundary
62
5
39
2
10
201.031400
20
42.160518
11
201.982991
21
40.932490
0
LINE
8
boundary
62
5
39
2
10
201.982991
20
40.932490
11
204.819185
21
37.272392
0
LINE
8
boundary
62
5
39
2
10
204.819185
20
37.272392
11
205.857332
21
36.116618
0
LINE
8
boundary
62
5
39
2
10
205.857332
20
36.116618
11
208.951513
21
32.671867
0
LINE
8
boundary
62
5
39
2
10
208.951513
20
32.671867
11
210.070761
21
31.594432
0
LINE
8
boundary
62
5
39
2
10
210.070761
20
31.594432
11
213.406652
21
28.383169
0
LINE
8
boundary
62
5
39
2
10
213.406652
20
28.383169
11
214.601100
21
27.389749
0
LINE
8
boundary
62
5
39
2
10
214.601100
20
27.389749
11
218.161110
21
24.428891
0
LINE
8
boundary
62
5
39
2
10
218.161110
20
24.428891
11
219.424453
21
23.524721
0
LINE
8
boundary
62
5
39
2
10
219.424453
20
23.524721
11
223.189824
21
20.829873
0
LINE
8
boundary
62
5
39
2
10
223.189824
20
20.829873
11
224.515426
21
20.019713
0
LINE
8
boundary
62
5
39
2
10
224.515426
20
20.019713
11
228.466347
21
17.605058
0
LINE
8
boundary
62
5
39
2
10
228.466347
20
17.605058
11
229.847218
21
16.893178
0
LINE
8
boundary
62
5
39
2
10
229.847218
20
16.893178
11
233.962868
21
14.771442
0
LINE
8
boundary
62
5
39
2
10
233.962868
20
14.771442
11
235.391737
21
14.161588
0
LINE
8
boundary
62
5
39
2
10
235.391737
20
14.161588
11
239.650439
21
12.343941
0
LINE
8
boundary
62
5
39
2
10
239.650439
20
12.343941
11
241.119769
21
11.839329
0
LINE
8
boundary
62
5
39
2
10
241.119769
20
11.839329
11
245.499075
21
10.335356
0
LINE
8
boundary
62
5
39
2
10
245.499075
20
10.335356
11
247.001140
21
9.938645
0
LINE
8
boundary
62
5
39
2
10
247.001140
20
9.938645
11
251.477998
21
8.756259
0
LINE
8
boundary
62
5
39
2
10
251.477998
20
8.756259
11
253.004970
21
8.469520
0
LINE
8
boundary
62
5
39
2
10
253.004970
20
8.469520
11
257.556069
21
7.614910
0
LINE
8
boundary
62
5
39
2
10
257.556069
20
7.614910
11
259.099820
21
7.439681
0
LINE
8
boundary
62
5
39
2
10
259.099820
20
7.439681
11
263.700921
21
6.917418
0
LINE
8
boundary
62
5
39
2
10
263.700921
20
6.917418
11
265.253217
21
6.854630
0
LINE
8
boundary
62
5
39
2
10
265.253217
20
6.854630
11
269.879794
21
6.667500
0
LINE
8
boundary
62
5
39
2
10
269.879794
20
6.667500
11
271.432561
21
6.717463
0
LINE
8
boundary
62
5
39
2
10
271.432561
20
6.717463
11
276.060538
21
6.866375
0
LINE
8
boundary
62
5
39
2
10
276.060538
20
6.866375
11
277.605592
21
7.028825
0
LINE
8
boundary
62
5
39
2
10
277.605592
20
7.028825
11
282.210581
21
7.513008
0
LINE
8
boundary
62
5
39
2
10
282.210581
20
7.513008
11
283.739775
21
7.787095
0
LINE
8
boundary
62
5
39
2
10
283.739775
20
7.787095
11
288.297500
21
8.604013
0
LINE
8
boundary
62
5
39
2
10
288.297500
20
8.604013
11
288.962358
21
8.823786
0
LINE
8
boundary
62
5
39
2
10
288.962358
20
8.823786
11
290.943943
21
9.478847
0
LINE
8
boundary
62
5
39
2
10
290.943943
20
9.478847
11
291.560249
21
9.811002
0
LINE
8
boundary
62
5
39
2
10
291.560249
20
9.811002
11
293.397164
21
10.801008
0
LINE
8
boundary
62
5
39
2
10
293.397164
20
10.801008
11
293.946219
21
11.235412
0
LINE
8
boundary
62
5
39
2
10
293.946219
20
11.235412
11
295.582666
21
12.530168
0
LINE
8
boundary
62
5
39
2
10
295.582666
20
12.530168
11
296.047676
21
13.053533
0
LINE
8
boundary
62
5
39
2
10
296.047676
20
13.053533
11
297.433670
21
14.613487
0
LINE
8
boundary
62
5
39
2
10
297.433670
20
14.613487
11
297.800435
21
15.209827
0
LINE
8
boundary
62
5
39
2
10
297.800435
20
15.209827
11
298.893613
21
16.987308
0
LINE
8
boundary
62
5
39
2
10
298.893613
20
16.987308
11
299.150926
21
17.638399
0
LINE
8
boundary
62
5
39
2
10
299.150926
20
17.638399
11
299.917876
21
19.579090
0
LINE
8
boundary
62
5
39
2
10
299.917876
20
19.579090
11
300.057896
21
20.265064
0
LINE
8
boundary
62
5
39
2
10
300.057896
20
20.265064
11
300.475216
21
22.309681
0
LINE
8
boundary
62
5
39
2
10
300.475216
20
22.309681
11
302.031603
21
35.946807
0
LINE
8
boundary
62
5
39
2
10
302.031603
20
35.946807
11
302.555633
21
40.538688
0
LINE
8
boundary
62
5
39
2
10
302.555633
20
40.538688
11
302.795428
21
42.632025
0
LINE
8
boundary
62
5
39
2
10
302.795428
20
42.632025
11
305.406949
21
65.718335
0
LINE
8
boundary
62
5
39
2
10
305.406949
20
65.718335
11
305.283008
21
66.413641
0
LINE
8
boundary
62
5
39
2
10
305.283008
20
66.413641
11
304.845265
21
67.066781
0
LINE
8
boundary
62
5
39
2
10
304.845265
20
67.066781
11
304.321301
21
67.467762
0
LINE
8
boundary
62
5
39
2
10
304.321301
20
67.467762
11
303.567249
21
67.662612
0
LINE
8
boundary
62
5
39
2
10
303.567249
20
67.662612
11
302.917146
21
67.616696
0
LINE
8
boundary
62
5
39
2
10
302.917146
20
67.616696
11
300.705593
21
66.556797
0
LINE
8
boundary
62
5
39
2
10
300.705593
20
66.556797
11
300.048887
21
66.241428
0
LINE
8
annotation
62
1
39
211
10
312.017483
20
176.157975
11
311.167168
21
176.551166
0
LINE
8
annotation
62
1
39
211
10
311.167168
20
176.551166
11
307.159965
21
178.403819
0
LINE
8
annotation
62
1
39
211
10
307.159965
20
178.403819
11
305.762839
21
178.921290
0
LINE
8
annotation
62
1
39
211
10
305.762839
20
178.921290
11
301.595644
21
180.463992
0
LINE
8
annotation
62
1
39
211
10
301.595644
20
180.463992
11
301.585348
21
180.471476
0
LINE
8
annotation
62
1
39
211
10
301.585348
20
180.471476
11
301.555947
21
180.494722
0
LINE
8
annotation
62
1
39
211
10
301.555947
20
180.494722
11
300.134215
21
180.890162
0
LINE
8
annotation
62
1
39
211
10
300.134215
20
180.890162
11
295.880755
21
182.070945
0
LINE
8
annotation
62
1
39
211
10
295.880755
20
182.070945
11
294.417490
21
182.358067
0
LINE
8
annotation
62
1
39
211
10
294.417490
20
182.358067
11
290.056916
21
183.212933
0
LINE
8
annotation
62
1
39
211
10
290.056916
20
183.212933
11
288.575070
21
183.381040
0
LINE
8
annotation
62
1
39
211
10
288.575070
20
183.381040
11
284.159504
21
183.882323
0
LINE
8
annotation
62
1
39
211
10
284.159504
20
183.882323
11
282.669287
21
183.930856
0
LINE
8
annotation
62
1
39
211
10
282.669287
20
183.930856
11
278.227383
21
184.075749
0
LINE
8
annotation
62
1
39
211
10
278.227383
20
184.075749
11
276.737977
21
184.004223
0
LINE
8
annotation
62
1
39
211
10
276.737977
20
184.004223
11
272.299020
21
183.791137
0
LINE
8
annotation
62
1
39
211
10
272.299020
20
183.791137
11
270.820341
21
183.599998
0
LINE
8
annotation
62
1
39
211
10
270.820341
20
183.599998
11
266.412953
21
183.030825
0
LINE
8
annotation
62
1
39
211
10
266.412953
20
183.030825
11
264.954178
21
182.721454
0
LINE
8
annotation
62
1
39
211
10
264.954178
20
182.721454
11
260.607046
21
181.799395
0
LINE
8
annotation
62
1
39
211
10
260.607046
20
181.799395
11
259.177895
21
181.373912
0
LINE
8
annotation
62
1
39
211
10
259.177895
20
181.373912
11
254.918751
21
180.105234
0
LINE
8
annotation
62
1
39
211
10
254.918751
20
180.105234
11
250.775885
21
178.498466
0
LINE
8
annotation
62
1
39
211
10
250.775885
20
178.498466
11
249.385567
21
177.959103
0
LINE
8
annotation
62
1
39
211
10
249.385567
20
177.959103
11
245.384913
21
176.023966
0
LINE
8
annotation
62
1
39
211
10
245.384913
20
176.023966
11
244.042374
21
175.374667
0
LINE
8
annotation
62
1
39
211
10
244.042374
20
175.374667
11
242.756759
21
174.619622
0
LINE
8
annotation
62
1
39
211
10
242.756759
20
174.619622
11
238.924506
21
172.369000
0
LINE
8
annotation
62
1
39
211
10
238.924506
20
172.369000
11
237.703854
21
171.512893
0
LINE
8
annotation
62
1
39
211
10
237.703854
20
171.512893
11
234.065119
21
168.961486
0
LINE
8
annotation
62
1
39
211
10
234.065119
20
168.961486
11
232.916963
21
168.010239
0
LINE
8
annotation
62
1
39
211
10
232.916963
20
168.010239
11
229.495490
21
165.174265
0
LINE
8
annotation
62
1
39
211
10
229.495490
20
165.174265
11
228.427649
21
164.133713
0
LINE
8
annotation
62
1
39
211
10
228.427649
20
164.133713
11
225.245243
21
161.031909
0
LINE
8
annotation
62
1
39
211
10
225.245243
20
161.031909
11
222.322743
21
157.684332
0
LINE
8
annotation
62
1
39
211
10
222.322743
20
157.684332
11
221.342049
21
156.561264
0
LINE
8
annotation
62
1
39
211
10
221.342049
20
156.561264
11
218.699294
21
152.991036
0
LINE
8
annotation
62
1
39
211
10
218.699294
20
152.991036
11
217.812206
21
151.792551
0
LINE
8
annotation
62
1
39
211
10
217.812206
20
151.792551
11
217.783265
21
151.764852
0
LINE
8
annotation
62
1
39
211
10
217.783265
20
151.764852
11
216.999363
21
150.505236
0
LINE
8
annotation
62
1
39
211
10
216.999363
20
150.505236
11
214.674721
21
146.751670
0
LINE
8
annotation
62
1
39
211
10
214.674721
20
146.751670
11
213.991166
21
145.426499
0
LINE
8
annotation
62
1
39
211
10
213.991166
20
145.426499
11
211.954039
21
141.476725
0
LINE
8
annotation
62
1
39
211
10
211.954039
20
141.476725
11
211.379310
21
140.100829
0
LINE
8
annotation
62
1
39
211
10
211.379310
20
140.100829
11
209.745234
21
136.189508
0
LINE
8
annotation
62
1
39
211
10
205.120786
20
109.813679
11
205.141192
21
106.866248
0
LINE
8
annotation
62
1
39
211
10
205.141192
20
106.866248
11
205.271297
21
105.380801
0
LINE
8
annotation
62
1
39
211
10
205.271297
20
105.380801
11
205.659079
21
100.953782
0
LINE
8
annotation
62
1
39
211
10
205.659079
20
100.953782
11
205.908338
21
99.483377
0
LINE
8
annotation
62
1
39
211
10
205.908338
20
99.483377
11
206.650997
21
95.101917
0
LINE
8
annotation
62
1
39
211
10
206.650997
20
95.101917
11
207.017713
21
93.656527
0
LINE
8
annotation
62
1
39
211
10
207.017713
20
93.656527
11
208.110381
21
89.349033
0
LINE
8
annotation
62
1
39
211
10
208.110381
20
89.349033
11
208.592014
21
87.937821
0
LINE
8
annotation
62
1
39
211
10
208.592014
20
87.937821
11
210.027472
21
83.732234
0
LINE
8
annotation
62
1
39
211
10
210.027472
20
83.732234
11
210.620995
21
82.364060
0
LINE
8
annotation
62
1
39
211
10
210.620995
20
82.364060
11
212.390164
21
78.287568
0
LINE
8
annotation
62
1
39
211
10
212.390164
20
78.287568
11
213.092138
21
76.971753
0
LINE
8
annotation
62
1
39
211
10
213.092138
20
76.971753
11
215.183397
21
73.050783
0
LINE
8
annotation
62
1
39
211
10
215.183397
20
73.050783
11
215.988631
21
71.795451
0
LINE
8
annotation
62
1
39
211
10
215.988631
20
71.795451
11
218.388426
21
68.055253
0
LINE
8
annotation
62
1
39
211
10
218.388426
20
68.055253
11
219.292219
21
66.869009
0
LINE
8
annotation
62
1
39
211
10
219.292219
20
66.869009
11
221.984864
21
63.334093
0
LINE
8
annotation
62
1
39
211
10
221.984864
20
63.334093
11
222.981073
21
62.224216
0
LINE
8
annotation
62
1
39
211
10
222.981073
20
62.224216
11
225.949450
21
58.917326
0
LINE
8
annotation
62
1
39
211
10
225.949450
20
58.917326
11
227.031768
21
57.891317
0
LINE
8
annotation
62
1
39
211
10
227.031768
20
57.891317
11
230.256600
21
54.833484
0
LINE
8
annotation
62
1
39
211
10
230.256600
20
54.833484
11
231.417601
21
53.897875
0
LINE
8
annotation
62
1
39
211
10
231.417601
20
53.897875
11
234.878011
21
51.109776
0
LINE
8
annotation
62
1
39
211
10
234.878011
20
51.109776
11
236.110586
21
50.270477
0
LINE
8
annotation
62
1
39
211
10
236.110586
20
50.270477
11
239.784063
21
47.769406
0
LINE
8
annotation
62
1
39
211
10
239.784063
20
47.769406
11
241.080505
21
47.031863
0
LINE
8
annotation
62
1
39
211
10
241.080505
20
47.031863
11
244.942638
21
44.834539
0
LINE
8
annotation
62
1
39
211
10
244.942638
20
44.834539
11
246.294012
21
44.203930
0
LINE
8
annotation
62
1
39
211
10
246.294012
20
44.203930
11
250.320804
21
42.324241
0
LINE
8
annotation
62
1
39
211
10
250.320804
20
42.324241
11
251.718372
21
41.804251
0
LINE
8
annotation
62
1
39
211
10
251.718372
20
41.804251
11
255.883102
21
40.254389
0
LINE
8
annotation
62
1
39
211
10
255.883102
20
40.254389
11
260.155649
21
39.046078
0
LINE
8
annotation
62
1
39
211
10
260.155649
20
39.046078
11
261.590399
21
38.640124
0
LINE
8
annotation
62
1
39
211
10
261.590399
20
38.640124
11
261.625834
21
38.623367
0
LINE
8
annotation
62
1
39
211
10
261.625834
20
38.623367
11
263.077038
21
38.336365
0
LINE
8
annotation
62
1
39
211
10
263.077038
20
38.336365
11
267.416742
21
37.487813
0
LINE
8
annotation
62
1
39
211
10
267.416742
20
37.487813
11
268.898448
21
37.317060
0
LINE
8
annotation
62
1
39
211
10
268.898448
20
37.317060
11
273.313012
21
36.808511
0
LINE
8
annotation
62
1
39
211
10
273.313012
20
36.808511
11
274.803535
21
36.757789
0
LINE
8
annotation
62
1
39
211
10
274.803535
20
36.757789
11
279.245139
21
36.605730
0
LINE
8
annotation
62
1
39
211
10
279.245139
20
36.605730
11
280.734693
21
36.674857
0
LINE
8
annotation
62
1
39
211
10
280.734693
20
36.674857
11
285.173874
21
36.881038
0
LINE
8
annotation
62
1
39
211
10
285.173874
20
36.881038
11
286.653073
21
37.069728
0
LINE
8
annotation
62
1
39
211
10
286.653073
20
37.069728
11
291.061185
21
37.632029
0
LINE
8
annotation
62
1
39
211
10
291.061185
20
37.632029
11
295.409985
21
38.547123
0
LINE
8
annotation
62
1
39
211
10
295.409985
20
38.547123
11
296.311035
21
38.736625
0
LINE
8
annotation
62
1
39
211
10
266.819746
20
190.875939
11
266.819746
21
190.875939
0
LINE
8
annotation
62
1
39
211
10
266.819746
20
190.875939
11
265.384955
21
190.337980
0
LINE
8
annotation
62
1
39
211
10
265.384955
20
190.337980
11
264.068347
21
189.613143
0
LINE
8
annotation
62
1
39
211
10
264.068347
20
189.613143
11
262.883436
21
188.719589
0
LINE
8
annotation
62
1
39
211
10
262.883436
20
188.719589
11
261.843739
21
187.675479
0
LINE
8
annotation
62
1
39
211
10
261.843739
20
187.675479
11
260.962769
21
186.498974
0
LINE
8
annotation
62
1
39
211
10
260.962769
20
186.498974
11
260.254044
21
185.208232
0
LINE
8
annotation
62
1
39
211
10
260.254044
20
185.208232
11
259.731078
21
183.821416
0
LINE
8
annotation
62
1
39
211
10
259.731078
20
183.821416
11
259.407387
21
182.356684
0
LINE
8
annotation
62
1
39
211
10
259.407387
20
182.356684
11
259.296487
21
180.832198
0
LINE
8
annotation
62
1
39
211
10
259.296487
20
180.832198
11
259.296487
21
173.335813
0
LINE
8
annotation
62
1
39
211
10
259.296487
20
173.335813
11
259.296487
21
173.335813
0
LINE
8
annotation
62
1
39
211
10
259.296487
20
173.335813
11
259.377349
21
172.434840
0
LINE
8
annotation
62
1
39
211
10
259.377349
20
172.434840
11
259.610421
21
171.586719
0
LINE
8
annotation
62
1
39
211
10
259.610421
20
171.586719
11
259.981429
21
170.805639
0
LINE
8
annotation
62
1
39
211
10
259.981429
20
170.805639
11
260.476103
21
170.105792
0
LINE
8
annotation
62
1
39
211
10
260.476103
20
170.105792
11
261.080169
21
169.501369
0
LINE
8
annotation
62
1
39
211
10
261.080169
20
169.501369
11
261.779357
21
169.006559
0
LINE
8
annotation
62
1
39
211
10
261.779357
20
169.006559
11
262.559392
21
168.635555
0
LINE
8
annotation
62
1
39
211
10
262.559392
20
168.635555
11
263.406004
21
168.402545
0
LINE
8
annotation
62
1
39
211
10
263.406004
20
168.402545
11
264.304921
21
168.321722
0
LINE
8
annotation
62
1
39
211
10
264.304921
20
168.321722
11
264.304921
21
168.321722
0
LINE
8
annotation
62
1
39
211
10
264.304921
20
168.321722
11
265.205699
21
168.402545
0
LINE
8
annotation
62
1
39
211
10
265.205699
20
168.402545
11
266.053301
21
168.635555
0
LINE
8
annotation
62
1
39
211
10
266.053301
20
168.635555
11
266.833628
21
169.006559
0
LINE
8
annotation
62
1
39
211
10
266.833628
20
169.006559
11
267.532582
21
169.501369
0
LINE
8
annotation
62
1
39
211
10
267.532582
20
169.501369
11
268.136067
21
170.105792
0
LINE
8
annotation
62
1
39
211
10
268.136067
20
170.105792
11
268.629984
21
170.805639
0
LINE
8
annotation
62
1
39
211
10
268.629984
20
170.805639
11
269.000236
21
171.586719
0
LINE
8
annotation
62
1
39
211
10
269.000236
20
171.586719
11
269.232725
21
172.434840
0
LINE
8
annotation
62
1
39
211
10
269.232725
20
172.434840
11
269.313354
21
173.335813
0
LINE
8
annotation
62
1
39
211
10
269.313354
20
173.335813
11
269.313354
21
175.830836
0
LINE
8
annotation
62
1
39
211
10
269.313354
20
175.830836
11
269.313354
21
175.830836
0
LINE
8
annotation
62
1
39
211
10
269.313354
20
175.830836
11
269.232725
21
176.731373
0
LINE
8
annotation
62
1
39
211
10
269.232725
20
176.731373
11
269.000236
21
177.578324
0
LINE
8
annotation
62
1
39
211
10
269.000236
20
177.578324
11
268.629984
21
178.357710
0
LINE
8
annotation
62
1
39
211
10
268.629984
20
178.357710
11
268.136067
21
179.055549
0
LINE
8
annotation
62
1
39
211
10
268.136067
20
179.055549
11
267.532582
21
179.657859
0
LINE
8
annotation
62
1
39
211
10
267.532582
20
179.657859
11
266.833628
21
180.150661
0
LINE
8
annotation
62
1
39
211
10
266.833628
20
180.150661
11
266.053301
21
180.519972
0
LINE
8
annotation
62
1
39
211
10
266.053301
20
180.519972
11
265.205699
21
180.751811
0
LINE
8
annotation
62
1
39
211
10
265.205699
20
180.751811
11
264.304921
21
180.832198
0
LINE
8
annotation
62
1
39
211
10
264.304921
20
180.832198
11
259.296487
21
180.832198
0
LINE
8
annotation
62
1
39
211
10
258.669195
20
165.502445
11
269.946304
21
165.502445
0
LINE
8
annotation
62
1
39
211
10
277.771186
20
168.321722
11
282.779620
21
168.321722
0
LINE
8
annotation
62
1
39
211
10
282.779620
20
168.321722
11
282.779620
21
168.321722
0
LINE
8
annotation
62
1
39
211
10
282.779620
20
168.321722
11
283.678536
21
168.402545
0
LINE
8
annotation
62
1
39
211
10
283.678536
20
168.402545
11
284.525148
21
168.635555
0
LINE
8
annotation
62
1
39
211
10
284.525148
20
168.635555
11
285.305184
21
169.006559
0
LINE
8
annotation
62
1
39
211
10
285.305184
20
169.006559
11
286.004371
21
169.501369
0
LINE
8
annotation
62
1
39
211
10
286.004371
20
169.501369
11
286.608437
21
170.105792
0
LINE
8
annotation
62
1
39
211
10
286.608437
20
170.105792
11
287.103111
21
170.805639
0
LINE
8
annotation
62
1
39
211
10
287.103111
20
170.805639
11
287.474120
21
171.586719
0
LINE
8
annotation
62
1
39
211
10
287.474120
20
171.586719
11
287.707191
21
172.434840
0
LINE
8
annotation
62
1
39
211
10
287.707191
20
172.434840
11
287.788053
21
173.335813
0
LINE
8
annotation
62
1
39
211
10
287.788053
20
173.335813
11
287.788053
21
175.830836
0
LINE
8
annotation
62
1
39
211
10
287.788053
20
175.830836
11
287.788053
21
175.830836
0
LINE
8
annotation
62
1
39
211
10
287.788053
20
175.830836
11
287.707238
21
176.731373
0
LINE
8
annotation
62
1
39
211
10
287.707238
20
176.731373
11
287.474283
21
177.578324
0
LINE
8
annotation
62
1
39
211
10
287.474283
20
177.578324
11
287.103425
21
178.357710
0
LINE
8
annotation
62
1
39
211
10
287.103425
20
178.357710
11
286.608903
21
179.055549
0
LINE
8
annotation
62
1
39
211
10
286.608903
20
179.055549
11
286.004953
21
179.657859
0
LINE
8
annotation
62
1
39
211
10
286.004953
20
179.657859
11
285.305812
21
180.150661
0
LINE
8
annotation
62
1
39
211
10
285.305812
20
180.150661
11
284.525718
21
180.519972
0
LINE
8
annotation
62
1
39
211
10
284.525718
20
180.519972
11
283.678908
21
180.751811
0
LINE
8
annotation
62
1
39
211
10
283.678908
20
180.751811
11
282.779620
21
180.832198
0
LINE
8
annotation
62
1
39
211
10
282.779620
20
180.832198
11
277.771186
21
180.832198
0
LINE
8
annotation
62
1
39
211
10
277.771186
20
180.832198
11
277.771186
21
190.875939
0
LINE
8
annotation
62
1
39
211
10
277.771186
20
190.875939
11
287.788053
21
190.875939
0
LINE
8
boundary
62
5
39
2
10
434.872977
20
10.801008
11
435.420834
21
11.234465
0
LINE
8
boundary
62
5
39
2
10
435.420834
20
11.234465
11
437.058480
21
12.530168
0
LINE
8
boundary
62
5
39
2
10
437.058480
20
12.530168
11
437.522482
21
13.052401
0
LINE
8
boundary
62
5
39
2
10
437.522482
20
13.052401
11
438.909483
21
14.613487
0
LINE
8
boundary
62
5
39
2
10
438.909483
20
14.613487
11
439.275451
21
15.208532
0
LINE
8
boundary
62
5
39
2
10
439.275451
20
15.208532
11
440.369426
21
16.987308
0
LINE
8
boundary
62
5
39
2
10
440.369426
20
16.987308
11
440.626183
21
17.636992
0
LINE
8
boundary
62
5
39
2
10
440.626183
20
17.636992
11
441.393689
21
19.579091
0
LINE
8
boundary
62
5
39
2
10
441.393689
20
19.579091
11
441.533404
21
20.263569
0
LINE
8
boundary
62
5
39
2
10
441.533404
20
20.263569
11
441.951029
21
22.309682
0
LINE
8
boundary
62
5
39
2
10
441.951029
20
22.309682
11
443.508553
21
35.956777
0
LINE
8
boundary
62
5
39
2
10
443.508553
20
35.956777
11
444.031457
21
40.538691
0
LINE
8
boundary
62
5
39
2
10
444.031457
20
40.538691
11
445.101188
21
49.880998
0
LINE
8
boundary
62
5
39
2
10
445.101188
20
49.880998
11
445.694844
21
55.064089
0
LINE
8
boundary
62
5
39
2
10
445.694844
20
55.064089
11
446.883743
21
65.574362
0
LINE
8
boundary
62
5
39
2
10
446.883743
20
65.574362
11
446.757865
21
66.413883
0
LINE
8
boundary
62
5
39
2
10
446.757865
20
66.413883
11
446.284547
21
67.106446
0
LINE
8
boundary
62
5
39
2
10
446.284547
20
67.106446
11
445.797198
21
67.467808
0
LINE
8
boundary
62
5
39
2
10
445.797198
20
67.467808
11
445.222622
21
67.642877
0
LINE
8
boundary
62
5
39
2
10
445.222622
20
67.642877
11
444.510906
21
67.631180
0
LINE
8
boundary
62
5
39
2
10
444.510906
20
67.631180
11
443.302251
21
67.151997
0
LINE
8
boundary
62
5
39
2
10
443.302251
20
67.151997
11
440.039544
21
65.547316
0
LINE
8
boundary
62
5
39
2
10
440.039544
20
65.547316
11
436.377733
21
64.064281
0
LINE
8
boundary
62
5
39
2
10
436.377733
20
64.064281
11
435.481376
21
63.801593
0
LINE
8
boundary
62
5
39
2
10
435.481376
20
63.801593
11
431.690104
21
62.690543
0
LINE
8
boundary
62
5
39
2
10
431.690104
20
62.690543
11
427.807053
21
61.962501
0
LINE
8
boundary
62
5
39
2
10
427.807053
20
61.962501
11
426.888999
21
61.790366
0
LINE
8
boundary
62
5
39
2
10
426.888999
20
61.790366
11
425.958366
21
61.710497
0
LINE
8
boundary
62
5
39
2
10
425.958366
20
61.710497
11
422.021934
21
61.372555
0
LINE
8
boundary
62
5
39
2
10
422.021934
20
61.372555
11
418.071291
21
61.428422
0
LINE
8
boundary
62
5
39
2
10
418.071291
20
61.428422
11
417.137237
21
61.441616
0
LINE
8
boundary
62
5
39
2
10
417.137237
20
61.441616
11
413.211635
21
61.890624
0
LINE
8
boundary
62
5
39
2
10
413.211635
20
61.890624
11
412.283542
21
61.996763
0
LINE
8
boundary
62
5
39
2
10
412.283542
20
61.996763
11
411.370718
21
62.194767
0
LINE
8
boundary
62
5
39
2
10
411.370718
20
62.194767
11
407.509785
21
63.032234
0
LINE
8
boundary
62
5
39
2
10
407.509785
20
63.032234
11
406.621210
21
63.320143
0
LINE
8
boundary
62
5
39
2
10
406.621210
20
63.320143
11
402.862853
21
64.537873
0
LINE
8
boundary
62
5
39
2
10
402.862853
20
64.537873
11
402.007358
21
64.912826
0
LINE
8
boundary
62
5
39
2
10
402.007358
20
64.912826
11
398.388920
21
66.498721
0
LINE
8
boundary
62
5
39
2
10
398.388920
20
66.498721
11
397.575010
21
66.956991
0
LINE
8
boundary
62
5
39
2
10
397.575010
20
66.956991
11
394.132449
21
68.895312
0
LINE
8
boundary
62
5
39
2
10
394.132449
20
68.895312
11
390.899965
21
71.166861
0
LINE
8
boundary
62
5
39
2
10
390.899965
20
71.166861
11
390.135730
21
71.703889
0
LINE
8
boundary
62
5
39
2
10
390.135730
20
71.703889
11
389.428764
21
72.314345
0
LINE
8
boundary
62
5
39
2
10
389.428764
20
72.314345
11
386.438529
21
74.896370
0
LINE
8
boundary
62
5
39
2
10
386.438529
20
74.896370
11
385.795859
21
75.574183
0
LINE
8
boundary
62
5
39
2
10
385.795859
20
75.574183
11
383.077573
21
78.441066
0
LINE
8
boundary
62
5
39
2
10
383.077573
20
78.441066
11
382.505580
21
79.179500
0
LINE
8
boundary
62
5
39
2
10
382.505580
20
79.179500
11
380.086254
21
82.302795
0
LINE
8
boundary
62
5
39
2
10
380.086254
20
82.302795
11
379.590630
21
83.094514
0
LINE
8
boundary
62
5
39
2
10
379.590630
20
83.094514
11
377.494299
21
86.443181
0
LINE
8
boundary
62
5
39
2
10
377.494299
20
86.443181
11
377.079967
21
87.280314
0
LINE
8
boundary
62
5
39
2
10
377.079967
20
87.280314
11
375.327490
21
90.821072
0
LINE
8
boundary
62
5
39
2
10
375.327490
20
90.821072
11
373.936250
21
94.518728
0
LINE
8
boundary
62
5
39
2
10
373.936250
20
94.518728
11
373.607327
21
95.392957
0
LINE
8
boundary
62
5
39
2
10
373.607327
20
95.392957
11
372.591183
21
99.210774
0
LINE
8
boundary
62
5
39
2
10
372.591183
20
99.210774
11
372.350941
21
100.113407
0
LINE
8
boundary
62
5
39
2
10
372.350941
20
100.113407
11
371.719982
21
104.013421
0
LINE
8
boundary
62
5
39
2
10
371.719982
20
104.013421
11
371.570808
21
104.935488
0
LINE
8
boundary
62
5
39
2
10
371.570808
20
104.935488
11
371.331312
21
108.878946
0
LINE
8
boundary
62
5
39
2
10
371.331312
20
108.878946
11
371.274686
21
109.811284
0
LINE
8
boundary
62
5
39
2
10
371.274686
20
109.811284
11
371.428981
21
113.759023
0
LINE
8
boundary
62
5
39
2
10
371.428981
20
113.759023
11
371.465467
21
114.692366
0
LINE
8
boundary
62
5
39
2
10
371.465467
20
114.692366
11
372.013365
21
118.605381
0
LINE
8
boundary
62
5
39
2
10
372.013365
20
118.605381
11
372.142596
21
119.530397
0
LINE
8
boundary
62
5
39
2
10
372.142596
20
119.530397
11
372.363284
21
120.437949
0
LINE
8
boundary
62
5
39
2
10
372.363284
20
120.437949
11
373.296219
21
124.276854
0
LINE
8
boundary
62
5
39
2
10
373.296219
20
124.276854
11
373.606183
21
125.157950
0
LINE
8
boundary
62
5
39
2
10
373.606183
20
125.157950
11
374.917021
21
128.884816
0
LINE
8
boundary
62
5
39
2
10
374.917021
20
128.884816
11
375.313176
21
129.730680
0
LINE
8
boundary
62
5
39
2
10
375.313176
20
129.730680
11
376.988694
21
133.308490
0
LINE
8
boundary
62
5
39
2
10
376.988694
20
133.308490
11
377.467107
21
134.110713
0
LINE
8
boundary
62
5
39
2
10
377.467107
20
134.110713
11
379.490561
21
137.503888
0
LINE
8
boundary
62
5
39
2
10
379.490561
20
137.503888
11
380.046474
21
138.254493
0
LINE
8
boundary
62
5
39
2
10
380.046474
20
138.254493
11
382.397761
21
141.429329
0
LINE
8
boundary
62
5
39
2
10
382.397761
20
141.429329
11
383.025650
21
142.120856
0
LINE
8
boundary
62
5
39
2
10
383.025650
20
142.120856
11
385.681366
21
145.045785
0
LINE
8
boundary
62
5
39
2
10
385.681366
20
145.045785
11
386.374991
21
145.671361
0
LINE
8
boundary
62
5
39
2
10
386.374991
20
145.671361
11
389.308756
21
148.317347
0
LINE
8
boundary
62
5
39
2
10
389.308756
20
148.317347
11
390.061224
21
148.870751
0
LINE
8
boundary
62
5
39
2
10
390.061224
20
148.870751
11
393.243859
21
151.211461
0
LINE
8
boundary
62
5
39
2
10
393.243859
20
151.211461
11
394.047687
21
151.687192
0
LINE
8
boundary
62
5
39
2
10
394.047687
20
151.687192
11
397.447576
21
153.699392
0
LINE
8
boundary
62
5
39
2
10
397.447576
20
153.699392
11
398.294778
21
154.092727
0
LINE
8
boundary
62
5
39
2
10
398.294778
20
154.092727
11
401.878127
21
155.756381
0
LINE
8
boundary
62
5
39
2
10
401.878127
20
155.756381
11
405.609389
21
157.054994
0
LINE
8
boundary
62
5
39
2
10
405.609389
20
157.054994
11
406.491547
21
157.362018
0
LINE
8
boundary
62
5
39
2
10
406.491547
20
157.362018
11
410.333582
21
158.282653
0
LINE
8
boundary
62
5
39
2
10
410.333582
20
158.282653
11
411.241923
21
158.500318
0
LINE
8
boundary
62
5
39
2
10
411.241923
20
158.500318
11
412.167422
21
158.626459
0
LINE
8
boundary
62
5
39
2
10
412.167422
20
158.626459
11
416.081941
21
159.160005
0
LINE
8
boundary
62
5
39
2
10
416.081941
20
159.160005
11
417.015403
21
159.193370
0
LINE
8
boundary
62
5
39
2
10
417.015403
20
159.193370
11
420.963602
21
159.334515
0
LINE
8
boundary
62
5
39
2
10
420.963602
20
159.334515
11
424.905757
21
159.081788
0
LINE
8
boundary
62
5
39
2
10
424.905757
20
159.081788
11
425.837808
21
159.022053
0
LINE
8
boundary
62
5
39
2
10
425.837808
20
159.022053
11
426.759283
21
158.869824
0
LINE
8
boundary
62
5
39
2
10
426.759283
20
158.869824
11
430.657066
21
158.226005
0
LINE
8
boundary
62
5
39
2
10
430.657066
20
158.226005
11
434.471473
21
157.197160
0
LINE
8
boundary
62
5
39
2
10
434.471473
20
157.197160
11
435.373303
21
156.953915
0
LINE
8
boundary
62
5
39
2
10
435.373303
20
156.953915
11
439.066318
21
155.550402
0
LINE
8
boundary
62
5
39
2
10
439.066318
20
155.550402
11
439.939446
21
155.218574
0
LINE
8
boundary
62
5
39
2
10
439.939446
20
155.218574
11
443.474353
21
153.454303
0
LINE
8
boundary
62
5
39
2
10
443.474353
20
153.454303
11
444.310103
21
153.037187
0
LINE
8
boundary
62
5
39
2
10
444.310103
20
153.037187
11
445.100177
21
152.538929
0
LINE
8
boundary
62
5
39
2
10
445.100177
20
152.538929
11
448.441859
21
150.431472
0
LINE
8
boundary
62
5
39
2
10
448.441859
20
150.431472
11
449.178303
21
149.857099
0
LINE
8
boundary
62
5
39
2
10
449.178303
20
149.857099
11
452.293513
21
147.427473
0
LINE
8
boundary
62
5
39
2
10
452.293513
20
147.427473
11
452.946934
21
146.852020
0
LINE
8
boundary
62
5
39
2
10
452.946934
20
146.852020
11
453.403138
21
146.523413
0
LINE
8
boundary
62
5
39
2
10
453.403138
20
146.523413
11
453.979071
21
146.331896
0
LINE
8
boundary
62
5
39
2
10
453.979071
20
146.331896
11
454.826235
21
146.345629
0
LINE
8
boundary
62
5
39
2
10
454.826235
20
146.345629
11
455.574955
21
146.724412
0
LINE
8
boundary
62
5
39
2
10
455.574955
20
146.724412
11
455.997029
21
147.160318
0
LINE
8
boundary
62
5
39
2
10
455.997029
20
147.160318
11
456.248469
21
147.712894
0
LINE
8
boundary
62
5
39
2
10
456.248469
20
147.712894
11
458.085564
21
163.656403
0
LINE
8
boundary
62
5
39
2
10
458.085564
20
163.656403
11
459.168592
21
172.979491
0
LINE
8
boundary
62
5
39
2
10
459.168592
20
172.979491
11
459.693530
21
177.565471
0
LINE
8
boundary
62
5
39
2
10
459.693530
20
177.565471
11
461.256972
21
191.223208
0
LINE
8
boundary
62
5
39
2
10
461.256972
20
191.223208
11
461.275279
21
191.921660
0
LINE
8
boundary
62
5
39
2
10
461.275279
20
191.921660
11
461.329952
21
194.009586
0
LINE
8
boundary
62
5
39
2
10
461.329952
20
194.009586
11
461.226358
21
194.700466
0
LINE
8
boundary
62
5
39
2
10
461.226358
20
194.700466
11
460.916684
21
196.765583
0
LINE
8
boundary
62
5
39
2
10
460.916684
20
196.765583
11
460.694365
21
197.427870
0
LINE
8
boundary
62
5
39
2
10
460.694365
20
197.427870
11
460.029812
21
199.407522
0
LINE
8
boundary
62
5
39
2
10
460.029812
20
199.407522
11
459.695561
21
200.020972
0
LINE
8
boundary
62
5
39
2
10
459.695561
20
200.020972
11
458.696429
21
201.854640
0
LINE
8
boundary
62
5
39
2
10
458.696429
20
201.854640
11
458.260460
21
202.400517
0
LINE
8
boundary
62
5
39
2
10
458.260460
20
202.400517
11
456.957282
21
204.032199
0
LINE
8
boundary
62
5
39
2
10
456.957282
20
204.032199
11
456.432920
21
204.493806
0
LINE
8
boundary
62
5
39
2
10
456.432920
20
204.493806
11
454.865514
21
205.873613
0
LINE
8
boundary
62
5
39
2
10
454.865514
20
205.873613
11
454.268779
21
206.236869
0
LINE
8
boundary
62
5
39
2
10
454.268779
20
206.236869
11
452.485047
21
207.322664
0
LINE
8
boundary
62
5
39
2
10
452.485047
20
207.322664
11
451.060308
21
207.933348
0
LINE
8
boundary
62
5
39
2
10
451.060308
20
207.933348
11
446.801612
21
209.758773
0
LINE
8
boundary
62
5
39
2
10
446.801612
20
209.758773
11
445.336269
21
210.264547
0
LINE
8
boundary
62
5
39
2
10
445.336269
20
210.264547
11
440.956088
21
211.776397
0
LINE
8
boundary
62
5
39
2
10
440.956088
20
211.776397
11
439.457918
21
212.174568
0
LINE
8
boundary
62
5
39
2
10
439.457918
20
212.174568
11
434.979607
21
213.364754
0
LINE
8
boundary
62
5
39
2
10
434.979607
20
213.364754
11
433.456504
21
213.653209
0
LINE
8
boundary
62
5
39
2
10
433.456504
20
213.653209
11
428.903666
21
214.515451
0
LINE
8
boundary
62
5
39
2
10
428.903666
20
214.515451
11
427.363750
21
214.692664
0
LINE
8
boundary
62
5
39
2
10
427.363750
20
214.692664
11
422.760651
21
215.222387
0
LINE
8
boundary
62
5
39
2
10
422.760651
20
215.222387
11
421.211910
21
215.287463
0
LINE
8
boundary
62
5
39
2
10
421.211910
20
215.287463
11
416.582513
21
215.481965
0
LINE
8
boundary
62
5
39
2
10
416.582513
20
215.481965
11
415.033060
21
215.434542
0
LINE
8
boundary
62
5
39
2
10
415.033060
20
215.434542
11
410.401490
21
215.292789
0
LINE
8
boundary
62
5
39
2
10
410.401490
20
215.292789
11
408.859574
21
215.133103
0
LINE
8
boundary
62
5
39
2
10
408.859574
20
215.133103
11
404.250429
21
214.655748
0
LINE
8
boundary
62
5
39
2
10
404.250429
20
214.655748
11
402.724140
21
214.384641
0
LINE
8
boundary
62
5
39
2
10
402.724140
20
214.384641
11
398.161786
21
213.574273
0
LINE
8
boundary
62
5
39
2
10
398.161786
20
213.574273
11
396.659181
21
213.193189
0
LINE
8
boundary
62
5
39
2
10
396.659181
20
213.193189
11
392.167617
21
212.054044
0
LINE
8
boundary
62
5
39
2
10
392.167617
20
212.054044
11
390.696612
21
211.564979
0
LINE
8
boundary
62
5
39
2
10
390.696612
20
211.564979
11
386.299507
21
210.103078
0
LINE
8
boundary
62
5
39
2
10
386.299507
20
210.103078
11
384.867844
21
209.508612
0
LINE
8
boundary
62
5
39
2
10
384.867844
20
209.508612
11
380.588338
21
207.731631
0
LINE
8
boundary
62
5
39
2
10
380.588338
20
207.731631
11
379.203562
21
207.034889
0
LINE
8
boundary
62
5
39
2
10
379.203562
20
207.034889
11
375.064225
21
204.952194
0
LINE
8
boundary
62
5
39
2
10
375.064225
20
204.952194
11
373.733617
21
204.156850
0
LINE
8
boundary
62
5
39
2
10
373.733617
20
204.156850
11
369.756238
21
201.779454
0
LINE
8
boundary
62
5
39
2
10
369.756238
20
201.779454
11
368.486831
21
200.889695
0
LINE
8
boundary
62
5
39
2
10
368.486831
20
200.889695
11
364.692356
21
198.230046
0
LINE
8
boundary
62
5
39
2
10
364.692356
20
198.230046
11
363.490832
21
197.250568
0
LINE
8
boundary
62
5
39
2
10
363.490832
20
197.250568
11
359.899250
21
194.322706
0
LINE
8
boundary
62
5
39
2
10
359.899250
20
194.322706
11
358.771920
21
193.258649
0
LINE
8
boundary
62
5
39
2
10
358.771920
20
193.258649
11
355.402117
21
190.077995
0
LINE
8
boundary
62
5
39
2
10
355.402117
20
190.077995
11
354.210695
21
188.788373
0
LINE
8
boundary
62
5
39
2
10
354.210695
20
188.788373
11
350.649331
21
184.933470
0
LINE
8
boundary
62
5
39
2
10
350.649331
20
184.933470
11
349.543176
21
183.570007
0
LINE
8
boundary
62
5
39
2
10
349.543176
20
183.570007
11
346.236687
21
179.494344
0
LINE
8
boundary
62
5
39
2
10
346.236687
20
179.494344
11
345.220376
21
178.062656
0
LINE
8
boundary
62
5
39
2
10
345.220376
20
178.062656
11
342.182443
21
173.783083
0
LINE
8
boundary
62
5
39
2
10
342.182443
20
173.783083
11
341.260167
21
172.289091
0
LINE
8
boundary
62
5
39
2
10
341.260167
20
172.289091
11
338.503298
21
167.823247
0
LINE
8
boundary
62
5
39
2
10
338.503298
20
167.823247
11
337.678849
21
166.273104
0
LINE
8
boundary
62
5
39
2
10
337.678849
20
166.273104
11
335.214441
21
161.639491
0
LINE
8
boundary
62
5
39
2
10
335.214441
20
161.639491
11
334.491232
21
160.039607
0
LINE
8
boundary
62
5
39
2
10
334.491232
20
160.039607
11
332.329461
21
155.257310
0
LINE
8
boundary
62
5
39
2
10
332.329461
20
155.257310
11
331.710480
21
153.614286
0
LINE
8
boundary
62
5
39
2
10
331.710480
20
153.614286
11
329.860253
21
148.703039
0
LINE
8
boundary
62
5
39
2
10
329.860253
20
148.703039
11
329.348054
21
147.023652
0
LINE
8
boundary
62
5
39
2
10
329.348054
20
147.023652
11
327.817026
21
142.003715
0
LINE
8
boundary
62
5
39
2
10
327.817026
20
142.003715
11
327.413727
21
140.294913
0
LINE
8
boundary
62
5
39
2
10
327.413727
20
140.294913
11
326.208201
21
135.187044
0
LINE
8
boundary
62
5
39
2
10
326.208201
20
135.187044
11
325.915453
21
133.455872
0
LINE
8
boundary
62
5
39
2
10
325.915453
20
133.455872
11
325.040399
21
128.281126
0
LINE
8
boundary
62
5
39
2
10
325.040399
20
128.281126
11
324.859443
21
126.534727
0
LINE
8
boundary
62
5
39
2
10
324.859443
20
126.534727
11
324.318538
21
121.314486
0
LINE
8
boundary
62
5
39
2
10
324.318538
20
121.314486
11
324.100766
21
119.572288
0
LINE
8
boundary
62
5
39
2
10
324.100766
20
119.572288
11
323.449805
21
114.364605
0
LINE
8
boundary
62
5
39
2
10
323.449805
20
114.364605
11
323.344349
21
112.612024
0
LINE
8
boundary
62
5
39
2
10
323.344349
20
112.612024
11
323.029139
21
107.373292
0
LINE
8
boundary
62
5
39
2
10
323.029139
20
107.373292
11
323.036446
21
105.617555
0
LINE
8
boundary
62
5
39
2
10
323.036446
20
105.617555
11
323.058291
21
100.369394
0
LINE
8
boundary
62
5
39
2
10
323.058291
20
100.369394
11
323.178325
21
98.617750
0
LINE
8
boundary
62
5
39
2
10
323.178325
20
98.617750
11
323.537121
21
93.381821
0
LINE
8
boundary
62
5
39
2
10
323.537121
20
93.381821
11
323.769386
21
91.641499
0
LINE
8
boundary
62
5
39
2
10
323.769386
20
91.641499
11
324.463669
21
86.439417
0
LINE
8
boundary
62
5
39
2
10
324.463669
20
86.439417
11
324.807207
21
84.717602
0
LINE
8
boundary
62
5
39
2
10
324.807207
20
84.717602
11
325.834105
21
79.570833
0
LINE
8
boundary
62
5
39
2
10
325.834105
20
79.570833
11
326.287504
21
77.874631
0
LINE
8
boundary
62
5
39
2
10
326.287504
20
77.874631
11
327.642776
21
72.804432
0
LINE
8
boundary
62
5
39
2
10
327.642776
20
72.804432
11
328.204149
21
71.140853
0
LINE
8
boundary
62
5
39
2
10
328.204149
20
71.140853
11
329.882191
21
66.168139
0
LINE
8
boundary
62
5
39
2
10
329.882191
20
66.168139
11
330.549243
21
64.544020
0
LINE
8
boundary
62
5
39
2
10
330.549243
20
64.544020
11
332.543145
21
59.689342
0
LINE
8
boundary
62
5
39
2
10
332.543145
20
59.689342
11
333.313109
21
58.111404
0
LINE
8
boundary
62
5
39
2
10
333.313109
20
58.111404
11
335.614607
21
53.394799
0
LINE
8
boundary
62
5
39
2
10
335.614607
20
53.394799
11
336.484298
21
51.869589
0
LINE
8
boundary
62
5
39
2
10
336.484298
20
51.869589
11
339.083940
21
47.310503
0
LINE
8
boundary
62
5
39
2
10
339.083940
20
47.310503
11
339.942082
21
46.019505
0
LINE
8
boundary
62
5
39
2
10
339.942082
20
46.019505
11
342.507212
21
42.160518
0
LINE
8
boundary
62
5
39
2
10
342.507212
20
42.160518
11
343.456733
21
40.935161
0
LINE
8
boundary
62
5
39
2
10
343.456733
20
40.935161
11
346.294998
21
37.272392
0
LINE
8
boundary
62
5
39
2
10
346.294998
20
37.272392
11
347.330898
21
36.119118
0
LINE
8
boundary
62
5
39
2
10
347.330898
20
36.119118
11
350.427325
21
32.671867
0
LINE
8
boundary
62
5
39
2
10
350.427325
20
32.671867
11
351.544138
21
31.596776
0
LINE
8
boundary
62
5
39
2
10
351.544138
20
31.596776
11
354.882465
21
28.383169
0
LINE
8
boundary
62
5
39
2
10
354.882465
20
28.383169
11
356.074313
21
27.391910
0
LINE
8
boundary
62
5
39
2
10
356.074313
20
27.391910
11
359.636922
21
24.428891
0
LINE
8
boundary
62
5
39
2
10
359.636922
20
24.428891
11
360.897532
21
23.526677
0
LINE
8
boundary
62
5
39
2
10
360.897532
20
23.526677
11
364.665636
21
20.829873
0
LINE
8
boundary
62
5
39
2
10
364.665636
20
20.829873
11
365.988354
21
20.021476
0
LINE
8
boundary
62
5
39
2
10
365.988354
20
20.021476
11
369.942160
21
17.605057
0
LINE
8
boundary
62
5
39
2
10
369.942160
20
17.605057
11
371.320026
21
16.894726
0
LINE
8
boundary
62
5
39
2
10
371.320026
20
16.894726
11
375.438681
21
14.771441
0
LINE
8
boundary
62
5
39
2
10
375.438681
20
14.771441
11
376.864452
21
14.162910
0
LINE
8
boundary
62
5
39
2
10
376.864452
20
14.162910
11
381.126252
21
12.343941
0
LINE
8
boundary
62
5
39
2
10
381.126252
20
12.343941
11
382.592402
21
11.840420
0
LINE
8
boundary
62
5
39
2
10
382.592402
20
11.840420
11
386.974888
21
10.335356
0
LINE
8
boundary
62
5
39
2
10
386.974888
20
10.335356
11
388.473684
21
9.939508
0
LINE
8
boundary
62
5
39
2
10
388.473684
20
9.939508
11
392.953811
21
8.756259
0
LINE
8
boundary
62
5
39
2
10
392.953811
20
8.756259
11
394.477479
21
8.470140
0
LINE
8
boundary
62
5
39
2
10
394.477479
20
8.470140
11
399.031882
21
7.614910
0
LINE
8
boundary
62
5
39
2
10
399.031882
20
7.614910
11
400.572274
21
7.440063
0
LINE
8
boundary
62
5
39
2
10
400.572274
20
7.440063
11
405.176734
21
6.917418
0
LINE
8
boundary
62
5
39
2
10
405.176734
20
6.917418
11
406.725652
21
6.854767
0
LINE
8
boundary
62
5
39
2
10
406.725652
20
6.854767
11
411.355607
21
6.667500
0
LINE
8
boundary
62
5
39
2
10
411.355607
20
6.667500
11
412.904995
21
6.717354
0
LINE
8
boundary
62
5
39
2
10
412.904995
20
6.717354
11
417.536351
21
6.866375
0
LINE
8
boundary
62
5
39
2
10
417.536351
20
6.866375
11
419.078043
21
7.028471
0
LINE
8
boundary
62
5
39
2
10
419.078043
20
7.028471
11
423.686393
21
7.513008
0
LINE
8
boundary
62
5
39
2
10
423.686393
20
7.513008
11
425.212260
21
7.786498
0
LINE
8
boundary
62
5
39
2
10
425.212260
20
7.786498
11
429.773312
21
8.604013
0
LINE
8
boundary
62
5
39
2
10
429.773312
20
8.604013
11
430.436727
21
8.823308
0
LINE
8
boundary
62
5
39
2
10
430.436727
20
8.823308
11
432.419755
21
9.478847
0
LINE
8
boundary
62
5
39
2
10
432.419755
20
9.478847
11
433.034723
21
9.810280
0
LINE
8
boundary
62
5
39
2
10
433.034723
20
9.810280
11
434.872977
21
10.801008
0
LINE
8
annotation
62
1
39
211
10
453.493214
20
176.157740
11
449.977332
21
177.783263
0
LINE
8
annotation
62
1
39
211
10
449.977332
20
177.783263
11
448.635779
21
178.403688
0
LINE
8
annotation
62
1
39
211
10
448.635779
20
178.403688
11
444.465006
21
179.947855
0
LINE
8
annotation
62
1
39
211
10
444.465006
20
179.947855
11
443.069607
21
180.464588
0
LINE
8
annotation
62
1
39
211
10
443.069607
20
180.464588
11
441.637233
21
180.867182
0
LINE
8
annotation
62
1
39
211
10
441.637233
20
180.867182
11
437.356029
21
182.070772
0
LINE
8
annotation
62
1
39
211
10
437.356029
20
182.070772
11
435.895748
21
182.357264
0
LINE
8
annotation
62
1
39
211
10
435.895748
20
182.357264
11
431.531722
21
183.212637
0
LINE
8
annotation
62
1
39
211
10
431.531722
20
183.212637
11
430.053289
21
183.380431
0
LINE
8
annotation
62
1
39
211
10
430.053289
20
183.380431
11
425.634718
21
183.882135
0
LINE
8
annotation
62
1
39
211
10
425.634718
20
183.882135
11
424.147548
21
183.930573
0
LINE
8
annotation
62
1
39
211
10
424.147548
20
183.930573
11
419.702630
21
184.075390
0
LINE
8
annotation
62
1
39
211
10
419.702630
20
184.075390
11
418.216452
21
184.003925
0
LINE
8
annotation
62
1
39
211
10
418.216452
20
184.003925
11
413.774309
21
183.790805
0
LINE
8
annotation
62
1
39
211
10
413.774309
20
183.790805
11
412.298687
21
183.600130
0
LINE
8
annotation
62
1
39
211
10
412.298687
20
183.600130
11
407.888108
21
183.030495
0
LINE
8
annotation
62
1
39
211
10
407.888108
20
183.030495
11
406.432317
21
182.721549
0
LINE
8
annotation
62
1
39
211
10
406.432317
20
182.721549
11
402.082018
21
181.798864
0
LINE
8
annotation
62
1
39
211
10
402.082018
20
181.798864
11
400.656004
21
181.374308
0
LINE
8
annotation
62
1
39
211
10
400.656004
20
181.374308
11
396.393994
21
180.104720
0
LINE
8
annotation
62
1
39
211
10
396.393994
20
180.104720
11
395.011546
21
179.573085
0
LINE
8
annotation
62
1
39
211
10
395.011546
20
179.573085
11
390.868116
21
177.966107
0
LINE
8
annotation
62
1
39
211
10
390.868116
20
177.966107
11
390.858346
21
177.957310
0
LINE
8
annotation
62
1
39
211
10
390.858346
20
177.957310
11
386.855045
21
176.020780
0
LINE
8
annotation
62
1
39
211
10
386.855045
20
176.020780
11
385.517467
21
175.373803
0
LINE
8
annotation
62
1
39
211
10
385.517467
20
175.373803
11
384.234290
21
174.620423
0
LINE
8
annotation
62
1
39
211
10
384.234290
20
174.620423
11
380.399511
21
172.368126
0
LINE
8
annotation
62
1
39
211
10
380.399511
20
172.368126
11
379.181185
21
171.513869
0
LINE
8
annotation
62
1
39
211
10
379.181185
20
171.513869
11
375.540187
21
168.960480
0
LINE
8
annotation
62
1
39
211
10
375.540187
20
168.960480
11
374.394430
21
168.010961
0
LINE
8
annotation
62
1
39
211
10
374.394430
20
168.010961
11
370.970567
21
165.173291
0
LINE
8
annotation
62
1
39
211
10
370.970567
20
165.173291
11
369.904917
21
164.134714
0
LINE
8
annotation
62
1
39
211
10
369.904917
20
164.134714
11
366.720152
21
161.030659
0
LINE
8
annotation
62
1
39
211
10
366.720152
20
161.030659
11
365.741706
21
159.909599
0
LINE
8
annotation
62
1
39
211
10
365.741706
20
159.909599
11
362.816801
21
156.559475
0
LINE
8
annotation
62
1
39
211
10
362.816801
20
156.559475
11
361.931690
21
155.363529
0
LINE
8
annotation
62
1
39
211
10
361.931690
20
155.363529
11
359.286015
21
151.789150
0
LINE
8
annotation
62
1
39
211
10
359.286015
20
151.789150
11
358.499622
21
150.525733
0
LINE
8
annotation
62
1
39
211
10
358.499622
20
150.525733
11
356.149921
21
146.750033
0
LINE
8
annotation
62
1
39
211
10
356.149921
20
146.750033
11
356.022659
21
146.502757
0
LINE
8
annotation
62
1
39
211
10
356.022659
20
146.502757
11
353.984063
21
142.550545
0
LINE
8
annotation
62
1
39
211
10
353.984063
20
142.550545
11
353.429495
21
141.475180
0
LINE
8
annotation
62
1
39
211
10
353.429495
20
141.475180
11
352.855829
21
140.101998
0
LINE
8
annotation
62
1
39
211
10
352.855829
20
140.101998
11
351.142024
21
135.998400
0
LINE
8
annotation
62
1
39
211
10
351.142024
20
135.998400
11
351.055757
21
135.733988
0
LINE
8
annotation
62
1
39
211
10
351.055757
20
135.733988
11
349.677619
21
131.506284
0
LINE
8
annotation
62
1
39
211
10
349.677619
20
131.506284
11
349.302474
21
130.355896
0
LINE
8
annotation
62
1
39
211
10
349.302474
20
130.355896
11
348.956355
21
128.908583
0
LINE
8
annotation
62
1
39
211
10
348.956355
20
128.908583
11
347.922749
21
124.583364
0
LINE
8
annotation
62
1
39
211
10
347.922749
20
124.583364
11
347.736853
21
123.387531
0
LINE
8
annotation
62
1
39
211
10
347.736853
20
123.387531
11
347.139796
21
119.543003
0
LINE
8
annotation
62
1
39
211
10
347.139796
20
119.543003
11
347.099293
21
119.267358
0
LINE
8
annotation
62
1
39
211
10
347.099293
20
119.267358
11
347.018075
21
118.716645
0
LINE
8
annotation
62
1
39
211
10
347.018075
20
118.716645
11
346.973061
21
118.163836
0
LINE
8
annotation
62
1
39
211
10
346.973061
20
118.163836
11
346.950219
21
117.887524
0
LINE
8
annotation
62
1
39
211
10
346.950219
20
117.887524
11
346.663723
21
114.006468
0
LINE
8
annotation
62
1
39
211
10
346.663723
20
114.006468
11
346.574826
21
112.799423
0
LINE
8
annotation
62
1
39
211
10
346.574826
20
112.799423
11
346.584845
21
111.311640
0
LINE
8
annotation
62
1
39
211
10
346.584845
20
111.311640
11
346.615713
21
106.864464
0
LINE
8
annotation
62
1
39
211
10
346.615713
20
106.864464
11
346.745645
21
105.382180
0
LINE
8
annotation
62
1
39
211
10
346.745645
20
105.382180
11
347.133683
21
100.951987
0
LINE
8
annotation
62
1
39
211
10
347.133683
20
100.951987
11
347.382488
21
99.484833
0
LINE
8
annotation
62
1
39
211
10
347.382488
20
99.484833
11
348.125747
21
95.100304
0
LINE
8
annotation
62
1
39
211
10
348.125747
20
95.100304
11
348.491755
21
93.657951
0
LINE
8
annotation
62
1
39
211
10
348.491755
20
93.657951
11
349.585119
21
89.347287
0
LINE
8
annotation
62
1
39
211
10
349.585119
20
89.347287
11
350.065981
21
87.939026
0
LINE
8
annotation
62
1
39
211
10
350.065981
20
87.939026
11
351.502452
21
83.730302
0
LINE
8
annotation
62
1
39
211
10
351.502452
20
83.730302
11
352.095100
21
82.365271
0
LINE
8
annotation
62
1
39
211
10
352.095100
20
82.365271
11
353.865754
21
78.285332
0
LINE
8
annotation
62
1
39
211
10
353.865754
20
78.285332
11
354.565753
21
76.972691
0
LINE
8
annotation
62
1
39
211
10
354.565753
20
76.972691
11
356.658437
21
73.048934
0
LINE
8
annotation
62
1
39
211
10
356.658437
20
73.048934
11
357.462167
21
71.796486
0
LINE
8
annotation
62
1
39
211
10
357.462167
20
71.796486
11
359.863672
21
68.053783
0
LINE
8
annotation
62
1
39
211
10
359.863672
20
68.053783
11
360.765615
21
66.870017
0
LINE
8
annotation
62
1
39
211
10
360.765615
20
66.870017
11
363.460548
21
63.332472
0
LINE
8
annotation
62
1
39
211
10
363.460548
20
63.332472
11
364.454471
21
62.225112
0
LINE
8
annotation
62
1
39
211
10
364.454471
20
62.225112
11
367.425039
21
58.915747
0
LINE
8
annotation
62
1
39
211
10
367.425039
20
58.915747
11
368.504961
21
57.891827
0
LINE
8
annotation
62
1
39
211
10
368.504961
20
57.891827
11
371.732308
21
54.832199
0
LINE
8
annotation
62
1
39
211
10
371.732308
20
54.832199
11
372.890952
21
53.898463
0
LINE
8
annotation
62
1
39
211
10
372.890952
20
53.898463
11
376.353728
21
51.108272
0
LINE
8
annotation
62
1
39
211
10
376.353728
20
51.108272
11
377.583778
21
50.270723
0
LINE
8
annotation
62
1
39
211
10
377.583778
20
50.270723
11
381.259858
21
47.768025
0
LINE
8
annotation
62
1
39
211
10
381.259858
20
47.768025
11
382.553136
21
47.032188
0
LINE
8
annotation
62
1
39
211
10
382.553136
20
47.032188
11
386.418410
21
44.833114
0
LINE
8
annotation
62
1
39
211
10
386.418410
20
44.833114
11
387.766828
21
44.203678
0
LINE
8
annotation
62
1
39
211
10
387.766828
20
44.203678
11
391.796650
21
42.322691
0
LINE
8
annotation
62
1
39
211
10
391.796650
20
42.322691
11
393.191248
21
41.803974
0
LINE
8
annotation
62
1
39
211
10
393.191248
20
41.803974
11
397.359390
21
40.252952
0
LINE
8
annotation
62
1
39
211
10
397.359390
20
40.252952
11
398.790960
21
39.848038
0
LINE
8
annotation
62
1
39
211
10
398.790960
20
39.848038
11
403.070264
21
38.637374
0
LINE
8
annotation
62
1
39
211
10
403.070264
20
38.637374
11
404.529988
21
38.348816
0
LINE
8
annotation
62
1
39
211
10
404.529988
20
38.348816
11
408.892804
21
37.486322
0
LINE
8
annotation
62
1
39
211
10
408.892804
20
37.486322
11
410.371210
21
37.315989
0
LINE
8
annotation
62
1
39
211
10
410.371210
20
37.315989
11
414.789169
21
36.807172
0
LINE
8
annotation
62
1
39
211
10
414.789169
20
36.807172
11
416.276346
21
36.756450
0
LINE
8
annotation
62
1
39
211
10
416.276346
20
36.756450
11
420.721089
21
36.604651
0
LINE
8
annotation
62
1
39
211
10
420.721089
20
36.604651
11
422.207508
21
36.673666
0
LINE
8
annotation
62
1
39
211
10
422.207508
20
36.673666
11
426.650096
21
36.879572
0
LINE
8
annotation
62
1
39
211
10
426.650096
20
36.879572
11
428.126008
21
37.067925
0
LINE
8
annotation
62
1
39
211
10
428.126008
20
37.067925
11
432.537458
21
37.630690
0
LINE
8
annotation
62
1
39
211
10
432.537458
20
37.630690
11
436.889628
21
38.546398
0
LINE
8
annotation
62
1
39
211
10
436.889628
20
38.546398
11
437.786692
21
38.735217
0
LINE
8
annotation
62
1
39
211
10
335.504889
20
96.535279
11
340.513323
21
96.535279
0
LINE
8
annotation
62
1
39
211
10
340.513323
20
96.535279
11
340.513323
21
96.535279
0
LINE
8
annotation
62
1
39
211
10
340.513323
20
96.535279
11
341.414101
21
96.616084
0
LINE
8
annotation
62
1
39
211
10
341.414101
20
96.616084
11
342.261703
21
96.848972
0
LINE
8
annotation
62
1
39
211
10
342.261703
20
96.848972
11
343.042030
21
97.219645
0
LINE
8
annotation
62
1
39
211
10
343.042030
20
97.219645
11
343.740984
21
97.713808
0
LINE
8
annotation
62
1
39
211
10
343.740984
20
97.713808
11
344.344469
21
98.317166
0
LINE
8
annotation
62
1
39
211
10
344.344469
20
98.317166
11
344.838386
21
99.015424
0
LINE
8
annotation
62
1
39
211
10
344.838386
20
99.015424
11
345.208638
21
99.794286
0
LINE
8
annotation
62
1
39
211
10
345.208638
20
99.794286
11
345.441127
21
100.639457
0
LINE
8
annotation
62
1
39
211
10
345.441127
20
100.639457
11
345.521756
21
101.536640
0
LINE
8
annotation
62
1
39
211
10
345.521756
20
101.536640
11
345.521756
21
104.044393
0
LINE
8
annotation
62
1
39
211
10
345.521756
20
104.044393
11
345.521756
21
104.044393
0
LINE
8
annotation
62
1
39
211
10
345.521756
20
104.044393
11
345.441127
21
104.941204
0
LINE
8
annotation
62
1
39
211
10
345.441127
20
104.941204
11
345.208638
21
105.786177
0
LINE
8
annotation
62
1
39
211
10
345.208638
20
105.786177
11
344.838386
21
106.564981
0
LINE
8
annotation
62
1
39
211
10
344.838386
20
106.564981
11
344.344469
21
107.263285
0
LINE
8
annotation
62
1
39
211
10
344.344469
20
107.263285
11
343.740984
21
107.866760
0
LINE
8
annotation
62
1
39
211
10
343.740984
20
107.866760
11
343.042030
21
108.361075
0
LINE
8
annotation
62
1
39
211
10
343.042030
20
108.361075
11
342.261703
21
108.731899
0
LINE
8
annotation
62
1
39
211
10
342.261703
20
108.731899
11
341.414101
21
108.964902
0
LINE
8
annotation
62
1
39
211
10
341.414101
20
108.964902
11
340.513323
21
109.045755
0
LINE
8
annotation
62
1
39
211
10
340.513323
20
109.045755
11
338.005570
21
109.045755
0
LINE
8
annotation
62
1
39
211
10
338.005570
20
109.045755
11
340.513323
21
109.045755
0
LINE
8
annotation
62
1
39
211
10
340.513323
20
109.045755
11
340.513323
21
109.045755
0
LINE
8
annotation
62
1
39
211
10
340.513323
20
109.045755
11
341.414101
21
109.126627
0
LINE
8
annotation
62
1
39
211
10
341.414101
20
109.126627
11
342.261703
21
109.359766
0
LINE
8
annotation
62
1
39
211
10
342.261703
20
109.359766
11
343.042030
21
109.730959
0
LINE
8
annotation
62
1
39
211
10
343.042030
20
109.730959
11
343.740984
21
110.225992
0
LINE
8
annotation
62
1
39
211
10
343.740984
20
110.225992
11
344.344469
21
110.830650
0
LINE
8
annotation
62
1
39
211
10
344.344469
20
110.830650
11
344.838386
21
111.530720
0
LINE
8
annotation
62
1
39
211
10
344.838386
20
111.530720
11
345.208638
21
112.311988
0
LINE
8
annotation
62
1
39
211
10
345.208638
20
112.311988
11
345.441127
21
113.160239
0
LINE
8
annotation
62
1
39
211
10
345.441127
20
113.160239
11
345.521756
21
114.061261
0
LINE
8
annotation
62
1
39
211
10
345.521756
20
114.061261
11
345.521756
21
114.061261
0
LINE
8
annotation
62
1
39
211
10
345.521756
20
114.061261
11
345.441127
21
114.958072
0
LINE
8
annotation
62
1
39
211
10
345.441127
20
114.958072
11
345.208638
21
115.803044
0
LINE
8
annotation
62
1
39
211
10
345.208638
20
115.803044
11
344.838386
21
116.581848
0
LINE
8
annotation
62
1
39
211
10
344.838386
20
116.581848
11
344.344469
21
117.280152
0
LINE
8
annotation
62
1
39
211
10
344.344469
20
117.280152
11
343.740984
21
117.883627
0
LINE
8
annotation
62
1
39
211
10
343.740984
20
117.883627
11
343.042030
21
118.377942
0
LINE
8
annotation
62
1
39
211
10
343.042030
20
118.377942
11
342.261703
21
118.748766
0
LINE
8
annotation
62
1
39
211
10
342.261703
20
118.748766
11
341.414101
21
118.981770
0
LINE
8
annotation
62
1
39
211
10
341.414101
20
118.981770
11
340.513323
21
119.062622
0
LINE
8
annotation
62
1
39
211
10
340.513323
20
119.062622
11
335.504889
21
119.062622
0
LINE
8
annotation
62
1
39
211
10
358.994386
20
96.534571
11
364.008478
21
119.088789
0
LINE
8
annotation
62
1
39
211
10
364.008478
20
119.088789
11
353.978881
21
119.088789
0
LINE
8
annotation
62
1
39
211
10
364.008478
20
109.045048
11
358.994386
21
109.045048
0
LINE
8
boundary
62
5
39
2
10
152.077527
20
243.642550
11
152.831756
21
244.373464
0
LINE
8
boundary
62
5
39
2
10
152.831756
20
244.373464
11
153.487687
21
245.088855
0
LINE
8
boundary
62
5
39
2
10
153.487687
20
245.088855
11
154.085312
21
245.952533
0
LINE
8
boundary
62
5
39
2
10
154.085312
20
245.952533
11
154.578156
21
246.788630
0
LINE
8
boundary
62
5
39
2
10
154.578156
20
246.788630
11
154.994229
21
247.752893
0
LINE
8
boundary
62
5
39
2
10
154.994229
20
247.752893
11
155.302485
21
248.673237
0
LINE
8
boundary
62
5
39
2
10
155.302485
20
248.673237
11
155.522976
21
249.700019
0
LINE
8
boundary
62
5
39
2
10
155.522976
20
249.700019
11
155.608933
21
250.268114
0
LINE
8
boundary
62
5
39
2
10
155.608933
20
250.268114
11
155.636741
21
252.064817
0
LINE
8
boundary
62
5
39
2
10
155.636741
20
252.064817
11
155.295642
21
254.005826
0
LINE
8
boundary
62
5
39
2
10
155.295642
20
254.005826
11
154.581464
21
255.842452
0
LINE
8
boundary
62
5
39
2
10
154.581464
20
255.842452
11
153.522453
21
257.502264
0
LINE
8
boundary
62
5
39
2
10
153.522453
20
257.502264
11
152.155143
21
258.923643
0
LINE
8
boundary
62
5
39
2
10
152.155143
20
258.923643
11
150.537135
21
260.048468
0
LINE
8
boundary
62
5
39
2
10
150.537135
20
260.048468
11
148.729943
21
260.833979
0
LINE
8
boundary
62
5
39
2
10
148.729943
20
260.833979
11
146.970170
21
261.212746
0
LINE
8
boundary
62
5
39
2
10
146.970170
20
261.212746
11
81.278844
21
268.724883
0
LINE
8
boundary
62
5
39
2
10
81.278844
20
268.724883
11
76.698828
21
269.266520
0
LINE
8
boundary
62
5
39
2
10
76.698828
20
269.266520
11
75.212617
21
269.440248
0
LINE
8
boundary
62
5
39
2
10
75.212617
20
269.440248
11
71.703404
21
270.057892
0
LINE
8
boundary
62
5
39
2
10
71.703404
20
270.057892
11
68.352568
21
271.076558
0
LINE
8
boundary
62
5
39
2
10
68.352568
20
271.076558
11
65.033715
21
272.526720
0
LINE
8
boundary
62
5
39
2
10
65.033715
20
272.526720
11
61.913855
21
274.366340
0
LINE
8
boundary
62
5
39
2
10
61.913855
20
274.366340
11
59.038477
21
276.568608
0
LINE
8
boundary
62
5
39
2
10
59.038477
20
276.568608
11
56.449506
21
279.101405
0
LINE
8
boundary
62
5
39
2
10
56.449506
20
279.101405
11
54.184681
21
281.927792
0
LINE
8
boundary
62
5
39
2
10
54.184681
20
281.927792
11
52.277019
21
285.006557
0
LINE
8
boundary
62
5
39
2
10
52.277019
20
285.006557
11
50.754334
21
288.292814
0
LINE
8
boundary
62
5
39
2
10
50.754334
20
288.292814
11
49.638559
21
291.738586
0
LINE
8
boundary
62
5
39
2
10
49.638559
20
291.738586
11
48.945641
21
295.293671
0
LINE
8
boundary
62
5
39
2
10
48.945641
20
295.293671
11
48.681192
21
299.026402
0
LINE
8
boundary
62
5
39
2
10
48.681192
20
299.026402
11
48.868918
21
302.523590
0
LINE
8
boundary
62
5
39
2
10
48.868918
20
302.523590
11
49.031894
21
304.012655
0
LINE
8
boundary
62
5
39
2
10
49.031894
20
304.012655
11
62.329292
21
420.292391
0
LINE
8
boundary
62
5
39
2
10
62.329292
20
420.292391
11
62.519461
21
421.923349
0
LINE
8
boundary
62
5
39
2
10
62.519461
20
421.923349
11
63.135781
21
425.432864
0
LINE
8
boundary
62
5
39
2
10
63.135781
20
425.432864
11
64.153726
21
428.784184
0
LINE
8
boundary
62
5
39
2
10
64.153726
20
428.784184
11
65.654422
21
432.212125
0
LINE
8
boundary
62
5
39
2
10
65.654422
20
432.212125
11
67.507083
21
435.325182
0
LINE
8
boundary
62
5
39
2
10
67.507083
20
435.325182
11
69.721421
21
438.192305
0
LINE
8
boundary
62
5
39
2
10
69.721421
20
438.192305
11
72.265184
21
440.771624
0
LINE
8
boundary
62
5
39
2
10
72.265184
20
440.771624
11
75.101297
21
443.025544
0
LINE
8
boundary
62
5
39
2
10
75.101297
20
443.025544
11
78.085763
21
444.858145
0
LINE
8
boundary
62
5
39
2
10
78.085763
20
444.858145
11
81.371985
21
446.380670
0
LINE
8
boundary
62
5
39
2
10
81.371985
20
446.380670
11
84.817785
21
447.496005
0
LINE
8
boundary
62
5
39
2
10
84.817785
20
447.496005
11
88.372889
21
448.187847
0
LINE
8
boundary
62
5
39
2
10
88.372889
20
448.187847
11
91.985458
21
448.446131
0
LINE
8
boundary
62
5
39
2
10
91.985458
20
448.446131
11
95.602890
21
448.267094
0
LINE
8
boundary
62
5
39
2
10
95.602890
20
448.267094
11
164.756671
21
440.358885
0
LINE
8
boundary
62
5
39
2
10
164.756671
20
440.358885
11
166.625572
21
440.152519
0
LINE
8
boundary
62
5
39
2
10
166.625572
20
440.152519
11
167.254996
21
440.080823
0
LINE
8
boundary
62
5
39
2
10
167.254996
20
440.080823
11
169.226881
21
440.050765
0
LINE
8
boundary
62
5
39
2
10
169.226881
20
440.050765
11
170.997745
21
440.374360
0
LINE
8
boundary
62
5
39
2
10
170.997745
20
440.374360
11
172.838715
21
441.071202
0
LINE
8
boundary
62
5
39
2
10
172.838715
20
441.071202
11
174.507499
21
442.115878
0
LINE
8
boundary
62
5
39
2
10
174.507499
20
442.115878
11
175.939146
21
443.467861
0
LINE
8
boundary
62
5
39
2
10
175.939146
20
443.467861
11
177.077889
21
445.074689
0
LINE
8
boundary
62
5
39
2
10
177.077889
20
445.074689
11
177.876778
21
446.874097
0
LINE
8
boundary
62
5
39
2
10
177.876778
20
446.874097
11
178.311864
21
448.793288
0
LINE
8
boundary
62
5
39
2
10
178.311864
20
448.793288
11
178.356074
21
449.364972
0
LINE
8
boundary
62
5
39
2
10
178.356074
20
449.364972
11
178.373867
21
450.415765
0
LINE
8
boundary
62
5
39
2
10
178.373867
20
450.415765
11
178.281137
21
451.381852
0
LINE
8
boundary
62
5
39
2
10
178.281137
20
451.381852
11
178.091389
21
452.414766
0
LINE
8
boundary
62
5
39
2
10
178.091389
20
452.414766
11
177.799809
21
453.340524
0
LINE
8
boundary
62
5
39
2
10
177.799809
20
453.340524
11
177.412874
21
454.316862
0
LINE
8
boundary
62
5
39
2
10
177.412874
20
454.316862
11
176.935182
21
455.161788
0
LINE
8
boundary
62
5
39
2
10
176.935182
20
455.161788
11
176.365348
21
456.043930
0
LINE
8
boundary
62
5
39
2
10
176.365348
20
456.043930
11
175.722426
21
456.771067
0
LINE
8
boundary
62
5
39
2
10
175.722426
20
456.771067
11
174.991486
21
457.525115
0
LINE
8
boundary
62
5
39
2
10
174.991486
20
457.525115
11
174.211430
21
458.102699
0
LINE
8
boundary
62
5
39
2
10
174.211430
20
458.102699
11
173.347442
21
458.699677
0
LINE
8
boundary
62
5
39
2
10
173.347442
20
458.699677
11
172.464333
21
459.102424
0
LINE
8
boundary
62
5
39
2
10
172.464333
20
459.102424
11
171.500497
21
459.519349
0
LINE
8
boundary
62
5
39
2
10
171.500497
20
459.519349
11
170.473825
21
459.740273
0
LINE
8
boundary
62
5
39
2
10
170.473825
20
459.740273
11
110.865059
21
466.556974
0
LINE
8
boundary
62
5
39
2
10
110.865059
20
466.556974
11
71.542695
21
471.155802
0
LINE
8
boundary
62
5
39
2
10
71.542695
20
471.155802
11
58.255193
21
472.675330
0
LINE
8
boundary
62
5
39
2
10
58.255193
20
472.675330
11
57.186393
21
472.732533
0
LINE
8
boundary
62
5
39
2
10
57.186393
20
472.732533
11
54.637736
21
472.868938
0
LINE
8
boundary
62
5
39
2
10
54.637736
20
472.868938
11
53.569829
21
472.796887
0
LINE
8
boundary
62
5
39
2
10
53.569829
20
472.796887
11
51.023322
21
472.625078
0
LINE
8
boundary
62
5
39
2
10
51.023322
20
472.625078
11
49.971882
21
472.424842
0
LINE
8
boundary
62
5
39
2
10
49.971882
20
472.424842
11
47.464635
21
471.947351
0
LINE
8
boundary
62
5
39
2
10
47.464635
20
471.947351
11
46.444996
21
471.621831
0
LINE
8
boundary
62
5
39
2
10
46.444996
20
471.621831
11
44.013603
21
470.845589
0
LINE
8
boundary
62
5
39
2
10
44.013603
20
470.845589
11
43.040630
21
470.399535
0
LINE
8
boundary
62
5
39
2
10
43.040630
20
470.399535
11
40.720523
21
469.335880
0
LINE
8
boundary
62
5
39
2
10
40.720523
20
469.335880
11
39.808420
21
468.775805
0
LINE
8
boundary
62
5
39
2
10
39.808420
20
468.775805
11
37.633428
21
467.440261
0
LINE
8
boundary
62
5
39
2
10
37.633428
20
467.440261
11
35.635275
21
465.852283
0
LINE
8
boundary
62
5
39
2
10
35.635275
20
465.852283
11
34.797323
21
465.186344
0
LINE
8
boundary
62
5
39
2
10
34.797323
20
465.186344
11
33.005133
21
463.369105
0
LINE
8
boundary
62
5
39
2
10
33.005133
20
463.369105
11
32.253570
21
462.607031
0
LINE
8
boundary
62
5
39
2
10
32.253570
20
462.607031
11
30.693475
21
460.587027
0
LINE
8
boundary
62
5
39
2
10
30.693475
20
460.587027
11
30.039250
21
459.739905
0
LINE
8
boundary
62
5
39
2
10
30.039250
20
459.739905
11
28.733949
21
457.546607
0
LINE
8
boundary
62
5
39
2
10
28.733949
20
457.546607
11
28.186599
21
456.626821
0
LINE
8
boundary
62
5
39
2
10
28.186599
20
456.626821
11
27.155033
21
454.292218
0
LINE
8
boundary
62
5
39
2
10
27.155033
20
454.292218
11
26.722559
21
453.313178
0
LINE
8
boundary
62
5
39
2
10
26.722559
20
453.313178
11
25.979052
21
450.871468
0
LINE
8
boundary
62
5
39
2
10
25.979052
20
450.871468
11
25.667715
21
449.847333
0
LINE
8
boundary
62
5
39
2
10
25.667715
20
449.847333
11
25.226711
21
447.332900
0
LINE
8
boundary
62
5
39
2
10
25.226711
20
447.332900
11
18.822776
21
391.335429
0
LINE
8
boundary
62
5
39
2
10
18.822776
20
391.335429
11
16.091110
21
368.017392
0
LINE
8
boundary
62
5
39
2
10
16.091110
20
368.017392
11
16.031364
21
367.494828
0
LINE
8
boundary
62
5
39
2
10
16.031364
20
367.494828
11
15.967834
21
366.939482
0
LINE
8
boundary
62
5
39
2
10
15.967834
20
366.939482
11
15.903572
21
366.377472
0
LINE
8
boundary
62
5
39
2
10
15.903572
20
366.377472
11
15.841591
21
365.835397
0
LINE
8
boundary
62
5
39
2
10
15.841591
20
365.835397
11
15.268126
21
360.806703
0
LINE
8
boundary
62
5
39
2
10
15.268126
20
360.806703
11
8.195410
21
298.956931
0
LINE
8
boundary
62
5
39
2
10
8.195410
20
298.956931
11
6.856926
21
287.261155
0
LINE
8
boundary
62
5
39
2
10
6.856926
20
287.261155
11
6.808910
21
286.310594
0
LINE
8
boundary
62
5
39
2
10
6.808910
20
286.310594
11
6.667500
21
283.701025
0
LINE
8
boundary
62
5
39
2
10
6.667500
20
283.701025
11
6.735425
21
282.694238
0
LINE
8
boundary
62
5
39
2
10
6.735425
20
282.694238
11
6.911918
21
280.086551
0
LINE
8
boundary
62
5
39
2
10
6.911918
20
280.086551
11
7.100702
21
279.095251
0
LINE
8
boundary
62
5
39
2
10
7.100702
20
279.095251
11
7.589948
21
276.527835
0
LINE
8
boundary
62
5
39
2
10
7.589948
20
276.527835
11
7.896854
21
275.566503
0
LINE
8
boundary
62
5
39
2
10
7.896854
20
275.566503
11
8.691890
21
273.076776
0
LINE
8
boundary
62
5
39
2
10
8.691890
20
273.076776
11
9.112438
21
272.159438
0
LINE
8
boundary
62
5
39
2
10
9.112438
20
272.159438
11
10.201702
21
269.783688
0
LINE
8
boundary
62
5
39
2
10
10.201702
20
269.783688
11
10.729757
21
268.923727
0
LINE
8
boundary
62
5
39
2
10
10.729757
20
268.923727
11
12.097417
21
266.696586
0
LINE
8
boundary
62
5
39
2
10
12.097417
20
266.696586
11
12.725282
21
265.906538
0
LINE
8
boundary
62
5
39
2
10
12.725282
20
265.906538
11
14.351394
21
263.860487
0
LINE
8
boundary
62
5
39
2
10
14.351394
20
263.860487
11
15.069915
21
263.151881
0
LINE
8
boundary
62
5
39
2
10
15.069915
20
263.151881
11
16.930768
21
261.316753
0
LINE
8
boundary
62
5
39
2
10
16.930768
20
261.316753
11
17.729466
21
260.699918
0
LINE
8
boundary
62
5
39
2
10
17.729466
20
260.699918
11
19.797959
21
259.102467
0
LINE
8
boundary
62
5
39
2
10
19.797959
20
259.102467
11
20.665188
21
258.586396
0
LINE
8
boundary
62
5
39
2
10
20.665188
20
258.586396
11
22.911123
21
257.249907
0
LINE
8
boundary
62
5
39
2
10
22.911123
20
257.249907
11
23.834239
21
256.842136
0
LINE
8
boundary
62
5
39
2
10
23.834239
20
256.842136
11
26.224906
21
255.786119
0
LINE
8
boundary
62
5
39
2
10
26.224906
20
255.786119
11
28.725408
21
255.025962
0
LINE
8
boundary
62
5
39
2
10
28.725408
20
255.025962
11
29.691113
21
254.732388
0
LINE
8
boundary
62
5
39
2
10
29.691113
20
254.732388
11
32.265562
21
254.279265
0
LINE
8
boundary
62
5
39
2
10
32.265562
20
254.279265
11
112.540393
21
245.099247
0
LINE
8
boundary
62
5
39
2
10
112.540393
20
245.099247
11
136.615702
21
242.284729
0
LINE
8
boundary
62
5
39
2
10
136.615702
20
242.284729
11
144.531869
21
241.379448
0
LINE
8
boundary
62
5
39
2
10
144.531869
20
241.379448
11
145.502898
21
241.370587
0
LINE
8
boundary
62
5
39
2
10
145.502898
20
241.370587
11
146.553686
21
241.353925
0
LINE
8
boundary
62
5
39
2
10
146.553686
20
241.353925
11
147.586806
21
241.542716
0
LINE
8
boundary
62
5
39
2
10
147.586806
20
241.542716
11
148.538232
21
241.735954
0
LINE
8
boundary
62
5
39
2
10
148.538232
20
241.735954
11
149.514689
21
242.122662
0
LINE
8
boundary
62
5
39
2
10
149.514689
20
242.122662
11
150.404899
21
242.509421
0
LINE
8
boundary
62
5
39
2
10
150.404899
20
242.509421
11
151.287183
21
243.079175
0
LINE
8
boundary
62
5
39
2
10
151.287183
20
243.079175
11
152.077527
21
243.642550
0
LINE
8
annotation
62
1
39
211
10
42.583651
20
305.742676
11
19.442612
21
305.742676
0
LINE
8
annotation
62
1
39
211
10
19.442612
20
305.742676
11
28.684391
21
338.154244
0
LINE
8
annotation
62
1
39
211
10
35.647089
20
296.477375
11
35.647089
21
314.987069
0
LINE
8
boundary
62
5
39
2
10
325.249941
20
242.513839
11
326.975273
21
243.686547
0
LINE
8
boundary
62
5
39
2
10
326.975273
20
243.686547
11
328.419088
21
245.192366
0
LINE
8
boundary
62
5
39
2
10
328.419088
20
245.192366
11
329.631931
21
247.158283
0
LINE
8
boundary
62
5
39
2
10
329.631931
20
247.158283
11
330.224790
21
248.928326
0
LINE
8
boundary
62
5
39
2
10
330.224790
20
248.928326
11
330.507758
21
250.995208
0
LINE
8
boundary
62
5
39
2
10
330.507758
20
250.995208
11
330.333430
21
253.298567
0
LINE
8
boundary
62
5
39
2
10
330.333430
20
253.298567
11
329.705406
21
255.292526
0
LINE
8
boundary
62
5
39
2
10
329.705406
20
255.292526
11
328.676535
21
257.112348
0
LINE
8
boundary
62
5
39
2
10
328.676535
20
257.112348
11
327.291799
21
258.678486
0
LINE
8
boundary
62
5
39
2
10
327.291799
20
258.678486
11
325.611687
21
259.922491
0
LINE
8
boundary
62
5
39
2
10
325.611687
20
259.922491
11
323.710237
21
260.789805
0
LINE
8
boundary
62
5
39
2
10
323.710237
20
260.789805
11
322.401657
21
261.074776
0
LINE
8
boundary
62
5
39
2
10
322.401657
20
261.074776
11
321.667884
21
261.237505
0
LINE
8
boundary
62
5
39
2
10
321.667884
20
261.237505
11
278.610299
21
266.293346
0
LINE
8
boundary
62
5
39
2
10
278.610299
20
266.293346
11
248.091927
21
269.783384
0
LINE
8
boundary
62
5
39
2
10
248.091927
20
269.783384
11
246.569524
21
270.051462
0
LINE
8
boundary
62
5
39
2
10
246.569524
20
270.051462
11
245.090777
21
270.501003
0
LINE
8
boundary
62
5
39
2
10
245.090777
20
270.501003
11
243.103162
21
271.105231
0
LINE
8
boundary
62
5
39
2
10
243.103162
20
271.105231
11
241.689365
21
271.729744
0
LINE
8
boundary
62
5
39
2
10
241.689365
20
271.729744
11
239.789417
21
272.569018
0
LINE
8
boundary
62
5
39
2
10
239.789417
20
272.569018
11
238.461214
21
273.359396
0
LINE
8
boundary
62
5
39
2
10
238.461214
20
273.359396
11
236.676281
21
274.421569
0
LINE
8
boundary
62
5
39
2
10
236.676281
20
274.421569
11
235.453034
21
275.366281
0
LINE
8
boundary
62
5
39
2
10
235.453034
20
275.366281
11
233.809149
21
276.635856
0
LINE
8
boundary
62
5
39
2
10
233.809149
20
276.635856
11
232.708689
21
277.721126
0
LINE
8
boundary
62
5
39
2
10
232.708689
20
277.721126
11
231.229816
21
279.179592
0
LINE
8
boundary
62
5
39
2
10
231.229816
20
279.179592
11
230.268198
21
280.389595
0
LINE
8
boundary
62
5
39
2
10
230.268198
20
280.389595
11
228.975905
21
282.015686
0
LINE
8
boundary
62
5
39
2
10
228.975905
20
282.015686
11
228.167143
21
283.332779
0
LINE
8
boundary
62
5
39
2
10
228.167143
20
283.332779
11
227.080281
21
285.102778
0
LINE
8
boundary
62
5
39
2
10
227.080281
20
285.102778
11
226.436180
21
286.507753
0
LINE
8
boundary
62
5
39
2
10
226.436180
20
286.507753
11
225.570590
21
288.395859
0
LINE
8
boundary
62
5
39
2
10
225.570590
20
288.395859
11
225.100535
21
289.868231
0
LINE
8
boundary
62
5
39
2
10
225.100535
20
289.868231
11
224.468847
21
291.846905
0
LINE
8
boundary
62
5
39
2
10
224.468847
20
291.846905
11
224.179690
21
293.365197
0
LINE
8
boundary
62
5
39
2
10
224.179690
20
293.365197
11
223.791099
21
295.405586
0
LINE
8
boundary
62
5
39
2
10
223.791099
20
295.405586
11
223.687049
21
296.947676
0
LINE
8
boundary
62
5
39
2
10
223.687049
20
296.947676
11
223.547246
21
299.019856
0
LINE
8
boundary
62
5
39
2
10
223.547246
20
299.019856
11
223.629836
21
300.563240
0
LINE
8
boundary
62
5
39
2
10
223.629836
20
300.563240
11
223.735525
21
302.637820
0
LINE
8
boundary
62
5
39
2
10
223.735525
20
302.637820
11
226.108260
21
323.339632
0
LINE
8
boundary
62
5
39
2
10
226.108260
20
323.339632
11
226.260817
21
324.673804
0
LINE
8
boundary
62
5
39
2
10
226.260817
20
324.673804
11
226.422945
21
326.091336
0
LINE
8
boundary
62
5
39
2
10
226.422945
20
326.091336
11
226.587275
21
327.528160
0
LINE
8
boundary
62
5
39
2
10
226.587275
20
327.528160
11
226.745656
21
328.913028
0
LINE
8
boundary
62
5
39
2
10
226.745656
20
328.913028
11
226.889895
21
330.174228
0
LINE
8
boundary
62
5
39
2
10
226.889895
20
330.174228
11
234.295467
21
394.931923
0
LINE
8
boundary
62
5
39
2
10
234.295467
20
394.931923
11
234.447696
21
396.264008
0
LINE
8
boundary
62
5
39
2
10
234.447696
20
396.264008
11
234.610111
21
397.683964
0
LINE
8
boundary
62
5
39
2
10
234.610111
20
397.683964
11
237.734728
21
423.903098
0
LINE
8
boundary
62
5
39
2
10
237.734728
20
423.903098
11
238.002812
21
425.425474
0
LINE
8
boundary
62
5
39
2
10
238.002812
20
425.425474
11
238.452352
21
426.904228
0
LINE
8
boundary
62
5
39
2
10
238.452352
20
426.904228
11
239.056566
21
428.891823
0
LINE
8
boundary
62
5
39
2
10
239.056566
20
428.891823
11
239.681083
21
430.305612
0
LINE
8
boundary
62
5
39
2
10
239.681083
20
430.305612
11
240.520364
21
432.205556
0
LINE
8
boundary
62
5
39
2
10
240.520364
20
432.205556
11
241.310735
21
433.533752
0
LINE
8
boundary
62
5
39
2
10
241.310735
20
433.533752
11
242.372903
21
435.318688
0
LINE
8
boundary
62
5
39
2
10
242.372903
20
435.318688
11
243.317612
21
436.541941
0
LINE
8
boundary
62
5
39
2
10
243.317612
20
436.541941
11
244.587192
21
438.185835
0
LINE
8
boundary
62
5
39
2
10
244.587192
20
438.185835
11
245.672458
21
439.286286
0
LINE
8
boundary
62
5
39
2
10
245.672458
20
439.286286
11
247.130926
21
440.765156
0
LINE
8
boundary
62
5
39
2
10
247.130926
20
440.765156
11
248.340933
21
441.726788
0
LINE
8
boundary
62
5
39
2
10
248.340933
20
441.726788
11
249.967022
21
443.019076
0
LINE
8
boundary
62
5
39
2
10
249.967022
20
443.019076
11
251.284110
21
443.827831
0
LINE
8
boundary
62
5
39
2
10
251.284110
20
443.827831
11
253.054116
21
444.914698
0
LINE
8
boundary
62
5
39
2
10
253.054116
20
444.914698
11
254.459087
21
445.558800
0
LINE
8
boundary
62
5
39
2
10
254.459087
20
445.558800
11
256.347192
21
446.424386
0
LINE
8
boundary
62
5
39
2
10
256.347192
20
446.424386
11
257.819561
21
446.894446
0
LINE
8
boundary
62
5
39
2
10
257.819561
20
446.894446
11
259.798238
21
447.526141
0
LINE
8
boundary
62
5
39
2
10
259.798238
20
447.526141
11
261.316531
21
447.815292
0
LINE
8
boundary
62
5
39
2
10
261.316531
20
447.815292
11
263.356919
21
448.203868
0
LINE
8
boundary
62
5
39
2
10
263.356919
20
448.203868
11
264.898992
21
448.307914
0
LINE
8
boundary
62
5
39
2
10
264.898992
20
448.307914
11
266.971170
21
448.447731
0
LINE
8
boundary
62
5
39
2
10
266.971170
20
448.447731
11
268.514533
21
448.365144
0
LINE
8
boundary
62
5
39
2
10
268.514533
20
448.365144
11
270.589099
21
448.259433
0
LINE
8
boundary
62
5
39
2
10
270.589099
20
448.259433
11
287.543548
21
446.316133
0
LINE
8
boundary
62
5
39
2
10
287.543548
20
446.316133
11
341.461054
21
440.351823
0
LINE
8
boundary
62
5
39
2
10
341.461054
20
440.351823
11
344.215483
21
440.055229
0
LINE
8
boundary
62
5
39
2
10
344.215483
20
440.055229
11
346.260783
21
440.471076
0
LINE
8
boundary
62
5
39
2
10
346.260783
20
440.471076
11
347.972873
21
441.214894
0
LINE
8
boundary
62
5
39
2
10
347.972873
20
441.214894
11
349.698206
21
442.387619
0
LINE
8
boundary
62
5
39
2
10
349.698206
20
442.387619
11
351.142011
21
443.893412
0
LINE
8
boundary
62
5
39
2
10
351.142011
20
443.893412
11
352.241204
21
445.666523
0
LINE
8
boundary
62
5
39
2
10
352.241204
20
445.666523
11
353.018809
21
447.841634
0
LINE
8
boundary
62
5
39
2
10
353.018809
20
447.841634
11
353.256098
21
449.918682
0
LINE
8
boundary
62
5
39
2
10
353.256098
20
449.918682
11
353.056359
21
451.999614
0
LINE
8
boundary
62
5
39
2
10
353.056359
20
451.999614
11
352.428335
21
453.993577
0
LINE
8
boundary
62
5
39
2
10
352.428335
20
453.993577
11
351.399466
21
455.813407
0
LINE
8
boundary
62
5
39
2
10
351.399466
20
455.813407
11
350.014724
21
457.379536
0
LINE
8
boundary
62
5
39
2
10
350.014724
20
457.379536
11
348.335062
21
458.623278
0
LINE
8
boundary
62
5
39
2
10
348.335062
20
458.623278
11
346.637324
21
459.397813
0
LINE
8
boundary
62
5
39
2
10
346.637324
20
459.397813
11
344.383521
21
459.881825
0
LINE
8
boundary
62
5
39
2
10
344.383521
20
459.881825
11
328.667363
21
461.677262
0
LINE
8
boundary
62
5
39
2
10
328.667363
20
461.677262
11
284.307696
21
466.653756
0
LINE
8
boundary
62
5
39
2
10
284.307696
20
466.653756
11
231.230667
21
472.774692
0
LINE
8
boundary
62
5
39
2
10
231.230667
20
472.774692
11
229.503013
21
472.866014
0
LINE
8
boundary
62
5
39
2
10
229.503013
20
472.866014
11
227.614058
21
472.738582
0
LINE
8
boundary
62
5
39
2
10
227.614058
20
472.738582
11
225.889023
21
472.619836
0
LINE
8
boundary
62
5
39
2
10
225.889023
20
472.619836
11
224.189928
21
472.297387
0
LINE
8
boundary
62
5
39
2
10
224.189928
20
472.297387
11
222.330010
21
471.943189
0
LINE
8
boundary
62
5
39
2
10
222.330010
20
471.943189
11
220.681744
21
471.418740
0
LINE
8
boundary
62
5
39
2
10
220.681744
20
471.418740
11
218.878209
21
470.842957
0
LINE
8
boundary
62
5
39
2
10
218.878209
20
470.842957
11
217.157217
21
470.053974
0
LINE
8
boundary
62
5
39
2
10
217.157217
20
470.053974
11
215.586254
21
469.329607
0
LINE
8
boundary
62
5
39
2
10
215.586254
20
469.329607
11
214.112228
21
468.425371
0
LINE
8
boundary
62
5
39
2
10
214.112228
20
468.425371
11
212.498721
21
467.434600
0
LINE
8
boundary
62
5
39
2
10
212.498721
20
467.434600
11
211.144139
21
466.359504
0
LINE
8
boundary
62
5
39
2
10
211.144139
20
466.359504
11
209.661856
21
465.181514
0
LINE
8
boundary
62
5
39
2
10
209.661856
20
465.181514
11
208.446034
21
463.951419
0
LINE
8
boundary
62
5
39
2
10
208.446034
20
463.951419
11
207.116659
21
462.603442
0
LINE
8
boundary
62
5
39
2
10
207.116659
20
462.603442
11
205.959455
21
461.105052
0
LINE
8
boundary
62
5
39
2
10
205.959455
20
461.105052
11
204.905352
21
459.733315
0
LINE
8
boundary
62
5
39
2
10
204.905352
20
459.733315
11
204.019964
21
458.248140
0
LINE
8
boundary
62
5
39
2
10
204.019964
20
458.248140
11
203.051693
21
456.621024
0
LINE
8
boundary
62
5
39
2
10
203.051693
20
456.621024
11
202.628783
21
455.740316
0
LINE
8
boundary
62
5
39
2
10
202.628783
20
455.740316
11
201.863942
21
454.008854
0
LINE
8
boundary
62
5
39
2
10
201.863942
20
454.008854
11
201.585702
21
453.308306
0
LINE
8
boundary
62
5
39
2
10
201.585702
20
453.308306
11
201.368569
21
452.693297
0
LINE
8
boundary
62
5
39
2
10
201.368569
20
452.693297
11
200.818000
21
450.882205
0
LINE
8
boundary
62
5
39
2
10
200.818000
20
450.882205
11
200.471572
21
449.520505
0
LINE
8
boundary
62
5
39
2
10
200.471572
20
449.520505
11
200.230440
21
448.136868
0
LINE
8
boundary
62
5
39
2
10
200.230440
20
448.136868
11
199.900615
21
446.272967
0
LINE
8
boundary
62
5
39
2
10
199.900615
20
446.272967
11
196.646990
21
417.815707
0
LINE
8
boundary
62
5
39
2
10
196.646990
20
417.815707
11
196.477335
21
416.331141
0
LINE
8
boundary
62
5
39
2
10
196.477335
20
416.331141
11
196.298148
21
414.763518
0
LINE
8
boundary
62
5
39
2
10
196.298148
20
414.763518
11
191.245066
21
370.422036
0
LINE
8
boundary
62
5
39
2
10
191.245066
20
370.422036
11
191.130835
21
369.424339
0
LINE
8
boundary
62
5
39
2
10
191.130835
20
369.424339
11
191.001949
21
368.297964
0
LINE
8
boundary
62
5
39
2
10
191.001949
20
368.297964
11
190.864331
21
367.095620
0
LINE
8
boundary
62
5
39
2
10
190.864331
20
367.095620
11
190.725095
21
365.877779
0
LINE
8
boundary
62
5
39
2
10
190.725095
20
365.877779
11
190.591220
21
364.706208
0
LINE
8
boundary
62
5
39
2
10
190.591220
20
364.706208
11
190.469243
21
363.638138
0
LINE
8
boundary
62
5
39
2
10
190.469243
20
363.638138
11
190.364445
21
362.720707
0
LINE
8
boundary
62
5
39
2
10
190.364445
20
362.720707
11
185.274165
21
318.067046
0
LINE
8
boundary
62
5
39
2
10
185.274165
20
318.067046
11
181.749628
21
287.239849
0
LINE
8
boundary
62
5
39
2
10
181.749628
20
287.239849
11
181.658432
21
286.577497
0
LINE
8
boundary
62
5
39
2
10
181.658432
20
286.577497
11
181.567910
21
284.679838
0
LINE
8
boundary
62
5
39
2
10
181.567910
20
284.679838
11
181.548867
21
283.226858
0
LINE
8
boundary
62
5
39
2
10
181.548867
20
283.226858
11
181.710840
21
280.826004
0
LINE
8
boundary
62
5
39
2
10
181.710840
20
280.826004
11
181.861019
21
279.550500
0
LINE
8
boundary
62
5
39
2
10
181.861019
20
279.550500
11
182.311190
21
277.186675
0
LINE
8
boundary
62
5
39
2
10
182.311190
20
277.186675
11
182.622450
21
275.940650
0
LINE
8
boundary
62
5
39
2
10
182.622450
20
275.940650
11
183.354278
21
273.648324
0
LINE
8
boundary
62
5
39
2
10
183.354278
20
273.648324
11
183.821556
21
272.452039
0
LINE
8
boundary
62
5
39
2
10
183.821556
20
272.452039
11
184.824358
21
270.264637
0
LINE
8
boundary
62
5
39
2
10
184.824358
20
270.264637
11
185.440061
21
269.137531
0
LINE
8
boundary
62
5
39
2
10
185.440061
20
269.137531
11
186.699204
21
267.086956
0
LINE
8
boundary
62
5
39
2
10
186.699204
20
267.086956
11
187.453320
21
266.047361
0
LINE
8
boundary
62
5
39
2
10
187.453320
20
266.047361
11
188.950463
21
264.163508
0
LINE
8
boundary
62
5
39
2
10
188.950463
20
264.163508
11
189.830739
21
263.228326
0
LINE
8
boundary
62
5
39
2
10
189.830739
20
263.228326
11
191.544024
21
261.538667
0
LINE
8
boundary
62
5
39
2
10
191.544024
20
261.538667
11
192.536132
21
260.723092
0
LINE
8
boundary
62
5
39
2
10
192.536132
20
260.723092
11
194.440608
21
259.252268
0
LINE
8
boundary
62
5
39
2
10
194.440608
20
259.252268
11
195.528431
21
258.569570
0
LINE
8
boundary
62
5
39
2
10
195.528431
20
258.569570
11
197.596305
21
257.339026
0
LINE
8
boundary
62
5
39
2
10
197.596305
20
257.339026
11
198.762165
21
256.800301
0
LINE
8
boundary
62
5
39
2
10
198.762165
20
256.800301
11
200.963287
21
255.827989
0
LINE
8
boundary
62
5
39
2
10
200.963287
20
255.827989
11
202.188218
21
255.441993
0
LINE
8
boundary
62
5
39
2
10
202.188218
20
255.441993
11
204.490784
21
254.742010
0
LINE
8
boundary
62
5
39
2
10
204.490784
20
254.742010
11
205.755051
21
254.514981
0
LINE
8
boundary
62
5
39
2
10
205.755051
20
254.514981
11
208.125274
21
254.097674
0
LINE
8
boundary
62
5
39
2
10
208.125274
20
254.097674
11
240.152557
21
250.435124
0
LINE
8
boundary
62
5
39
2
10
240.152557
20
250.435124
11
295.184862
21
244.141774
0
LINE
8
boundary
62
5
39
2
10
295.184862
20
244.141774
11
320.554751
21
241.362286
0
LINE
8
boundary
62
5
39
2
10
320.554751
20
241.362286
11
321.489881
21
241.353925
0
LINE
8
boundary
62
5
39
2
10
321.489881
20
241.353925
11
323.537845
21
241.770016
0
LINE
8
boundary
62
5
39
2
10
323.537845
20
241.770016
11
325.249941
21
242.513839
0
LINE
8
annotation
62
1
39
211
10
202.773118
20
308.979446
11
195.369334
21
308.979446
0
LINE
8
annotation
62
1
39
211
10
195.369334
20
308.979446
11
202.210673
21
319.993124
0
LINE
8
annotation
62
1
39
211
10
202.210673
20
319.993124
11
202.210673
21
319.993124
0
LINE
8
annotation
62
1
39
211
10
202.210673
20
319.993124
11
202.218851
21
320.003244
0
LINE
8
annotation
62
1
39
211
10
202.218851
20
320.003244
11
202.226694
21
320.013450
0
LINE
8
annotation
62
1
39
211
10
202.226694
20
320.013450
11
202.234253
21
320.023829
0
LINE
8
annotation
62
1
39
211
10
202.234253
20
320.023829
11
202.241580
21
320.034465
0
LINE
8
annotation
62
1
39
211
10
202.241580
20
320.034465
11
202.248726
21
320.045446
0
LINE
8
annotation
62
1
39
211
10
202.248726
20
320.045446
11
202.255743
21
320.056857
0
LINE
8
annotation
62
1
39
211
10
202.255743
20
320.056857
11
202.262682
21
320.068784
0
LINE
8
annotation
62
1
39
211
10
202.262682
20
320.068784
11
202.269596
21
320.081313
0
LINE
8
annotation
62
1
39
211
10
202.269596
20
320.081313
11
202.276535
21
320.094531
0
LINE
8
annotation
62
1
39
211
10
202.276535
20
320.094531
11
202.276535
21
320.094531
0
LINE
8
annotation
62
1
39
211
10
202.276535
20
320.094531
11
202.559013
21
320.701034
0
LINE
8
annotation
62
1
39
211
10
202.559013
20
320.701034
11
202.724031
21
321.329727
0
LINE
8
annotation
62
1
39
211
10
202.724031
20
321.329727
11
202.775635
21
321.966405
0
LINE
8
annotation
62
1
39
211
10
202.775635
20
321.966405
11
202.717867
21
322.596863
0
LINE
8
annotation
62
1
39
211
10
202.717867
20
322.596863
11
202.554774
21
323.206893
0
LINE
8
annotation
62
1
39
211
10
202.554774
20
323.206893
11
202.290397
21
323.782291
0
LINE
8
annotation
62
1
39
211
10
202.290397
20
323.782291
11
201.928782
21
324.308849
0
LINE
8
annotation
62
1
39
211
10
201.928782
20
324.308849
11
201.473972
21
324.772364
0
LINE
8
annotation
62
1
39
211
10
201.473972
20
324.772364
11
200.930013
21
325.158628
0
LINE
8
annotation
62
1
39
211
10
200.930013
20
325.158628
11
200.930013
21
325.158628
0
LINE
8
annotation
62
1
39
211
10
200.930013
20
325.158628
11
200.321824
21
325.437091
0
LINE
8
annotation
62
1
39
211
10
200.321824
20
325.437091
11
199.692166
21
325.599567
0
LINE
8
annotation
62
1
39
211
10
199.692166
20
325.599567
11
199.055118
21
325.649712
0
LINE
8
annotation
62
1
39
211
10
199.055118
20
325.649712
11
198.424756
21
325.591183
0
LINE
8
annotation
62
1
39
211
10
198.424756
20
325.591183
11
197.815155
21
325.427638
0
LINE
8
annotation
62
1
39
211
10
197.815155
20
325.427638
11
197.240395
21
325.162732
0
LINE
8
annotation
62
1
39
211
10
197.240395
20
325.162732
11
196.714550
21
324.800123
0
LINE
8
annotation
62
1
39
211
10
196.714550
20
324.800123
11
196.251698
21
324.343468
0
LINE
8
annotation
62
1
39
211
10
196.251698
20
324.343468
11
195.865916
21
323.796423
0
LINE
8
annotation
62
1
39
211
10
195.865916
20
323.796423
11
195.379788
21
322.863894
0
LINE
8
annotation
62
1
39
211
10
209.025828
20
312.675724
11
209.025828
21
312.675724
0
LINE
8
annotation
62
1
39
211
10
209.025828
20
312.675724
11
209.085595
21
312.010109
0
LINE
8
annotation
62
1
39
211
10
209.085595
20
312.010109
11
209.257866
21
311.384100
0
LINE
8
annotation
62
1
39
211
10
209.257866
20
311.384100
11
209.532090
21
310.808031
0
LINE
8
annotation
62
1
39
211
10
209.532090
20
310.808031
11
209.897719
21
310.292236
0
LINE
8
annotation
62
1
39
211
10
209.897719
20
310.292236
11
210.344204
21
309.847049
0
LINE
8
annotation
62
1
39
211
10
210.344204
20
309.847049
11
210.860995
21
309.482804
0
LINE
8
annotation
62
1
39
211
10
210.860995
20
309.482804
11
211.437545
21
309.209835
0
LINE
8
annotation
62
1
39
211
10
211.437545
20
309.209835
11
212.063302
21
309.038475
0
LINE
8
annotation
62
1
39
211
10
212.063302
20
309.038475
11
212.727720
21
308.979059
0
LINE
8
annotation
62
1
39
211
10
212.727720
20
308.979059
11
212.727720
21
308.979059
0
LINE
8
annotation
62
1
39
211
10
212.727720
20
308.979059
11
213.392137
21
309.038475
0
LINE
8
annotation
62
1
39
211
10
213.392137
20
309.038475
11
214.017895
21
309.209835
0
LINE
8
annotation
62
1
39
211
10
214.017895
20
309.209835
11
214.594444
21
309.482804
0
LINE
8
annotation
62
1
39
211
10
214.594444
20
309.482804
11
215.111236
21
309.847049
0
LINE
8
annotation
62
1
39
211
10
215.111236
20
309.847049
11
215.557721
21
310.292236
0
LINE
8
annotation
62
1
39
211
10
215.557721
20
310.292236
11
215.923350
21
310.808031
0
LINE
8
annotation
62
1
39
211
10
215.923350
20
310.808031
11
216.197574
21
311.384100
0
LINE
8
annotation
62
1
39
211
10
216.197574
20
311.384100
11
216.369844
21
312.010109
0
LINE
8
annotation
62
1
39
211
10
216.369844
20
312.010109
11
216.429612
21
312.675724
0
LINE
8
annotation
62
1
39
211
10
216.429612
20
312.675724
11
216.429612
21
314.519874
0
LINE
8
annotation
62
1
39
211
10
216.429612
20
314.519874
11
216.429612
21
314.519874
0
LINE
8
annotation
62
1
39
211
10
216.429612
20
314.519874
11
216.369879
21
315.185812
0
LINE
8
annotation
62
1
39
211
10
216.369879
20
315.185812
11
216.197694
21
315.812685
0
LINE
8
annotation
62
1
39
211
10
216.197694
20
315.812685
11
215.923582
21
316.390006
0
LINE
8
annotation
62
1
39
211
10
215.923582
20
316.390006
11
215.558065
21
316.907285
0
LINE
8
annotation
62
1
39
211
10
215.558065
20
316.907285
11
215.111666
21
317.354034
0
LINE
8
annotation
62
1
39
211
10
215.111666
20
317.354034
11
214.594909
21
317.719763
0
LINE
8
annotation
62
1
39
211
10
214.594909
20
317.719763
11
214.018317
21
317.993984
0
LINE
8
annotation
62
1
39
211
10
214.018317
20
317.993984
11
213.392413
21
318.166209
0
LINE
8
annotation
62
1
39
211
10
213.392413
20
318.166209
11
212.727720
21
318.225948
0
LINE
8
annotation
62
1
39
211
10
212.727720
20
318.225948
11
212.727720
21
318.225948
0
LINE
8
annotation
62
1
39
211
10
212.727720
20
318.225948
11
212.063027
21
318.166175
0
LINE
8
annotation
62
1
39
211
10
212.063027
20
318.166175
11
211.437123
21
317.993864
0
LINE
8
annotation
62
1
39
211
10
211.437123
20
317.993864
11
210.860531
21
317.719531
0
LINE
8
annotation
62
1
39
211
10
210.860531
20
317.719531
11
210.343774
21
317.353690
0
LINE
8
annotation
62
1
39
211
10
210.343774
20
317.353690
11
209.897375
21
316.906855
0
LINE
8
annotation
62
1
39
211
10
209.897375
20
316.906855
11
209.531858
21
316.389541
0
LINE
8
annotation
62
1
39
211
10
209.531858
20
316.389541
11
209.257745
21
315.812264
0
LINE
8
annotation
62
1
39
211
10
209.257745
20
315.812264
11
209.085561
21
315.185536
0
LINE
8
annotation
62
1
39
211
10
209.085561
20
315.185536
11
209.025828
21
314.519874
0
LINE
8
annotation
62
1
39
211
10
209.025828
20
314.519874
11
209.025828
21
312.675724
0
LINE
8
annotation
62
1
39
211
10
216.429612
20
321.933068
11
216.429612
21
321.933068
0
LINE
8
annotation
62
1
39
211
10
216.429612
20
321.933068
11
216.369879
21
322.595929
0
LINE
8
annotation
62
1
39
211
10
216.369879
20
322.595929
11
216.197694
21
323.220475
0
LINE
8
annotation
62
1
39
211
10
216.197694
20
323.220475
11
215.923582
21
323.796114
0
LINE
8
annotation
62
1
39
211
10
215.923582
20
323.796114
11
215.558065
21
324.312253
0
LINE
8
annotation
62
1
39
211
10
215.558065
20
324.312253
11
215.111666
21
324.758300
0
LINE
8
annotation
62
1
39
211
10
215.111666
20
324.758300
11
214.594909
21
325.123664
0
LINE
8
annotation
62
1
39
211
10
214.594909
20
325.123664
11
214.018317
21
325.397752
0
LINE
8
annotation
62
1
39
211
10
214.018317
20
325.397752
11
213.392413
21
325.569972
0
LINE
8
annotation
62
1
39
211
10
213.392413
20
325.569972
11
212.727720
21
325.629733
0
LINE
8
annotation
62
1
39
211
10
212.727720
20
325.629733
11
212.727720
21
325.629733
0
LINE
8
annotation
62
1
39
211
10
212.727720
20
325.629733
11
212.063027
21
325.569972
0
LINE
8
annotation
62
1
39
211
10
212.063027
20
325.569972
11
211.437123
21
325.397752
0
LINE
8
annotation
62
1
39
211
10
211.437123
20
325.397752
11
210.860531
21
325.123664
0
LINE
8
annotation
62
1
39
211
10
210.860531
20
325.123664
11
210.343774
21
324.758300
0
LINE
8
annotation
62
1
39
211
10
210.343774
20
324.758300
11
209.897375
21
324.312253
0
LINE
8
annotation
62
1
39
211
10
209.897375
20
324.312253
11
209.531858
21
323.796114
0
LINE
8
annotation
62
1
39
211
10
209.531858
20
323.796114
11
209.257745
21
323.220475
0
LINE
8
annotation
62
1
39
211
10
209.257745
20
323.220475
11
209.085561
21
322.595929
0
LINE
8
annotation
62
1
39
211
10
209.085561
20
322.595929
11
209.025828
21
321.933068
0
LINE
8
annotation
62
1
39
211
10
209.025828
20
321.933068
11
209.025828
21
321.933068
0
LINE
8
annotation
62
1
39
211
10
209.025828
20
321.933068
11
209.085595
21
321.267094
0
LINE
8
annotation
62
1
39
211
10
209.085595
20
321.267094
11
209.257866
21
320.640124
0
LINE
8
annotation
62
1
39
211
10
209.257866
20
320.640124
11
209.532090
21
320.062665
0
LINE
8
annotation
62
1
39
211
10
209.532090
20
320.062665
11
209.897719
21
319.545221
0
LINE
8
annotation
62
1
39
211
10
209.897719
20
319.545221
11
210.344204
21
319.098299
0
LINE
8
annotation
62
1
39
211
10
210.344204
20
319.098299
11
210.860995
21
318.732404
0
LINE
8
annotation
62
1
39
211
10
210.860995
20
318.732404
11
211.437545
21
318.458044
0
LINE
8
annotation
62
1
39
211
10
211.437545
20
318.458044
11
212.063302
21
318.285723
0
LINE
8
annotation
62
1
39
211
10
212.063302
20
318.285723
11
212.727720
21
318.225948
0
LINE
8
annotation
62
1
39
211
10
212.727720
20
318.225948
11
212.727720
21
318.225948
0
LINE
8
annotation
62
1
39
211
10
212.727720
20
318.225948
11
213.392137
21
318.285723
0
LINE
8
annotation
62
1
39
211
10
213.392137
20
318.285723
11
214.017895
21
318.458044
0
LINE
8
annotation
62
1
39
211
10
214.017895
20
318.458044
11
214.594444
21
318.732404
0
LINE
8
annotation
62
1
39
211
10
214.594444
20
318.732404
11
215.111236
21
319.098299
0
LINE
8
annotation
62
1
39
211
10
215.111236
20
319.098299
11
215.557721
21
319.545221
0
LINE
8
annotation
62
1
39
211
10
215.557721
20
319.545221
11
215.923350
21
320.062665
0
LINE
8
annotation
62
1
39
211
10
215.923350
20
320.062665
11
216.197574
21
320.640124
0
LINE
8
annotation
62
1
39
211
10
216.197574
20
320.640124
11
216.369844
21
321.267094
0
LINE
8
annotation
62
1
39
211
10
216.369844
20
321.267094
11
216.429612
21
321.933068
0
LINE
8
boundary
62
5
39
2
10
155.627179
20
486.383221
11
158.223982
21
509.090818
0
LINE
8
boundary
62
5
39
2
10
158.223982
20
509.090818
11
160.813876
21
531.351373
0
LINE
8
boundary
62
5
39
2
10
160.813876
20
531.351373
11
160.622907
21
532.406620
0
LINE
8
boundary
62
5
39
2
10
160.622907
20
532.406620
11
160.230803
21
533.393597
0
LINE
8
boundary
62
5
39
2
10
160.230803
20
533.393597
11
159.654015
21
534.283449
0
LINE
8
boundary
62
5
39
2
10
159.654015
20
534.283449
11
166.964850
21
584.220625
0
LINE
8
boundary
62
5
39
2
10
166.964850
20
584.220625
11
173.132669
21
638.154444
0
LINE
8
boundary
62
5
39
2
10
173.132669
20
638.154444
11
178.326223
21
683.569522
0
LINE
8
boundary
62
5
39
2
10
178.326223
20
683.569522
11
178.369625
21
685.238307
0
LINE
8
boundary
62
5
39
2
10
178.369625
20
685.238307
11
178.305431
21
685.907093
0
LINE
8
boundary
62
5
39
2
10
178.305431
20
685.907093
11
178.065082
21
687.215458
0
LINE
8
boundary
62
5
39
2
10
178.065082
20
687.215458
11
177.863223
21
687.856354
0
LINE
8
boundary
62
5
39
2
10
177.863223
20
687.856354
11
177.373102
21
689.093057
0
LINE
8
boundary
62
5
39
2
10
177.373102
20
689.093057
11
177.042396
21
689.677999
0
LINE
8
boundary
62
5
39
2
10
177.042396
20
689.677999
11
176.320601
21
690.795387
0
LINE
8
boundary
62
5
39
2
10
176.320601
20
690.795387
11
175.875503
21
691.298787
0
LINE
8
boundary
62
5
39
2
10
175.875503
20
691.298787
11
174.949641
21
692.253920
0
LINE
8
boundary
62
5
39
2
10
174.949641
20
692.253920
11
174.409604
21
692.653784
0
LINE
8
boundary
62
5
39
2
10
174.409604
20
692.653784
11
173.315212
21
693.409961
0
LINE
8
boundary
62
5
39
2
10
173.315212
20
693.409961
11
172.703831
21
693.688786
0
LINE
8
boundary
62
5
39
2
10
172.703831
20
693.688786
11
171.482963
21
694.216894
0
LINE
8
boundary
62
5
39
2
10
171.482963
20
694.216894
11
170.182503
21
694.496733
0
LINE
8
boundary
62
5
39
2
10
170.182503
20
694.496733
11
94.677563
21
703.131279
0
LINE
8
boundary
62
5
39
2
10
94.677563
20
703.131279
11
67.454418
21
706.315080
0
LINE
8
boundary
62
5
39
2
10
67.454418
20
706.315080
11
58.255388
21
707.367059
0
LINE
8
boundary
62
5
39
2
10
58.255388
20
707.367059
11
57.515450
21
707.406662
0
LINE
8
boundary
62
5
39
2
10
57.515450
20
707.406662
11
54.637926
21
707.560668
0
LINE
8
boundary
62
5
39
2
10
54.637926
20
707.560668
11
53.898607
21
707.510786
0
LINE
8
boundary
62
5
39
2
10
53.898607
20
707.510786
11
51.023510
21
707.316807
0
LINE
8
boundary
62
5
39
2
10
51.023510
20
707.316807
11
50.295591
21
707.178183
0
LINE
8
boundary
62
5
39
2
10
50.295591
20
707.178183
11
47.464820
21
706.639079
0
LINE
8
boundary
62
5
39
2
10
47.464820
20
706.639079
11
46.758918
21
706.413719
0
LINE
8
boundary
62
5
39
2
10
46.758918
20
706.413719
11
44.013788
21
705.537314
0
LINE
8
boundary
62
5
39
2
10
44.013788
20
705.537314
11
43.340194
21
705.228508
0
LINE
8
boundary
62
5
39
2
10
43.340194
20
705.228508
11
40.720710
21
704.027604
0
LINE
8
boundary
62
5
39
2
10
40.720710
20
704.027604
11
40.089256
21
703.639861
0
LINE
8
boundary
62
5
39
2
10
40.089256
20
703.639861
11
37.633612
21
702.131985
0
LINE
8
boundary
62
5
39
2
10
37.633612
20
702.131985
11
35.377627
21
700.339100
0
LINE
8
boundary
62
5
39
2
10
35.377627
20
700.339100
11
34.797508
21
699.878067
0
LINE
8
boundary
62
5
39
2
10
34.797508
20
699.878067
11
32.774062
21
697.826340
0
LINE
8
boundary
62
5
39
2
10
32.774062
20
697.826340
11
32.253752
21
697.298753
0
LINE
8
boundary
62
5
39
2
10
32.253752
20
697.298753
11
30.492350
21
695.018097
0
LINE
8
boundary
62
5
39
2
10
30.492350
20
695.018097
11
30.039428
21
694.431632
0
LINE
8
boundary
62
5
39
2
10
30.039428
20
694.431632
11
28.565697
21
691.955320
0
LINE
8
boundary
62
5
39
2
10
28.565697
20
691.955320
11
28.186766
21
691.318552
0
LINE
8
boundary
62
5
39
2
10
28.186766
20
691.318552
11
27.022091
21
688.682703
0
LINE
8
boundary
62
5
39
2
10
27.022091
20
688.682703
11
26.722693
21
688.004919
0
LINE
8
boundary
62
5
39
2
10
26.722693
20
688.004919
11
25.883246
21
685.248142
0
LINE
8
boundary
62
5
39
2
10
25.883246
20
685.248142
11
25.667718
21
684.539168
0
LINE
8
boundary
62
5
39
2
10
25.667718
20
684.539168
11
25.169809
21
681.700284
0
LINE
8
boundary
62
5
39
2
10
25.169809
20
681.700284
11
17.939540
21
618.477157
0
LINE
8
boundary
62
5
39
2
10
17.939540
20
618.477157
11
16.048404
21
602.334051
0
LINE
8
boundary
62
5
39
2
10
16.048404
20
602.334051
11
15.963060
21
601.587814
0
LINE
8
boundary
62
5
39
2
10
15.963060
20
601.587814
11
15.875662
21
600.823454
0
LINE
8
boundary
62
5
39
2
10
15.875662
20
600.823454
11
15.478652
21
597.342083
0
LINE
8
boundary
62
5
39
2
10
15.478652
20
597.342083
11
7.785595
21
530.067533
0
LINE
8
boundary
62
5
39
2
10
7.785595
20
530.067533
11
6.858953
21
521.970463
0
LINE
8
boundary
62
5
39
2
10
6.858953
20
521.970463
11
6.825710
21
521.312384
0
LINE
8
boundary
62
5
39
2
10
6.825710
20
521.312384
11
6.667500
21
518.392759
0
LINE
8
boundary
62
5
39
2
10
6.667500
20
518.392759
11
6.714522
21
517.695794
0
LINE
8
boundary
62
5
39
2
10
6.714522
20
517.695794
11
6.911985
21
514.778275
0
LINE
8
boundary
62
5
39
2
10
6.911985
20
514.778275
11
7.042677
21
514.092018
0
LINE
8
boundary
62
5
39
2
10
7.042677
20
514.092018
11
7.590051
21
511.219555
0
LINE
8
boundary
62
5
39
2
10
7.590051
20
511.219555
11
7.802519
21
510.554038
0
LINE
8
boundary
62
5
39
2
10
7.802519
20
510.554038
11
8.692016
21
507.768494
0
LINE
8
boundary
62
5
39
2
10
8.692016
20
507.768494
11
8.983158
21
507.133429
0
LINE
8
boundary
62
5
39
2
10
8.983158
20
507.133429
11
10.201842
21
504.475405
0
LINE
8
boundary
62
5
39
2
10
10.201842
20
504.475405
11
10.567411
21
503.880059
0
LINE
8
boundary
62
5
39
2
10
10.567411
20
503.880059
11
12.097569
21
501.388301
0
LINE
8
boundary
62
5
39
2
10
12.097569
20
501.388301
11
12.532238
21
500.841355
0
LINE
8
boundary
62
5
39
2
10
12.532238
20
500.841355
11
14.351556
21
498.552202
0
LINE
8
boundary
62
5
39
2
10
14.351556
20
498.552202
11
14.848987
21
498.061636
0
LINE
8
boundary
62
5
39
2
10
14.848987
20
498.061636
11
16.930936
21
496.008467
0
LINE
8
boundary
62
5
39
2
10
16.930936
20
496.008467
11
17.483874
21
495.581433
0
LINE
8
boundary
62
5
39
2
10
17.483874
20
495.581433
11
19.798135
21
493.794181
0
LINE
8
boundary
62
5
39
2
10
19.798135
20
493.794181
11
20.398517
21
493.436906
0
LINE
8
boundary
62
5
39
2
10
20.398517
20
493.436906
11
22.911302
21
491.941623
0
LINE
8
boundary
62
5
39
2
10
22.911302
20
491.941623
11
23.550376
21
491.659323
0
LINE
8
boundary
62
5
39
2
10
23.550376
20
491.659323
11
26.225089
21
490.477835
0
LINE
8
boundary
62
5
39
2
10
26.225089
20
490.477835
11
29.022689
21
489.627359
0
LINE
8
boundary
62
5
39
2
10
29.022689
20
489.627359
11
29.691247
21
489.424118
0
LINE
8
boundary
62
5
39
2
10
29.691247
20
489.424118
11
32.571579
21
488.917157
0
LINE
8
boundary
62
5
39
2
10
32.571579
20
488.917157
11
122.384247
21
478.646416
0
LINE
8
boundary
62
5
39
2
10
122.384247
20
478.646416
11
139.051723
21
476.697910
0
LINE
8
boundary
62
5
39
2
10
139.051723
20
476.697910
11
144.532131
21
476.071178
0
LINE
8
boundary
62
5
39
2
10
144.532131
20
476.071178
11
145.204380
21
476.065044
0
LINE
8
boundary
62
5
39
2
10
145.204380
20
476.065044
11
146.535387
21
476.043938
0
LINE
8
boundary
62
5
39
2
10
146.535387
20
476.043938
11
147.844014
21
476.283076
0
LINE
8
boundary
62
5
39
2
10
147.844014
20
476.283076
11
148.502683
21
476.416854
0
LINE
8
boundary
62
5
39
2
10
148.502683
20
476.416854
11
149.739537
21
476.906686
0
LINE
8
boundary
62
5
39
2
10
149.739537
20
476.906686
11
150.355824
21
477.174437
0
LINE
8
boundary
62
5
39
2
10
150.355824
20
477.174437
11
151.473389
21
477.896130
0
LINE
8
boundary
62
5
39
2
10
151.473389
20
477.896130
11
152.020537
21
478.286150
0
LINE
8
boundary
62
5
39
2
10
152.020537
20
478.286150
11
152.975900
21
479.211980
0
LINE
8
boundary
62
5
39
2
10
152.975900
20
479.211980
11
153.429992
21
479.707235
0
LINE
8
boundary
62
5
39
2
10
153.429992
20
479.707235
11
154.186988
21
480.801233
0
LINE
8
boundary
62
5
39
2
10
154.186988
20
480.801233
11
154.528165
21
481.380032
0
LINE
8
boundary
62
5
39
2
10
154.528165
20
481.380032
11
155.055194
21
482.601440
0
LINE
8
boundary
62
5
39
2
10
155.055194
20
482.601440
11
155.268598
21
483.238588
0
LINE
8
boundary
62
5
39
2
10
155.268598
20
483.238588
11
155.547888
21
484.539187
0
LINE
8
boundary
62
5
39
2
10
155.547888
20
484.539187
11
155.627179
21
486.383221
0
LINE
8
annotation
62
1
39
211
10
150.543294
20
494.736093
11
150.537383
21
494.740179
0
LINE
8
annotation
62
1
39
211
10
150.537383
20
494.740179
11
150.382185
21
494.810737
0
LINE
8
annotation
62
1
39
211
10
150.382185
20
494.810737
11
148.730194
21
495.525851
0
LINE
8
annotation
62
1
39
211
10
148.730194
20
495.525851
11
146.970472
21
495.904326
0
LINE
8
annotation
62
1
39
211
10
146.970472
20
495.904326
11
81.278919
21
503.416771
0
LINE
8
annotation
62
1
39
211
10
81.278919
20
503.416771
11
76.698854
21
503.958173
0
LINE
8
annotation
62
1
39
211
10
76.698854
20
503.958173
11
75.212726
21
504.132054
0
LINE
8
annotation
62
1
39
211
10
75.212726
20
504.132054
11
75.153413
21
504.142391
0
LINE
8
annotation
62
1
39
211
10
75.153413
20
504.142391
11
71.703572
21
504.749757
0
LINE
8
annotation
62
1
39
211
10
71.703572
20
504.749757
11
68.352775
21
505.768113
0
LINE
8
annotation
62
1
39
211
10
68.352775
20
505.768113
11
68.237365
21
505.803547
0
LINE
8
annotation
62
1
39
211
10
68.237365
20
505.803547
11
65.033808
21
507.218307
0
LINE
8
annotation
62
1
39
211
10
65.033808
20
507.218307
11
64.923910
21
507.267232
0
LINE
8
annotation
62
1
39
211
10
64.923910
20
507.267232
11
61.913840
21
509.057966
0
LINE
8
annotation
62
1
39
211
10
61.913840
20
509.057966
11
61.810779
21
509.119533
0
LINE
8
annotation
62
1
39
211
10
61.810779
20
509.119533
11
59.038787
21
511.260158
0
LINE
8
annotation
62
1
39
211
10
59.038787
20
511.260158
11
58.943377
21
511.333869
0
LINE
8
annotation
62
1
39
211
10
58.943377
20
511.333869
11
56.449746
21
513.793038
0
LINE
8
annotation
62
1
39
211
10
56.449746
20
513.793038
11
56.363859
21
513.877902
0
LINE
8
annotation
62
1
39
211
10
56.363859
20
513.877902
11
54.184866
21
516.619393
0
LINE
8
annotation
62
1
39
211
10
54.184866
20
516.619393
11
54.110191
21
516.713832
0
LINE
8
annotation
62
1
39
211
10
54.110191
20
516.713832
11
52.277245
21
519.698165
0
LINE
8
annotation
62
1
39
211
10
52.277245
20
519.698165
11
52.214235
21
519.800742
0
LINE
8
annotation
62
1
39
211
10
52.214235
20
519.800742
11
50.754413
21
522.984502
0
LINE
8
annotation
62
1
39
211
10
50.754413
20
522.984502
11
50.704365
21
523.093936
0
LINE
8
annotation
62
1
39
211
10
50.704365
20
523.093936
11
49.638820
21
526.430168
0
LINE
8
annotation
62
1
39
211
10
49.638820
20
526.430168
11
49.602244
21
526.544877
0
LINE
8
annotation
62
1
39
211
10
49.602244
20
526.544877
11
48.945796
21
529.985469
0
LINE
8
annotation
62
1
39
211
10
48.945796
20
529.985469
11
48.923280
21
530.103403
0
LINE
8
annotation
62
1
39
211
10
48.923280
20
530.103403
11
48.915472
21
530.223742
0
LINE
8
annotation
62
1
39
211
10
48.915472
20
530.223742
11
48.681182
21
533.718314
0
LINE
8
annotation
62
1
39
211
10
48.681182
20
533.718314
11
48.869300
21
537.215537
0
LINE
8
annotation
62
1
39
211
10
48.869300
20
537.215537
11
49.032288
21
538.704166
0
LINE
8
annotation
62
1
39
211
10
49.032288
20
538.704166
11
49.041839
21
538.788422
0
LINE
8
annotation
62
1
39
211
10
49.041839
20
538.788422
11
49.050770
21
538.869420
0
LINE
8
annotation
62
1
39
211
10
49.050770
20
538.869420
11
49.059267
21
538.942852
0
LINE
8
annotation
62
1
39
211
10
49.059267
20
538.942852
11
62.329419
21
654.983954
0
LINE
8
annotation
62
1
39
211
10
62.329419
20
654.983954
11
62.338469
21
655.061830
0
LINE
8
annotation
62
1
39
211
10
62.338469
20
655.061830
11
62.347710
21
655.145069
0
LINE
8
annotation
62
1
39
211
10
62.347710
20
655.145069
11
62.357581
21
655.228723
0
LINE
8
annotation
62
1
39
211
10
62.357581
20
655.228723
11
62.366548
21
655.309735
0
LINE
8
annotation
62
1
39
211
10
62.366548
20
655.309735
11
62.375308
21
655.383894
0
LINE
8
annotation
62
1
39
211
10
62.375308
20
655.383894
11
62.382694
21
655.449121
0
LINE
8
annotation
62
1
39
211
10
62.382694
20
655.449121
11
62.519793
21
656.614984
0
LINE
8
annotation
62
1
39
211
10
62.519793
20
656.614984
11
62.530209
21
656.674219
0
LINE
8
annotation
62
1
39
211
10
62.530209
20
656.674219
11
63.136172
21
660.124546
0
LINE
8
annotation
62
1
39
211
10
63.136172
20
660.124546
11
64.154110
21
663.475852
0
LINE
8
annotation
62
1
39
211
10
64.154110
20
663.475852
11
64.188839
21
663.591106
0
LINE
8
annotation
62
1
39
211
10
64.188839
20
663.591106
11
64.237611
21
663.700829
0
LINE
8
annotation
62
1
39
211
10
64.237611
20
663.700829
11
65.654486
21
666.903866
0
LINE
8
annotation
62
1
39
211
10
65.654486
20
666.903866
11
65.715986
21
667.007304
0
LINE
8
annotation
62
1
39
211
10
65.715986
20
667.007304
11
67.507400
21
670.017004
0
LINE
8
annotation
62
1
39
211
10
67.507400
20
670.017004
11
67.580896
21
670.112113
0
LINE
8
annotation
62
1
39
211
10
67.580896
20
670.112113
11
69.721615
21
672.883994
0
LINE
8
annotation
62
1
39
211
10
69.721615
20
672.883994
11
69.806375
21
672.969677
0
LINE
8
annotation
62
1
39
211
10
69.806375
20
672.969677
11
72.265438
21
675.463559
0
LINE
8
annotation
62
1
39
211
10
72.265438
20
675.463559
11
72.359727
21
675.538275
0
LINE
8
annotation
62
1
39
211
10
72.359727
20
675.538275
11
75.101667
21
677.717330
0
LINE
8
annotation
62
1
39
211
10
75.101667
20
677.717330
11
78.086108
21
679.549874
0
LINE
8
annotation
62
1
39
211
10
78.086108
20
679.549874
11
78.188634
21
679.612907
0
LINE
8
annotation
62
1
39
211
10
78.188634
20
679.612907
11
81.372042
21
681.072287
0
LINE
8
annotation
62
1
39
211
10
81.372042
20
681.072287
11
81.481549
21
681.122518
0
LINE
8
annotation
62
1
39
211
10
81.481549
20
681.122518
11
84.818167
21
682.187741
0
LINE
8
annotation
62
1
39
211
10
84.818167
20
682.187741
11
84.932502
21
682.224413
0
LINE
8
annotation
62
1
39
211
10
84.932502
20
682.224413
11
88.373088
21
682.879494
0
LINE
8
annotation
62
1
39
211
10
88.373088
20
682.879494
11
88.491251
21
682.902327
0
LINE
8
annotation
62
1
39
211
10
88.491251
20
682.902327
11
91.985883
21
683.137741
0
LINE
8
annotation
62
1
39
211
10
91.985883
20
683.137741
11
92.105969
21
683.146087
0
LINE
8
annotation
62
1
39
211
10
92.105969
20
683.146087
11
95.603094
21
682.958746
0
LINE
8
annotation
62
1
39
211
10
95.603094
20
682.958746
11
164.756861
21
675.050536
0
LINE
8
annotation
62
1
39
211
10
164.756861
20
675.050536
11
166.625572
21
674.844463
0
LINE
8
annotation
62
1
39
211
10
166.625572
20
674.844463
11
167.255283
21
674.772573
0
LINE
8
annotation
62
1
39
211
10
167.255283
20
674.772573
11
167.301217
21
674.772313
0
LINE
8
annotation
62
1
39
211
10
167.301217
20
674.772313
11
167.425747
21
674.770881
0
LINE
8
annotation
62
1
39
211
10
167.425747
20
674.770881
11
169.227095
21
674.742577
0
LINE
8
annotation
62
1
39
211
10
169.227095
20
674.742577
11
170.997762
21
675.065997
0
LINE
8
annotation
62
1
39
211
10
170.997762
20
675.065997
11
171.165357
21
675.099871
0
LINE
8
annotation
62
1
39
211
10
171.165357
20
675.099871
11
171.325818
21
675.163428
0
LINE
8
annotation
62
1
39
211
10
62.972351
20
529.840101
11
88.886115
21
529.840101
0
LINE
8
annotation
62
1
39
211
10
88.886115
20
529.840101
11
88.886115
21
529.840101
0
LINE
8
annotation
62
1
39
211
10
88.886115
20
529.840101
11
93.546768
21
530.258193
0
LINE
8
annotation
62
1
39
211
10
93.546768
20
530.258193
11
97.932280
21
531.463157
0
LINE
8
annotation
62
1
39
211
10
97.932280
20
531.463157
11
101.969711
21
533.381029
0
LINE
8
annotation
62
1
39
211
10
101.969711
20
533.381029
11
105.586119
21
535.937843
0
LINE
8
annotation
62
1
39
211
10
105.586119
20
535.937843
11
108.708563
21
539.059635
0
LINE
8
annotation
62
1
39
211
10
108.708563
20
539.059635
11
111.264103
21
542.672439
0
LINE
8
annotation
62
1
39
211
10
111.264103
20
542.672439
11
113.179796
21
546.702290
0
LINE
8
annotation
62
1
39
211
10
113.179796
20
546.702290
11
114.382702
21
551.075224
0
LINE
8
annotation
62
1
39
211
10
114.382702
20
551.075224
11
114.799880
21
555.717275
0
LINE
8
annotation
62
1
39
211
10
114.799880
20
555.717275
11
114.799880
21
568.692453
0
LINE
8
annotation
62
1
39
211
10
114.799880
20
568.692453
11
114.799880
21
568.692453
0
LINE
8
annotation
62
1
39
211
10
114.799880
20
568.692453
11
114.382702
21
573.332576
0
LINE
8
annotation
62
1
39
211
10
114.382702
20
573.332576
11
113.179796
21
577.704486
0
LINE
8
annotation
62
1
39
211
10
113.179796
20
577.704486
11
111.264103
21
581.734037
0
LINE
8
annotation
62
1
39
211
10
111.264103
20
581.734037
11
108.708563
21
585.347082
0
LINE
8
annotation
62
1
39
211
10
108.708563
20
585.347082
11
105.586119
21
588.469476
0
LINE
8
annotation
62
1
39
211
10
105.586119
20
588.469476
11
101.969711
21
591.027073
0
LINE
8
annotation
62
1
39
211
10
101.969711
20
591.027073
11
97.932280
21
592.945728
0
LINE
8
annotation
62
1
39
211
10
97.932280
20
592.945728
11
93.546768
21
594.151294
0
LINE
8
annotation
62
1
39
211
10
93.546768
20
594.151294
11
88.886115
21
594.569626
0
LINE
8
annotation
62
1
39
211
10
88.886115
20
594.569626
11
75.910938
21
594.569626
0
LINE
8
annotation
62
1
39
211
10
75.910938
20
594.569626
11
88.886115
21
594.569626
0
LINE
8
annotation
62
1
39
211
10
88.886115
20
594.569626
11
88.886115
21
594.569626
0
LINE
8
annotation
62
1
39
211
10
88.886115
20
594.569626
11
93.546768
21
594.988059
0
LINE
8
annotation
62
1
39
211
10
93.546768
20
594.988059
11
97.932280
21
596.194328
0
LINE
8
annotation
62
1
39
211
10
97.932280
20
596.194328
11
101.969711
21
598.114890
0
LINE
8
annotation
62
1
39
211
10
101.969711
20
598.114890
11
105.586119
21
600.676202
0
LINE
8
annotation
62
1
39
211
10
105.586119
20
600.676202
11
108.708563
21
603.804719
0
LINE
8
annotation
62
1
39
211
10
108.708563
20
603.804719
11
111.264103
21
607.426900
0
LINE
8
annotation
62
1
39
211
10
111.264103
20
607.426900
11
113.179796
21
611.469199
0
LINE
8
annotation
62
1
39
211
10
113.179796
20
611.469199
11
114.382702
21
615.858074
0
LINE
8
annotation
62
1
39
211
10
114.382702
20
615.858074
11
114.799880
21
620.519982
0
LINE
8
annotation
62
1
39
211
10
114.799880
20
620.519982
11
114.799880
21
620.519982
0
LINE
8
annotation
62
1
39
211
10
114.799880
20
620.519982
11
114.382702
21
625.160106
0
LINE
8
annotation
62
1
39
211
10
114.382702
20
625.160106
11
113.179796
21
629.532015
0
LINE
8
annotation
62
1
39
211
10
113.179796
20
629.532015
11
111.264103
21
633.561566
0
LINE
8
annotation
62
1
39
211
10
111.264103
20
633.561566
11
108.708563
21
637.174611
0
LINE
8
annotation
62
1
39
211
10
108.708563
20
637.174611
11
105.586119
21
640.297005
0
LINE
8
annotation
62
1
39
211
10
105.586119
20
640.297005
11
101.969711
21
642.854602
0
LINE
8
annotation
62
1
39
211
10
101.969711
20
642.854602
11
97.932280
21
644.773257
0
LINE
8
annotation
62
1
39
211
10
97.932280
20
644.773257
11
93.546768
21
645.978823
0
LINE
8
annotation
62
1
39
211
10
93.546768
20
645.978823
11
88.886115
21
646.397156
0
LINE
8
annotation
62
1
39
211
10
88.886115
20
646.397156
11
62.972351
21
646.397156
0
LINE
8
boundary
62
5
39
2
10
298.301518
20
478.474894
11
320.397592
21
476.054080
0
LINE
8
boundary
62
5
39
2
10
320.397592
20
476.054080
11
321.407373
21
476.045051
0
LINE
8
boundary
62
5
39
2
10
321.407373
20
476.045051
11
323.521052
21
476.457731
0
LINE
8
boundary
62
5
39
2
10
323.521052
20
476.457731
11
325.435053
21
477.286765
0
LINE
8
boundary
62
5
39
2
10
325.435053
20
477.286765
11
327.135373
21
478.494842
0
LINE
8
boundary
62
5
39
2
10
327.135373
20
478.494842
11
328.548014
21
480.029399
0
LINE
8
boundary
62
5
39
2
10
328.548014
20
480.029399
11
329.611518
21
481.823578
0
LINE
8
boundary
62
5
39
2
10
329.611518
20
481.823578
11
330.296711
21
483.882708
0
LINE
8
boundary
62
5
39
2
10
330.296711
20
483.882708
11
330.522107
21
485.855660
0
LINE
8
boundary
62
5
39
2
10
330.522107
20
485.855660
11
330.333744
21
487.930613
0
LINE
8
boundary
62
5
39
2
10
330.333744
20
487.930613
11
329.719603
21
489.921281
0
LINE
8
boundary
62
5
39
2
10
329.719603
20
489.921281
11
328.706153
21
491.741231
0
LINE
8
boundary
62
5
39
2
10
328.706153
20
491.741231
11
327.337516
21
493.311397
0
LINE
8
boundary
62
5
39
2
10
327.337516
20
493.311397
11
325.673238
21
494.563596
0
LINE
8
boundary
62
5
39
2
10
325.673238
20
494.563596
11
323.786205
21
495.443304
0
LINE
8
boundary
62
5
39
2
10
323.786205
20
495.443304
11
322.266305
21
495.794471
0
LINE
8
boundary
62
5
39
2
10
322.266305
20
495.794471
11
321.660159
21
495.928897
0
LINE
8
boundary
62
5
39
2
10
321.660159
20
495.928897
11
286.091697
21
500.105361
0
LINE
8
boundary
62
5
39
2
10
286.091697
20
500.105361
11
248.439880
21
504.411170
0
LINE
8
boundary
62
5
39
2
10
248.439880
20
504.411170
11
246.561627
21
504.741909
0
LINE
8
boundary
62
5
39
2
10
246.561627
20
504.741909
11
244.737234
21
505.296527
0
LINE
8
boundary
62
5
39
2
10
244.737234
20
505.296527
11
243.095327
21
505.795660
0
LINE
8
boundary
62
5
39
2
10
243.095327
20
505.795660
11
241.351066
21
506.566149
0
LINE
8
boundary
62
5
39
2
10
241.351066
20
506.566149
11
239.781579
21
507.259447
0
LINE
8
boundary
62
5
39
2
10
239.781579
20
507.259447
11
238.142918
21
508.234570
0
LINE
8
boundary
62
5
39
2
10
238.142918
20
508.234570
11
236.668442
21
509.111997
0
LINE
8
boundary
62
5
39
2
10
236.668442
20
509.111997
11
235.159269
21
510.277529
0
LINE
8
boundary
62
5
39
2
10
235.159269
20
510.277529
11
233.801308
21
511.326285
0
LINE
8
boundary
62
5
39
2
10
233.801308
20
511.326285
11
232.443624
21
512.665229
0
LINE
8
boundary
62
5
39
2
10
232.443624
20
512.665229
11
231.221974
21
513.870021
0
LINE
8
boundary
62
5
39
2
10
231.221974
20
513.870021
11
230.035586
21
515.362853
0
LINE
8
boundary
62
5
39
2
10
230.035586
20
515.362853
11
228.968063
21
516.706115
0
LINE
8
boundary
62
5
39
2
10
228.968063
20
516.706115
11
227.970259
21
518.331069
0
LINE
8
boundary
62
5
39
2
10
227.970259
20
518.331069
11
227.072437
21
519.793208
0
LINE
8
boundary
62
5
39
2
10
227.072437
20
519.793208
11
226.277782
21
521.526587
0
LINE
8
boundary
62
5
39
2
10
226.277782
20
521.526587
11
225.562746
21
523.086290
0
LINE
8
boundary
62
5
39
2
10
225.562746
20
523.086290
11
224.982819
21
524.902818
0
LINE
8
boundary
62
5
39
2
10
224.982819
20
524.902818
11
224.461002
21
526.537337
0
LINE
8
boundary
62
5
39
2
10
224.461002
20
526.537337
11
224.104257
21
528.410519
0
LINE
8
boundary
62
5
39
2
10
224.104257
20
528.410519
11
223.783254
21
530.096018
0
LINE
8
boundary
62
5
39
2
10
223.783254
20
530.096018
11
223.654884
21
531.998561
0
LINE
8
boundary
62
5
39
2
10
223.654884
20
531.998561
11
223.539397
21
533.710322
0
LINE
8
boundary
62
5
39
2
10
223.539397
20
533.710322
11
223.641292
21
535.614462
0
LINE
8
boundary
62
5
39
2
10
223.641292
20
535.614462
11
223.728598
21
537.328204
0
LINE
8
boundary
62
5
39
2
10
223.728598
20
537.328204
11
225.688637
21
554.429299
0
LINE
8
boundary
62
5
39
2
10
225.688637
20
554.429299
11
225.814660
21
555.531416
0
LINE
8
boundary
62
5
39
2
10
225.814660
20
555.531416
11
225.948589
21
556.702392
0
LINE
8
boundary
62
5
39
2
10
225.948589
20
556.702392
11
226.084335
21
557.889306
0
LINE
8
boundary
62
5
39
2
10
226.084335
20
557.889306
11
226.215169
21
559.033301
0
LINE
8
boundary
62
5
39
2
10
226.215169
20
559.033301
11
226.334320
21
560.075137
0
LINE
8
boundary
62
5
39
2
10
226.334320
20
560.075137
11
234.823178
21
634.305571
0
LINE
8
boundary
62
5
39
2
10
234.823178
20
634.305571
11
234.948929
21
635.405963
0
LINE
8
boundary
62
5
39
2
10
234.948929
20
635.405963
11
235.083095
21
636.578943
0
LINE
8
boundary
62
5
39
2
10
235.083095
20
636.578943
11
237.664241
21
658.237730
0
LINE
8
boundary
62
5
39
2
10
237.664241
20
658.237730
11
237.994988
21
660.115950
0
LINE
8
boundary
62
5
39
2
10
237.994988
20
660.115950
11
238.549605
21
661.940352
0
LINE
8
boundary
62
5
39
2
10
238.549605
20
661.940352
11
239.048726
21
663.582241
0
LINE
8
boundary
62
5
39
2
10
239.048726
20
663.582241
11
239.819221
21
665.326493
0
LINE
8
boundary
62
5
39
2
10
239.819221
20
665.326493
11
240.512524
21
666.895976
0
LINE
8
boundary
62
5
39
2
10
240.512524
20
666.895976
11
241.487639
21
668.534630
0
LINE
8
boundary
62
5
39
2
10
241.487639
20
668.534630
11
242.365062
21
670.009109
0
LINE
8
boundary
62
5
39
2
10
242.365062
20
670.009109
11
243.530590
21
671.518288
0
LINE
8
boundary
62
5
39
2
10
243.530590
20
671.518288
11
244.579350
21
672.876256
0
LINE
8
boundary
62
5
39
2
10
244.579350
20
672.876256
11
245.918289
21
674.233931
0
LINE
8
boundary
62
5
39
2
10
245.918289
20
674.233931
11
247.123083
21
675.455578
0
LINE
8
boundary
62
5
39
2
10
247.123083
20
675.455578
11
248.615920
21
676.641985
0
LINE
8
boundary
62
5
39
2
10
248.615920
20
676.641985
11
249.959180
21
677.709502
0
LINE
8
boundary
62
5
39
2
10
249.959180
20
677.709502
11
251.584128
21
678.707299
0
LINE
8
boundary
62
5
39
2
10
251.584128
20
678.707299
11
253.046274
21
679.605124
0
LINE
8
boundary
62
5
39
2
10
253.046274
20
679.605124
11
254.779647
21
680.399781
0
LINE
8
boundary
62
5
39
2
10
254.779647
20
680.399781
11
256.339350
21
681.114813
0
LINE
8
boundary
62
5
39
2
10
256.339350
20
681.114813
11
258.155875
21
681.694746
0
LINE
8
boundary
62
5
39
2
10
258.155875
20
681.694746
11
259.790396
21
682.216570
0
LINE
8
boundary
62
5
39
2
10
259.790396
20
682.216570
11
261.663579
21
682.573307
0
LINE
8
boundary
62
5
39
2
10
261.663579
20
682.573307
11
263.349078
21
682.894298
0
LINE
8
boundary
62
5
39
2
10
263.349078
20
682.894298
11
265.251600
21
683.022664
0
LINE
8
boundary
62
5
39
2
10
265.251600
20
683.022664
11
266.963361
21
683.138162
0
LINE
8
boundary
62
5
39
2
10
266.963361
20
683.138162
11
268.867474
21
683.036271
0
LINE
8
boundary
62
5
39
2
10
268.867474
20
683.036271
11
270.581207
21
682.948946
0
LINE
8
boundary
62
5
39
2
10
270.581207
20
682.948946
11
284.586733
21
681.343649
0
LINE
8
boundary
62
5
39
2
10
284.586733
20
681.343649
11
340.518710
21
675.156499
0
LINE
8
boundary
62
5
39
2
10
340.518710
20
675.156499
11
344.102883
21
674.746617
0
LINE
8
boundary
62
5
39
2
10
344.102883
20
674.746617
11
346.240377
21
675.157721
0
LINE
8
boundary
62
5
39
2
10
346.240377
20
675.157721
11
348.153009
21
675.985158
0
LINE
8
boundary
62
5
39
2
10
348.153009
20
675.985158
11
349.852527
21
677.191102
0
LINE
8
boundary
62
5
39
2
10
349.852527
20
677.191102
11
351.265095
21
678.723111
0
LINE
8
boundary
62
5
39
2
10
351.265095
20
678.723111
11
352.329292
21
680.514626
0
LINE
8
boundary
62
5
39
2
10
352.329292
20
680.514626
11
352.998974
21
682.487745
0
LINE
8
boundary
62
5
39
2
10
352.998974
20
682.487745
11
353.245041
21
684.556763
0
LINE
8
boundary
62
5
39
2
10
353.245041
20
684.556763
11
353.054292
21
686.651263
0
LINE
8
boundary
62
5
39
2
10
353.054292
20
686.651263
11
352.434663
21
688.645577
0
LINE
8
boundary
62
5
39
2
10
352.434663
20
688.645577
11
351.414300
21
690.467659
0
LINE
8
boundary
62
5
39
2
10
351.414300
20
690.467659
11
350.037712
21
692.037960
0
LINE
8
boundary
62
5
39
2
10
350.037712
20
692.037960
11
348.365441
21
693.287720
0
LINE
8
boundary
62
5
39
2
10
348.365441
20
693.287720
11
346.391895
21
694.191165
0
LINE
8
boundary
62
5
39
2
10
346.391895
20
694.191165
11
344.374912
21
694.566451
0
LINE
8
boundary
62
5
39
2
10
344.374912
20
694.566451
11
331.389618
21
696.049910
0
LINE
8
boundary
62
5
39
2
10
331.389618
20
696.049910
11
294.737957
21
700.161681
0
LINE
8
boundary
62
5
39
2
10
294.737957
20
700.161681
11
231.551801
21
707.448418
0
LINE
8
boundary
62
5
39
2
10
231.551801
20
707.448418
11
229.495096
21
707.557134
0
LINE
8
boundary
62
5
39
2
10
229.495096
20
707.557134
11
227.934775
21
707.451872
0
LINE
8
boundary
62
5
39
2
10
227.934775
20
707.451872
11
225.881188
21
707.310510
0
LINE
8
boundary
62
5
39
2
10
225.881188
20
707.310510
11
223.858481
21
706.926647
0
LINE
8
boundary
62
5
39
2
10
223.858481
20
706.926647
11
222.322114
21
706.634065
0
LINE
8
boundary
62
5
39
2
10
222.322114
20
706.634065
11
220.359917
21
706.009728
0
LINE
8
boundary
62
5
39
2
10
220.359917
20
706.009728
11
218.870165
21
705.534122
0
LINE
8
boundary
62
5
39
2
10
218.870165
20
705.534122
11
217.448594
21
704.882408
0
LINE
8
boundary
62
5
39
2
10
217.448594
20
704.882408
11
215.578424
21
704.020077
0
LINE
8
boundary
62
5
39
2
10
215.578424
20
704.020077
11
213.823652
21
702.943618
0
LINE
8
boundary
62
5
39
2
10
213.823652
20
702.943618
11
212.490804
21
702.125185
0
LINE
8
boundary
62
5
39
2
10
212.490804
20
702.125185
11
210.878225
21
700.845325
0
LINE
8
boundary
62
5
39
2
10
210.878225
20
700.845325
11
209.653795
21
699.872253
0
LINE
8
boundary
62
5
39
2
10
209.653795
20
699.872253
11
208.206405
21
698.407872
0
LINE
8
boundary
62
5
39
2
10
208.206405
20
698.407872
11
207.108318
21
697.294420
0
LINE
8
boundary
62
5
39
2
10
207.108318
20
697.294420
11
206.152447
21
696.056722
0
LINE
8
boundary
62
5
39
2
10
206.152447
20
696.056722
11
204.897577
21
694.423723
0
LINE
8
boundary
62
5
39
2
10
204.897577
20
694.423723
11
203.843558
21
692.655680
0
LINE
8
boundary
62
5
39
2
10
203.843558
20
692.655680
11
203.043711
21
691.311590
0
LINE
8
boundary
62
5
39
2
10
203.043711
20
691.311590
11
202.540253
21
690.263141
0
LINE
8
boundary
62
5
39
2
10
202.540253
20
690.263141
11
201.908533
21
688.833041
0
LINE
8
boundary
62
5
39
2
10
201.908533
20
688.833041
11
201.577299
21
687.999066
0
LINE
8
boundary
62
5
39
2
10
201.577299
20
687.999066
11
201.318811
21
687.266920
0
LINE
8
boundary
62
5
39
2
10
201.318811
20
687.266920
11
200.864088
21
685.771114
0
LINE
8
boundary
62
5
39
2
10
200.864088
20
685.771114
11
200.451679
21
684.150063
0
LINE
8
boundary
62
5
39
2
10
200.451679
20
684.150063
11
200.164621
21
682.502897
0
LINE
8
boundary
62
5
39
2
10
200.164621
20
682.502897
11
199.892222
21
680.963525
0
LINE
8
boundary
62
5
39
2
10
199.892222
20
680.963525
11
197.205095
21
657.461037
0
LINE
8
boundary
62
5
39
2
10
197.205095
20
657.461037
11
197.064979
21
656.234952
0
LINE
8
boundary
62
5
39
2
10
197.064979
20
656.234952
11
196.916990
21
654.940272
0
LINE
8
boundary
62
5
39
2
10
196.916990
20
654.940272
11
191.166676
21
604.480480
0
LINE
8
boundary
62
5
39
2
10
191.166676
20
604.480480
11
191.072311
21
603.656300
0
LINE
8
boundary
62
5
39
2
10
191.072311
20
603.656300
11
190.965841
21
602.725822
0
LINE
8
boundary
62
5
39
2
10
190.965841
20
602.725822
11
190.852158
21
601.732588
0
LINE
8
boundary
62
5
39
2
10
190.852158
20
601.732588
11
190.737138
21
600.726552
0
LINE
8
boundary
62
5
39
2
10
190.737138
20
600.726552
11
190.626545
21
599.758739
0
LINE
8
boundary
62
5
39
2
10
190.626545
20
599.758739
11
190.525783
21
598.876426
0
LINE
8
boundary
62
5
39
2
10
190.525783
20
598.876426
11
190.439211
21
598.118553
0
LINE
8
boundary
62
5
39
2
10
190.439211
20
598.118553
11
184.659101
21
547.413471
0
LINE
8
boundary
62
5
39
2
10
184.659101
20
547.413471
11
181.746743
21
521.940668
0
LINE
8
boundary
62
5
39
2
10
181.746743
20
521.940668
11
181.643306
21
521.189413
0
LINE
8
boundary
62
5
39
2
10
181.643306
20
521.189413
11
181.568529
21
519.621816
0
LINE
8
boundary
62
5
39
2
10
181.568529
20
519.621816
11
181.544625
21
517.797902
0
LINE
8
boundary
62
5
39
2
10
181.544625
20
517.797902
11
181.685697
21
515.706864
0
LINE
8
boundary
62
5
39
2
10
181.685697
20
515.706864
11
181.874214
21
514.105735
0
LINE
8
boundary
62
5
39
2
10
181.874214
20
514.105735
11
182.266293
21
512.046946
0
LINE
8
boundary
62
5
39
2
10
182.266293
20
512.046946
11
182.657015
21
510.482822
0
LINE
8
boundary
62
5
39
2
10
182.657015
20
510.482822
11
183.294406
21
508.486305
0
LINE
8
boundary
62
5
39
2
10
183.294406
20
508.486305
11
183.880975
21
506.984619
0
LINE
8
boundary
62
5
39
2
10
183.880975
20
506.984619
11
184.754373
21
505.079487
0
LINE
8
boundary
62
5
39
2
10
184.754373
20
505.079487
11
185.527258
21
503.664642
0
LINE
8
boundary
62
5
39
2
10
185.527258
20
503.664642
11
186.623918
21
501.878680
0
LINE
8
boundary
62
5
39
2
10
186.623918
20
501.878680
11
187.570553
21
500.573684
0
LINE
8
boundary
62
5
39
2
10
187.570553
20
500.573684
11
188.874499
21
498.932930
0
LINE
8
boundary
62
5
39
2
10
188.874499
20
498.932930
11
189.979502
21
497.759005
0
LINE
8
boundary
62
5
39
2
10
189.979502
20
497.759005
11
191.471699
21
496.287386
0
LINE
8
boundary
62
5
39
2
10
191.471699
20
496.287386
11
192.717083
21
495.263601
0
LINE
8
boundary
62
5
39
2
10
192.717083
20
495.263601
11
194.375799
21
493.982577
0
LINE
8
boundary
62
5
39
2
10
194.375799
20
493.982577
11
195.741333
21
493.125592
0
LINE
8
boundary
62
5
39
2
10
195.741333
20
493.125592
11
197.542363
21
492.053842
0
LINE
8
boundary
62
5
39
2
10
197.542363
20
492.053842
11
199.005856
21
491.377586
0
LINE
8
boundary
62
5
39
2
10
199.005856
20
491.377586
11
200.922938
21
490.530743
0
LINE
8
boundary
62
5
39
2
10
200.922938
20
490.530743
11
202.460583
21
490.046205
0
LINE
8
boundary
62
5
39
2
10
202.460583
20
490.046205
11
204.466019
21
489.436551
0
LINE
8
boundary
62
5
39
2
10
204.466019
20
489.436551
11
206.053040
21
489.151563
0
LINE
8
boundary
62
5
39
2
10
206.053040
20
489.151563
11
208.117402
21
488.788107
0
LINE
8
boundary
62
5
39
2
10
208.117402
20
488.788107
11
236.011778
21
485.598184
0
LINE
8
boundary
62
5
39
2
10
236.011778
20
485.598184
11
298.301518
21
478.474894
0
LINE
8
annotation
62
1
39
211
10
202.766080
20
543.669782
11
195.362261
21
543.669782
0
LINE
8
annotation
62
1
39
211
10
195.362261
20
543.669782
11
202.203633
21
554.683513
0
LINE
8
annotation
62
1
39
211
10
202.203633
20
554.683513
11
202.203633
21
554.683513
0
LINE
8
annotation
62
1
39
211
10
202.203633
20
554.683513
11
202.211811
21
554.693633
0
LINE
8
annotation
62
1
39
211
10
202.211811
20
554.693633
11
202.219654
21
554.703840
0
LINE
8
annotation
62
1
39
211
10
202.219654
20
554.703840
11
202.227213
21
554.714218
0
LINE
8
annotation
62
1
39
211
10
202.227213
20
554.714218
11
202.234540
21
554.724855
0
LINE
8
annotation
62
1
39
211
10
202.234540
20
554.724855
11
202.241686
21
554.735835
0
LINE
8
annotation
62
1
39
211
10
202.241686
20
554.735835
11
202.248703
21
554.747246
0
LINE
8
annotation
62
1
39
211
10
202.248703
20
554.747246
11
202.255642
21
554.759174
0
LINE
8
annotation
62
1
39
211
10
202.255642
20
554.759174
11
202.262556
21
554.771703
0
LINE
8
annotation
62
1
39
211
10
202.262556
20
554.771703
11
202.269496
21
554.784921
0
LINE
8
annotation
62
1
39
211
10
202.269496
20
554.784921
11
202.269496
21
554.784921
0
LINE
8
annotation
62
1
39
211
10
202.269496
20
554.784921
11
202.551974
21
555.391426
0
LINE
8
annotation
62
1
39
211
10
202.551974
20
555.391426
11
202.716993
21
556.020123
0
LINE
8
annotation
62
1
39
211
10
202.716993
20
556.020123
11
202.768597
21
556.656804
0
LINE
8
annotation
62
1
39
211
10
202.768597
20
556.656804
11
202.710830
21
557.287264
0
LINE
8
annotation
62
1
39
211
10
202.710830
20
557.287264
11
202.547735
21
557.897298
0
LINE
8
annotation
62
1
39
211
10
202.547735
20
557.897298
11
202.283357
21
558.472698
0
LINE
8
annotation
62
1
39
211
10
202.283357
20
558.472698
11
201.921741
21
558.999259
0
LINE
8
annotation
62
1
39
211
10
201.921741
20
558.999259
11
201.466929
21
559.462776
0
LINE
8
annotation
62
1
39
211
10
201.466929
20
559.462776
11
200.922966
21
559.849042
0
LINE
8
annotation
62
1
39
211
10
200.922966
20
559.849042
11
200.922966
21
559.849042
0
LINE
8
annotation
62
1
39
211
10
200.922966
20
559.849042
11
200.314774
21
560.127506
0
LINE
8
annotation
62
1
39
211
10
200.314774
20
560.127506
11
199.685114
21
560.289983
0
LINE
8
annotation
62
1
39
211
10
199.685114
20
560.289983
11
199.048063
21
560.340128
0
LINE
8
annotation
62
1
39
211
10
199.048063
20
560.340128
11
198.417697
21
560.281599
0
LINE
8
annotation
62
1
39
211
10
198.417697
20
560.281599
11
197.808094
21
560.118053
0
LINE
8
annotation
62
1
39
211
10
197.808094
20
560.118053
11
197.233331
21
559.853146
0
LINE
8
annotation
62
1
39
211
10
197.233331
20
559.853146
11
196.707483
21
559.490535
0
LINE
8
annotation
62
1
39
211
10
196.707483
20
559.490535
11
196.244629
21
559.033878
0
LINE
8
annotation
62
1
39
211
10
196.244629
20
559.033878
11
195.858846
21
558.486831
0
LINE
8
annotation
62
1
39
211
10
195.858846
20
558.486831
11
195.372715
21
557.554297
0
LINE
8
annotation
62
1
39
211
10
210.867162
20
543.669918
11
210.867162
21
543.669918
0
LINE
8
annotation
62
1
39
211
10
210.867162
20
543.669918
11
211.925798
21
544.064418
0
LINE
8
annotation
62
1
39
211
10
211.925798
20
544.064418
11
212.897496
21
544.597657
0
LINE
8
annotation
62
1
39
211
10
212.897496
20
544.597657
11
213.772212
21
545.256047
0
LINE
8
annotation
62
1
39
211
10
213.772212
20
545.256047
11
214.539907
21
546.026003
0
LINE
8
annotation
62
1
39
211
10
214.539907
20
546.026003
11
215.190537
21
546.893938
0
LINE
8
annotation
62
1
39
211
10
215.190537
20
546.893938
11
215.714063
21
547.846265
0
LINE
8
annotation
62
1
39
211
10
215.714063
20
547.846265
11
216.100442
21
548.869398
0
LINE
8
annotation
62
1
39
211
10
216.100442
20
548.869398
11
216.339633
21
549.949751
0
LINE
8
annotation
62
1
39
211
10
216.339633
20
549.949751
11
216.421594
21
551.073738
0
LINE
8
annotation
62
1
39
211
10
216.421594
20
551.073738
11
216.421594
21
556.633398
0
LINE
8
annotation
62
1
39
211
10
216.421594
20
556.633398
11
216.421594
21
556.633398
0
LINE
8
annotation
62
1
39
211
10
216.421594
20
556.633398
11
216.361999
21
557.299374
0
LINE
8
annotation
62
1
39
211
10
216.361999
20
557.299374
11
216.190157
21
557.926347
0
LINE
8
annotation
62
1
39
211
10
216.190157
20
557.926347
11
215.916491
21
558.503810
0
LINE
8
annotation
62
1
39
211
10
215.916491
20
558.503810
11
215.551420
21
559.021256
0
LINE
8
annotation
62
1
39
211
10
215.551420
20
559.021256
11
215.105363
21
559.468180
0
LINE
8
annotation
62
1
39
211
10
215.105363
20
559.468180
11
214.588741
21
559.834076
0
LINE
8
annotation
62
1
39
211
10
214.588741
20
559.834076
11
214.011974
21
560.108438
0
LINE
8
annotation
62
1
39
211
10
214.011974
20
560.108438
11
213.385482
21
560.280760
0
LINE
8
annotation
62
1
39
211
10
213.385482
20
560.280760
11
212.719685
21
560.340535
0
LINE
8
annotation
62
1
39
211
10
212.719685
20
560.340535
11
212.719685
21
560.340535
0
LINE
8
annotation
62
1
39
211
10
212.719685
20
560.340535
11
212.055264
21
560.280760
0
LINE
8
annotation
62
1
39
211
10
212.055264
20
560.280760
11
211.429503
21
560.108438
0
LINE
8
annotation
62
1
39
211
10
211.429503
20
560.108438
11
210.852951
21
559.834076
0
LINE
8
annotation
62
1
39
211
10
210.852951
20
559.834076
11
210.336157
21
559.468180
0
LINE
8
annotation
62
1
39
211
10
210.336157
20
559.468180
11
209.889670
21
559.021256
0
LINE
8
annotation
62
1
39
211
10
209.889670
20
559.021256
11
209.524040
21
558.503810
0
LINE
8
annotation
62
1
39
211
10
209.524040
20
558.503810
11
209.249814
21
557.926347
0
LINE
8
annotation
62
1
39
211
10
209.249814
20
557.926347
11
209.077543
21
557.299374
0
LINE
8
annotation
62
1
39
211
10
209.077543
20
557.299374
11
209.017775
21
556.633398
0
LINE
8
annotation
62
1
39
211
10
209.017775
20
556.633398
11
209.017775
21
554.779829
0
LINE
8
annotation
62
1
39
211
10
209.017775
20
554.779829
11
209.017775
21
554.779829
0
LINE
8
annotation
62
1
39
211
10
209.017775
20
554.779829
11
209.077543
21
554.113889
0
LINE
8
annotation
62
1
39
211
10
209.077543
20
554.113889
11
209.249814
21
553.487012
0
LINE
8
annotation
62
1
39
211
10
209.249814
20
553.487012
11
209.524040
21
552.909689
0
LINE
8
annotation
62
1
39
211
10
209.524040
20
552.909689
11
209.889670
21
552.392407
0
LINE
8
annotation
62
1
39
211
10
209.889670
20
552.392407
11
210.336157
21
551.945656
0
LINE
8
annotation
62
1
39
211
10
210.336157
20
551.945656
11
210.852951
21
551.579925
0
LINE
8
annotation
62
1
39
211
10
210.852951
20
551.579925
11
211.429503
21
551.305702
0
LINE
8
annotation
62
1
39
211
10
211.429503
20
551.305702
11
212.055264
21
551.133477
0
LINE
8
annotation
62
1
39
211
10
212.055264
20
551.133477
11
212.719685
21
551.073738
0
LINE
8
annotation
62
1
39
211
10
212.719685
20
551.073738
11
216.421594
21
551.073738
0
LINE
8
annotation
62
1
39
211
10
208.555167
20
541.586091
11
216.890475
21
541.586091
0
LINE
8
boundary
62
5
39
2
10
155.616851
20
720.404534
11
162.109099
21
777.175616
0
LINE
8
boundary
62
5
39
2
10
162.109099
20
777.175616
11
166.965139
21
818.914076
0
LINE
8
boundary
62
5
39
2
10
166.965139
20
818.914076
11
168.588388
21
833.108613
0
LINE
8
boundary
62
5
39
2
10
168.588388
20
833.108613
11
178.326508
21
918.263682
0
LINE
8
boundary
62
5
39
2
10
178.326508
20
918.263682
11
178.365383
21
920.062565
0
LINE
8
boundary
62
5
39
2
10
178.365383
20
920.062565
11
178.038775
21
922.017866
0
LINE
8
boundary
62
5
39
2
10
178.038775
20
922.017866
11
177.333331
21
923.870967
0
LINE
8
boundary
62
5
39
2
10
177.333331
20
923.870967
11
176.275855
21
925.548559
0
LINE
8
boundary
62
5
39
2
10
176.275855
20
925.548559
11
174.907797
21
926.984441
0
LINE
8
boundary
62
5
39
2
10
174.907797
20
926.984441
11
173.282982
21
928.121962
0
LINE
8
boundary
62
5
39
2
10
173.282982
20
928.121962
11
171.465429
21
928.916155
0
LINE
8
boundary
62
5
39
2
10
171.465429
20
928.916155
11
169.891181
21
929.254909
0
LINE
8
boundary
62
5
39
2
10
169.891181
20
929.254909
11
78.490068
21
939.707300
0
LINE
8
boundary
62
5
39
2
10
78.490068
20
939.707300
11
63.366141
21
941.476073
0
LINE
8
boundary
62
5
39
2
10
63.366141
20
941.476073
11
58.255583
21
942.060504
0
LINE
8
boundary
62
5
39
2
10
58.255583
20
942.060504
11
54.638116
21
942.254113
0
LINE
8
boundary
62
5
39
2
10
54.638116
20
942.254113
11
51.023698
21
942.010253
0
LINE
8
boundary
62
5
39
2
10
51.023698
20
942.010253
11
47.465006
21
941.332523
0
LINE
8
boundary
62
5
39
2
10
47.465006
20
941.332523
11
44.013975
21
940.230755
0
LINE
8
boundary
62
5
39
2
10
44.013975
20
940.230755
11
40.720897
21
938.721043
0
LINE
8
boundary
62
5
39
2
10
40.720897
20
938.721043
11
37.633797
21
936.825424
0
LINE
8
boundary
62
5
39
2
10
37.633797
20
936.825424
11
35.119980
21
934.827634
0
LINE
8
boundary
62
5
39
2
10
35.119980
20
934.827634
11
32.542992
21
932.285291
0
LINE
8
boundary
62
5
39
2
10
32.542992
20
932.285291
11
30.291225
21
929.450882
0
LINE
8
boundary
62
5
39
2
10
30.291225
20
929.450882
11
28.397444
21
926.365749
0
LINE
8
boundary
62
5
39
2
10
28.397444
20
926.365749
11
26.889150
21
923.074903
0
LINE
8
boundary
62
5
39
2
10
26.889150
20
923.074903
11
25.787441
21
919.626531
0
LINE
8
boundary
62
5
39
2
10
25.787441
20
919.626531
11
25.112908
21
916.069384
0
LINE
8
boundary
62
5
39
2
10
25.112908
20
916.069384
11
17.056304
21
845.620600
0
LINE
8
boundary
62
5
39
2
10
17.056304
20
845.620600
11
16.005699
21
836.652426
0
LINE
8
boundary
62
5
39
2
10
16.005699
20
836.652426
11
15.933571
21
836.021709
0
LINE
8
boundary
62
5
39
2
10
15.933571
20
836.021709
11
15.689177
21
833.879178
0
LINE
8
boundary
62
5
39
2
10
15.689177
20
833.879178
11
7.375780
21
761.179851
0
LINE
8
boundary
62
5
39
2
10
7.375780
20
761.179851
11
6.860980
21
756.681488
0
LINE
8
boundary
62
5
39
2
10
6.860980
20
756.681488
11
6.667500
21
753.086209
0
LINE
8
boundary
62
5
39
2
10
6.667500
20
753.086209
11
6.912052
21
749.471715
0
LINE
8
boundary
62
5
39
2
10
6.912052
20
749.471715
11
7.590155
21
745.912991
0
LINE
8
boundary
62
5
39
2
10
7.590155
20
745.912991
11
8.692143
21
742.461928
0
LINE
8
boundary
62
5
39
2
10
8.692143
20
742.461928
11
10.201983
21
739.168837
0
LINE
8
boundary
62
5
39
2
10
10.201983
20
739.168837
11
12.097722
21
736.081732
0
LINE
8
boundary
62
5
39
2
10
12.097722
20
736.081732
11
14.351718
21
733.245633
0
LINE
8
boundary
62
5
39
2
10
14.351718
20
733.245633
11
16.931105
21
730.701897
0
LINE
8
boundary
62
5
39
2
10
16.931105
20
730.701897
11
19.798311
21
728.487612
0
LINE
8
boundary
62
5
39
2
10
19.798311
20
728.487612
11
22.911482
21
726.635054
0
LINE
8
boundary
62
5
39
2
10
22.911482
20
726.635054
11
26.225273
21
725.171267
0
LINE
8
boundary
62
5
39
2
10
26.225273
20
725.171267
11
29.319969
21
724.230473
0
LINE
8
boundary
62
5
39
2
10
29.319969
20
724.230473
11
32.877596
21
723.556765
0
LINE
8
boundary
62
5
39
2
10
32.877596
20
723.556765
11
132.228101
21
712.195302
0
LINE
8
boundary
62
5
39
2
10
132.228101
20
712.195302
11
141.487744
21
711.112806
0
LINE
8
boundary
62
5
39
2
10
141.487744
20
711.112806
11
144.532394
21
710.764625
0
LINE
8
boundary
62
5
39
2
10
144.532394
20
710.764625
11
146.517088
21
710.735668
0
LINE
8
boundary
62
5
39
2
10
146.517088
20
710.735668
11
148.101223
21
711.025151
0
LINE
8
boundary
62
5
39
2
10
148.101223
20
711.025151
11
149.964384
21
711.692427
0
LINE
8
boundary
62
5
39
2
10
149.964384
20
711.692427
11
151.659596
21
712.714801
0
LINE
8
boundary
62
5
39
2
10
151.659596
20
712.714801
11
153.120045
21
714.052212
0
LINE
8
boundary
62
5
39
2
10
153.120045
20
714.052212
11
154.288664
21
715.651650
0
LINE
8
boundary
62
5
39
2
10
154.288664
20
715.651650
11
155.116159
21
717.451702
0
LINE
8
boundary
62
5
39
2
10
155.116159
20
717.451702
11
155.572800
21
719.380070
0
LINE
8
boundary
62
5
39
2
10
155.572800
20
719.380070
11
155.616851
21
720.404534
0
LINE
8
annotation
62
1
39
211
10
114.797924
20
764.527622
11
62.970011
21
764.527622
0
LINE
8
annotation
62
1
39
211
10
62.970011
20
764.527622
11
110.860701
21
841.625485
0
LINE
8
annotation
62
1
39
211
10
110.860701
20
841.625485
11
110.860701
21
841.625485
0
LINE
8
annotation
62
1
39
211
10
110.860701
20
841.625485
11
110.917952
21
841.696328
0
LINE
8
annotation
62
1
39
211
10
110.917952
20
841.696328
11
110.972854
21
841.767774
0
LINE
8
annotation
62
1
39
211
10
110.972854
20
841.767774
11
111.025768
21
841.840425
0
LINE
8
annotation
62
1
39
211
10
111.025768
20
841.840425
11
111.077056
21
841.914882
0
LINE
8
annotation
62
1
39
211
10
111.077056
20
841.914882
11
111.127079
21
841.991749
0
LINE
8
annotation
62
1
39
211
10
111.127079
20
841.991749
11
111.176199
21
842.071627
0
LINE
8
annotation
62
1
39
211
10
111.176199
20
842.071627
11
111.224776
21
842.155120
0
LINE
8
annotation
62
1
39
211
10
111.224776
20
842.155120
11
111.273173
21
842.242829
0
LINE
8
annotation
62
1
39
211
10
111.273173
20
842.242829
11
111.321751
21
842.335356
0
LINE
8
annotation
62
1
39
211
10
111.321751
20
842.335356
11
111.321751
21
842.335356
0
LINE
8
annotation
62
1
39
211
10
111.321751
20
842.335356
11
113.299147
21
846.580990
0
LINE
8
annotation
62
1
39
211
10
113.299147
20
846.580990
11
114.454307
21
850.981965
0
LINE
8
annotation
62
1
39
211
10
114.454307
20
850.981965
11
114.815542
21
855.438835
0
LINE
8
annotation
62
1
39
211
10
114.815542
20
855.438835
11
114.411161
21
859.852157
0
LINE
8
annotation
62
1
39
211
10
114.411161
20
859.852157
11
113.269472
21
864.122487
0
LINE
8
annotation
62
1
39
211
10
113.269472
20
864.122487
11
111.418786
21
868.150380
0
LINE
8
annotation
62
1
39
211
10
111.418786
20
868.150380
11
108.887411
21
871.836394
0
LINE
8
annotation
62
1
39
211
10
108.887411
20
871.836394
11
105.703657
21
875.081083
0
LINE
8
annotation
62
1
39
211
10
105.703657
20
875.081083
11
101.895833
21
877.785004
0
LINE
8
annotation
62
1
39
211
10
101.895833
20
877.785004
11
101.895833
21
877.785004
0
LINE
8
annotation
62
1
39
211
10
101.895833
20
877.785004
11
97.638393
21
879.734302
0
LINE
8
annotation
62
1
39
211
10
97.638393
20
879.734302
11
93.230672
21
880.871664
0
LINE
8
annotation
62
1
39
211
10
93.230672
20
880.871664
11
88.771212
21
881.222689
0
LINE
8
annotation
62
1
39
211
10
88.771212
20
881.222689
11
84.358553
21
880.812977
0
LINE
8
annotation
62
1
39
211
10
84.358553
20
880.812977
11
80.091234
21
879.668126
0
LINE
8
annotation
62
1
39
211
10
80.091234
20
879.668126
11
76.067798
21
877.813735
0
LINE
8
annotation
62
1
39
211
10
76.067798
20
877.813735
11
72.386784
21
875.275404
0
LINE
8
annotation
62
1
39
211
10
72.386784
20
875.275404
11
69.146732
21
872.078730
0
LINE
8
annotation
62
1
39
211
10
69.146732
20
872.078730
11
66.446184
21
868.249312
0
LINE
8
annotation
62
1
39
211
10
66.446184
20
868.249312
11
63.043193
21
861.721425
0
LINE
8
boundary
62
5
39
2
10
155.606522
20
954.427561
11
165.994215
21
1045.262129
0
LINE
8
boundary
62
5
39
2
10
165.994215
20
1045.262129
11
166.965355
21
1053.609233
0
LINE
8
boundary
62
5
39
2
10
166.965355
20
1053.609233
11
176.379307
21
1135.929745
0
LINE
8
boundary
62
5
39
2
10
176.379307
20
1135.929745
11
178.326793
21
1152.959557
0
LINE
8
boundary
62
5
39
2
10
178.326793
20
1152.959557
11
178.361141
21
1154.888538
0
LINE
8
boundary
62
5
39
2
10
178.361141
20
1154.888538
11
178.012469
21
1156.821990
0
LINE
8
boundary
62
5
39
2
10
178.012469
20
1156.821990
11
177.293560
21
1158.650593
0
LINE
8
boundary
62
5
39
2
10
177.293560
20
1158.650593
11
176.231108
21
1160.303448
0
LINE
8
boundary
62
5
39
2
10
176.231108
20
1160.303448
11
174.865952
21
1161.716678
0
LINE
8
boundary
62
5
39
2
10
174.865952
20
1161.716678
11
173.250752
21
1162.835678
0
LINE
8
boundary
62
5
39
2
10
173.250752
20
1162.835678
11
171.447895
21
1163.617132
0
LINE
8
boundary
62
5
39
2
10
171.447895
20
1163.617132
11
169.599860
21
1164.014801
0
LINE
8
boundary
62
5
39
2
10
169.599860
20
1164.014801
11
62.302573
21
1176.285036
0
LINE
8
boundary
62
5
39
2
10
62.302573
20
1176.285036
11
59.277864
21
1176.638782
0
LINE
8
boundary
62
5
39
2
10
59.277864
20
1176.638782
11
58.255778
21
1176.755665
0
LINE
8
boundary
62
5
39
2
10
58.255778
20
1176.755665
11
54.638306
21
1176.949273
0
LINE
8
boundary
62
5
39
2
10
54.638306
20
1176.949273
11
51.023886
21
1176.705413
0
LINE
8
boundary
62
5
39
2
10
51.023886
20
1176.705413
11
47.465192
21
1176.027681
0
LINE
8
boundary
62
5
39
2
10
47.465192
20
1176.027681
11
44.014161
21
1174.925912
0
LINE
8
boundary
62
5
39
2
10
44.014161
20
1174.925912
11
40.721085
21
1173.416199
0
LINE
8
boundary
62
5
39
2
10
40.721085
20
1173.416199
11
37.633981
21
1171.520578
0
LINE
8
boundary
62
5
39
2
10
37.633981
20
1171.520578
11
34.862332
21
1169.317883
0
LINE
8
boundary
62
5
39
2
10
34.862332
20
1169.317883
11
32.311922
21
1166.745957
0
LINE
8
boundary
62
5
39
2
10
32.311922
20
1166.745957
11
30.090100
21
1163.885383
0
LINE
8
boundary
62
5
39
2
10
30.090100
20
1163.885383
11
28.229192
21
1160.777893
0
LINE
8
boundary
62
5
39
2
10
28.229192
20
1160.777893
11
26.756209
21
1157.468819
0
LINE
8
boundary
62
5
39
2
10
26.756209
20
1157.468819
11
25.691636
21
1154.006637
0
LINE
8
boundary
62
5
39
2
10
25.691636
20
1154.006637
11
25.056006
21
1150.440200
0
LINE
8
boundary
62
5
39
2
10
25.056006
20
1150.440200
11
16.173068
21
1072.765759
0
LINE
8
boundary
62
5
39
2
10
16.173068
20
1072.765759
11
15.962993
21
1070.972517
0
LINE
8
boundary
62
5
39
2
10
15.962993
20
1070.972517
11
15.899703
21
1070.417989
0
LINE
8
boundary
62
5
39
2
10
15.899703
20
1070.417989
11
6.965965
21
992.293884
0
LINE
8
boundary
62
5
39
2
10
6.965965
20
992.293884
11
6.863007
21
991.394228
0
LINE
8
boundary
62
5
39
2
10
6.863007
20
991.394228
11
6.667500
21
987.781375
0
LINE
8
boundary
62
5
39
2
10
6.667500
20
987.781375
11
6.912119
21
984.166871
0
LINE
8
boundary
62
5
39
2
10
6.912119
20
984.166871
11
7.590259
21
980.608142
0
LINE
8
boundary
62
5
39
2
10
7.590259
20
980.608142
11
8.692269
21
977.157077
0
LINE
8
boundary
62
5
39
2
10
8.692269
20
977.157077
11
10.202124
21
973.863986
0
LINE
8
boundary
62
5
39
2
10
10.202124
20
973.863986
11
12.097875
21
970.776879
0
LINE
8
boundary
62
5
39
2
10
12.097875
20
970.776879
11
14.351881
21
967.940780
0
LINE
8
boundary
62
5
39
2
10
14.351881
20
967.940780
11
16.931274
21
965.397043
0
LINE
8
boundary
62
5
39
2
10
16.931274
20
965.397043
11
19.798487
21
963.182758
0
LINE
8
boundary
62
5
39
2
10
19.798487
20
963.182758
11
22.911662
21
961.330200
0
LINE
8
boundary
62
5
39
2
10
22.911662
20
961.330200
11
26.225457
21
959.866414
0
LINE
8
boundary
62
5
39
2
10
26.225457
20
959.866414
11
29.617250
21
958.835302
0
LINE
8
boundary
62
5
39
2
10
29.617250
20
958.835302
11
33.183614
21
958.198088
0
LINE
8
boundary
62
5
39
2
10
33.183614
20
958.198088
11
142.071956
21
945.745904
0
LINE
8
boundary
62
5
39
2
10
142.071956
20
945.745904
11
143.923766
21
945.529418
0
LINE
8
boundary
62
5
39
2
10
143.923766
20
945.529418
11
144.532657
21
945.459786
0
LINE
8
boundary
62
5
39
2
10
144.532657
20
945.459786
11
146.498790
21
945.429113
0
LINE
8
boundary
62
5
39
2
10
146.498790
20
945.429113
11
148.358431
21
945.768942
0
LINE
8
boundary
62
5
39
2
10
148.358431
20
945.768942
11
150.189232
21
946.479882
0
LINE
8
boundary
62
5
39
2
10
150.189232
20
946.479882
11
151.845803
21
947.535188
0
LINE
8
boundary
62
5
39
2
10
151.845803
20
947.535188
11
153.264189
21
948.894159
0
LINE
8
boundary
62
5
39
2
10
153.264189
20
948.894159
11
154.390340
21
950.503781
0
LINE
8
boundary
62
5
39
2
10
154.390340
20
950.503781
11
155.177125
21
952.303680
0
LINE
8
boundary
62
5
39
2
10
155.177125
20
952.303680
11
155.597712
21
954.222669
0
LINE
8
boundary
62
5
39
2
10
155.597712
20
954.222669
11
155.606522
21
954.427561
0
LINE
8
annotation
62
1
39
211
10
94.621461
20
999.222414
11
94.621461
21
1115.920243
0
LINE
8
annotation
62
1
39
211
10
94.621461
20
1115.920243
11
68.678039
21
1089.969503
0
LINE
8
boundary
62
5
39
2
10
301.418173
20
712.811054
11
320.240433
21
710.748915
0
LINE
8
boundary
62
5
39
2
10
320.240433
20
710.748915
11
321.100602
21
710.741224
0
LINE
8
boundary
62
5
39
2
10
321.100602
20
710.741224
11
321.795547
21
710.798626
0
LINE
8
boundary
62
5
39
2
10
321.795547
20
710.798626
11
323.477462
21
711.140366
0
LINE
8
boundary
62
5
39
2
10
323.477462
20
711.140366
11
325.377936
21
711.953519
0
LINE
8
boundary
62
5
39
2
10
325.377936
20
711.953519
11
327.070343
21
713.140178
0
LINE
8
boundary
62
5
39
2
10
327.070343
20
713.140178
11
328.482277
21
714.649515
0
LINE
8
boundary
62
5
39
2
10
328.482277
20
714.649515
11
329.553485
21
716.416716
0
LINE
8
boundary
62
5
39
2
10
329.553485
20
716.416716
11
329.825598
21
717.296088
0
LINE
8
boundary
62
5
39
2
10
329.825598
20
717.296088
11
330.323486
21
718.782586
0
LINE
8
boundary
62
5
39
2
10
330.323486
20
718.782586
11
330.501424
21
720.340125
0
LINE
8
boundary
62
5
39
2
10
330.501424
20
720.340125
11
330.358451
21
722.391035
0
LINE
8
boundary
62
5
39
2
10
330.358451
20
722.391035
11
329.799727
21
724.368566
0
LINE
8
boundary
62
5
39
2
10
329.799727
20
724.368566
11
328.847830
21
726.189029
0
LINE
8
boundary
62
5
39
2
10
328.847830
20
726.189029
11
327.543454
21
727.775277
0
LINE
8
boundary
62
5
39
2
10
327.543454
20
727.775277
11
325.942378
21
729.060182
0
LINE
8
boundary
62
5
39
2
10
325.942378
20
729.060182
11
324.113124
21
729.989286
0
LINE
8
boundary
62
5
39
2
10
324.113124
20
729.989286
11
323.183868
21
730.287077
0
LINE
8
boundary
62
5
39
2
10
323.183868
20
730.287077
11
322.130953
21
730.517208
0
LINE
8
boundary
62
5
39
2
10
322.130953
20
730.517208
11
293.573095
21
733.920418
0
LINE
8
boundary
62
5
39
2
10
293.573095
20
733.920418
11
248.787833
21
739.041997
0
LINE
8
boundary
62
5
39
2
10
248.787833
20
739.041997
11
246.553729
21
739.435398
0
LINE
8
boundary
62
5
39
2
10
246.553729
20
739.435398
11
244.383690
21
740.095092
0
LINE
8
boundary
62
5
39
2
10
244.383690
20
740.095092
11
243.087493
21
740.489131
0
LINE
8
boundary
62
5
39
2
10
243.087493
20
740.489131
11
241.012767
21
741.405596
0
LINE
8
boundary
62
5
39
2
10
241.012767
20
741.405596
11
239.773742
21
741.952917
0
LINE
8
boundary
62
5
39
2
10
239.773742
20
741.952917
11
237.824622
21
743.112785
0
LINE
8
boundary
62
5
39
2
10
237.824622
20
743.112785
11
236.660603
21
743.805466
0
LINE
8
boundary
62
5
39
2
10
236.660603
20
743.805466
11
234.865505
21
745.191819
0
LINE
8
boundary
62
5
39
2
10
234.865505
20
745.191819
11
233.793468
21
746.019755
0
LINE
8
boundary
62
5
39
2
10
233.793468
20
746.019755
11
232.178559
21
747.612372
0
LINE
8
boundary
62
5
39
2
10
232.178559
20
747.612372
11
231.214133
21
748.563491
0
LINE
8
boundary
62
5
39
2
10
231.214133
20
748.563491
11
229.802973
21
750.339152
0
LINE
8
boundary
62
5
39
2
10
229.802973
20
750.339152
11
228.960222
21
751.399585
0
LINE
8
boundary
62
5
39
2
10
228.960222
20
751.399585
11
227.773375
21
753.332400
0
LINE
8
boundary
62
5
39
2
10
227.773375
20
753.332400
11
227.064594
21
754.486680
0
LINE
8
boundary
62
5
39
2
10
227.064594
20
754.486680
11
226.119385
21
756.548461
0
LINE
8
boundary
62
5
39
2
10
226.119385
20
756.548461
11
225.554903
21
757.779762
0
LINE
8
boundary
62
5
39
2
10
225.554903
20
757.779762
11
224.865104
21
759.940447
0
LINE
8
boundary
62
5
39
2
10
224.865104
20
759.940447
11
224.453157
21
761.230810
0
LINE
8
boundary
62
5
39
2
10
224.453157
20
761.230810
11
224.028824
21
763.458882
0
LINE
8
boundary
62
5
39
2
10
224.028824
20
763.458882
11
223.775410
21
764.789492
0
LINE
8
boundary
62
5
39
2
10
223.775410
20
764.789492
11
223.622719
21
767.052487
0
LINE
8
boundary
62
5
39
2
10
223.622719
20
767.052487
11
223.531548
21
768.403829
0
LINE
8
boundary
62
5
39
2
10
223.531548
20
768.403829
11
223.652748
21
770.668724
0
LINE
8
boundary
62
5
39
2
10
223.652748
20
770.668724
11
223.721671
21
772.021630
0
LINE
8
boundary
62
5
39
2
10
223.721671
20
772.021630
11
225.269015
21
785.522007
0
LINE
8
boundary
62
5
39
2
10
225.269015
20
785.522007
11
225.368503
21
786.392068
0
LINE
8
boundary
62
5
39
2
10
225.368503
20
786.392068
11
225.474232
21
787.316490
0
LINE
8
boundary
62
5
39
2
10
225.474232
20
787.316490
11
225.581397
21
788.253493
0
LINE
8
boundary
62
5
39
2
10
225.581397
20
788.253493
11
225.684683
21
789.156614
0
LINE
8
boundary
62
5
39
2
10
225.684683
20
789.156614
11
225.778746
21
789.979087
0
LINE
8
boundary
62
5
39
2
10
225.778746
20
789.979087
11
235.350889
21
873.682260
0
LINE
8
boundary
62
5
39
2
10
235.350889
20
873.682260
11
235.450162
21
874.550960
0
LINE
8
boundary
62
5
39
2
10
235.450162
20
874.550960
11
235.556080
21
875.476964
0
LINE
8
boundary
62
5
39
2
10
235.556080
20
875.476964
11
237.593754
21
892.575402
0
LINE
8
boundary
62
5
39
2
10
237.593754
20
892.575402
11
237.987164
21
894.809467
0
LINE
8
boundary
62
5
39
2
10
237.987164
20
894.809467
11
238.646858
21
896.979517
0
LINE
8
boundary
62
5
39
2
10
238.646858
20
896.979517
11
239.040888
21
898.275701
0
LINE
8
boundary
62
5
39
2
10
239.040888
20
898.275701
11
239.957358
21
900.350415
0
LINE
8
boundary
62
5
39
2
10
239.957358
20
900.350415
11
240.504684
21
901.589438
0
LINE
8
boundary
62
5
39
2
10
240.504684
20
901.589438
11
241.664543
21
903.538548
0
LINE
8
boundary
62
5
39
2
10
241.664543
20
903.538548
11
242.357221
21
904.702570
0
LINE
8
boundary
62
5
39
2
10
242.357221
20
904.702570
11
243.743568
21
906.497676
0
LINE
8
boundary
62
5
39
2
10
243.743568
20
906.497676
11
244.571508
21
907.569719
0
LINE
8
boundary
62
5
39
2
10
244.571508
20
907.569719
11
246.164120
21
909.184616
0
LINE
8
boundary
62
5
39
2
10
246.164120
20
909.184616
11
247.115240
21
910.149040
0
LINE
8
boundary
62
5
39
2
10
247.115240
20
910.149040
11
248.890907
21
911.560222
0
LINE
8
boundary
62
5
39
2
10
248.890907
20
911.560222
11
249.951339
21
912.402969
0
LINE
8
boundary
62
5
39
2
10
249.951339
20
912.402969
11
251.884147
21
913.589807
0
LINE
8
boundary
62
5
39
2
10
251.884147
20
913.589807
11
253.038432
21
914.298592
0
LINE
8
boundary
62
5
39
2
10
253.038432
20
914.298592
11
255.100206
21
915.243802
0
LINE
8
boundary
62
5
39
2
10
255.100206
20
915.243802
11
256.331508
21
915.808282
0
LINE
8
boundary
62
5
39
2
10
256.331508
20
915.808282
11
258.492189
21
916.498088
0
LINE
8
boundary
62
5
39
2
10
258.492189
20
916.498088
11
259.782555
21
916.910039
0
LINE
8
boundary
62
5
39
2
10
259.782555
20
916.910039
11
262.010628
21
917.334364
0
LINE
8
boundary
62
5
39
2
10
262.010628
20
917.334364
11
263.341238
21
917.587769
0
LINE
8
boundary
62
5
39
2
10
263.341238
20
917.587769
11
265.604209
21
917.740455
0
LINE
8
boundary
62
5
39
2
10
265.604209
20
917.740455
11
266.955551
21
917.831635
0
LINE
8
boundary
62
5
39
2
10
266.955551
20
917.831635
11
269.220415
21
917.710439
0
LINE
8
boundary
62
5
39
2
10
269.220415
20
917.710439
11
270.573314
21
917.641501
0
LINE
8
boundary
62
5
39
2
10
270.573314
20
917.641501
11
281.629918
21
916.374205
0
LINE
8
boundary
62
5
39
2
10
281.629918
20
916.374205
11
325.785184
21
911.489786
0
LINE
8
boundary
62
5
39
2
10
325.785184
20
911.489786
11
343.676020
21
909.443810
0
LINE
8
boundary
62
5
39
2
10
343.676020
20
909.443810
11
344.648784
21
909.524264
0
LINE
8
boundary
62
5
39
2
10
344.648784
20
909.524264
11
346.182376
21
909.836085
0
LINE
8
boundary
62
5
39
2
10
346.182376
20
909.836085
11
348.076039
21
910.641283
0
LINE
8
boundary
62
5
39
2
10
348.076039
20
910.641283
11
349.764435
21
911.817234
0
LINE
8
boundary
62
5
39
2
10
349.764435
20
911.817234
11
351.176036
21
913.313964
0
LINE
8
boundary
62
5
39
2
10
351.176036
20
913.313964
11
352.250653
21
915.067781
0
LINE
8
boundary
62
5
39
2
10
352.250653
20
915.067781
11
352.943249
21
917.004306
0
LINE
8
boundary
62
5
39
2
10
352.943249
20
917.004306
11
353.224357
21
919.041274
0
LINE
8
boundary
62
5
39
2
10
353.224357
20
919.041274
11
353.069497
21
921.189929
0
LINE
8
boundary
62
5
39
2
10
353.069497
20
921.189929
11
352.483377
21
923.185656
0
LINE
8
boundary
62
5
39
2
10
352.483377
20
923.185656
11
351.496971
21
925.016714
0
LINE
8
boundary
62
5
39
2
10
351.496971
20
925.016714
11
350.152930
21
926.603683
0
LINE
8
boundary
62
5
39
2
10
350.152930
20
926.603683
11
348.509952
21
927.877590
0
LINE
8
boundary
62
5
39
2
10
348.509952
20
927.877590
11
347.673837
21
928.274423
0
LINE
8
boundary
62
5
39
2
10
347.673837
20
928.274423
11
346.248066
21
928.924882
0
LINE
8
boundary
62
5
39
2
10
346.248066
20
928.924882
11
344.366302
21
929.254118
0
LINE
8
boundary
62
5
39
2
10
344.366302
20
929.254118
11
334.111873
21
930.425599
0
LINE
8
boundary
62
5
39
2
10
334.111873
20
930.425599
11
305.168218
21
933.672647
0
LINE
8
boundary
62
5
39
2
10
305.168218
20
933.672647
11
231.872936
21
942.125186
0
LINE
8
boundary
62
5
39
2
10
231.872936
20
942.125186
11
229.487179
21
942.251295
0
LINE
8
boundary
62
5
39
2
10
229.487179
20
942.251295
11
228.255493
21
942.168203
0
LINE
8
boundary
62
5
39
2
10
228.255493
20
942.168203
11
225.873353
21
942.004225
0
LINE
8
boundary
62
5
39
2
10
225.873353
20
942.004225
11
223.527034
21
941.558947
0
LINE
8
boundary
62
5
39
2
10
223.527034
20
941.558947
11
222.314218
21
941.327982
0
LINE
8
boundary
62
5
39
2
10
222.314218
20
941.327982
11
220.038091
21
940.603758
0
LINE
8
boundary
62
5
39
2
10
220.038091
20
940.603758
11
218.862121
21
940.228328
0
LINE
8
boundary
62
5
39
2
10
218.862121
20
940.228328
11
217.739972
21
939.713882
0
LINE
8
boundary
62
5
39
2
10
217.739972
20
939.713882
11
215.570595
21
938.713587
0
LINE
8
boundary
62
5
39
2
10
215.570595
20
938.713587
11
213.535077
21
937.464907
0
LINE
8
boundary
62
5
39
2
10
213.535077
20
937.464907
11
212.482886
21
936.818811
0
LINE
8
boundary
62
5
39
2
10
212.482886
20
936.818811
11
210.612312
21
935.334187
0
LINE
8
boundary
62
5
39
2
10
210.612312
20
935.334187
11
209.645734
21
934.566034
0
LINE
8
boundary
62
5
39
2
10
209.645734
20
934.566034
11
207.966777
21
932.867367
0
LINE
8
boundary
62
5
39
2
10
207.966777
20
932.867367
11
207.099977
21
931.988438
0
LINE
8
boundary
62
5
39
2
10
207.099977
20
931.988438
11
206.345438
21
931.011434
0
LINE
8
boundary
62
5
39
2
10
206.345438
20
931.011434
11
204.889803
21
929.117172
0
LINE
8
boundary
62
5
39
2
10
204.889803
20
929.117172
11
203.667151
21
927.066260
0
LINE
8
boundary
62
5
39
2
10
203.667151
20
927.066260
11
203.035729
21
926.005197
0
LINE
8
boundary
62
5
39
2
10
203.035729
20
926.005197
11
202.451723
21
924.789007
0
LINE
8
boundary
62
5
39
2
10
202.451723
20
924.789007
11
201.953124
21
923.660269
0
LINE
8
boundary
62
5
39
2
10
201.953124
20
923.660269
11
201.568896
21
922.692866
0
LINE
8
boundary
62
5
39
2
10
201.568896
20
922.692866
11
201.269052
21
921.843585
0
LINE
8
boundary
62
5
39
2
10
201.269052
20
921.843585
11
200.910176
21
920.663065
0
LINE
8
boundary
62
5
39
2
10
200.910176
20
920.663065
11
200.431786
21
918.782663
0
LINE
8
boundary
62
5
39
2
10
200.431786
20
918.782663
11
200.098801
21
916.871968
0
LINE
8
boundary
62
5
39
2
10
200.098801
20
916.871968
11
199.883829
21
915.657124
0
LINE
8
boundary
62
5
39
2
10
199.883829
20
915.657124
11
197.763200
21
897.109408
0
LINE
8
boundary
62
5
39
2
10
197.763200
20
897.109408
11
197.652623
21
896.141805
0
LINE
8
boundary
62
5
39
2
10
197.652623
20
896.141805
11
197.535833
21
895.120068
0
LINE
8
boundary
62
5
39
2
10
197.535833
20
895.120068
11
191.088286
21
838.541964
0
LINE
8
boundary
62
5
39
2
10
191.088286
20
838.541964
11
191.013788
21
837.891302
0
LINE
8
boundary
62
5
39
2
10
191.013788
20
837.891302
11
190.929734
21
837.156722
0
LINE
8
boundary
62
5
39
2
10
190.929734
20
837.156722
11
190.839985
21
836.372598
0
LINE
8
boundary
62
5
39
2
10
190.839985
20
836.372598
11
190.749180
21
835.578366
0
LINE
8
boundary
62
5
39
2
10
190.749180
20
835.578366
11
190.661871
21
834.814311
0
LINE
8
boundary
62
5
39
2
10
190.661871
20
834.814311
11
190.582322
21
834.117755
0
LINE
8
boundary
62
5
39
2
10
190.582322
20
834.117755
11
190.513977
21
833.519440
0
LINE
8
boundary
62
5
39
2
10
190.513977
20
833.519440
11
184.044037
21
776.762937
0
LINE
8
boundary
62
5
39
2
10
184.044037
20
776.762937
11
181.743858
21
756.644528
0
LINE
8
boundary
62
5
39
2
10
181.743858
20
756.644528
11
181.657911
21
756.088883
0
LINE
8
boundary
62
5
39
2
10
181.657911
20
756.088883
11
181.569148
21
754.566834
0
LINE
8
boundary
62
5
39
2
10
181.569148
20
754.566834
11
181.540383
21
752.371989
0
LINE
8
boundary
62
5
39
2
10
181.540383
20
752.371989
11
181.660553
21
750.590765
0
LINE
8
boundary
62
5
39
2
10
181.660553
20
750.590765
11
181.887409
21
748.664011
0
LINE
8
boundary
62
5
39
2
10
181.887409
20
748.664011
11
182.221397
21
746.910259
0
LINE
8
boundary
62
5
39
2
10
182.221397
20
746.910259
11
182.691581
21
745.028035
0
LINE
8
boundary
62
5
39
2
10
182.691581
20
745.028035
11
183.234534
21
743.327328
0
LINE
8
boundary
62
5
39
2
10
183.234534
20
743.327328
11
183.940395
21
741.520241
0
LINE
8
boundary
62
5
39
2
10
183.940395
20
741.520241
11
184.684387
21
739.897378
0
LINE
8
boundary
62
5
39
2
10
184.684387
20
739.897378
11
185.614456
21
738.194793
0
LINE
8
boundary
62
5
39
2
10
185.614456
20
738.194793
11
186.548632
21
736.673444
0
LINE
8
boundary
62
5
39
2
10
186.548632
20
736.673444
11
187.687785
21
735.103049
0
LINE
8
boundary
62
5
39
2
10
187.687785
20
735.103049
11
188.798536
21
733.705394
0
LINE
8
boundary
62
5
39
2
10
188.798536
20
733.705394
11
190.128265
21
732.292725
0
LINE
8
boundary
62
5
39
2
10
190.128265
20
732.292725
11
191.399374
21
731.039145
0
LINE
8
boundary
62
5
39
2
10
191.399374
20
731.039145
11
192.898035
21
729.807151
0
LINE
8
boundary
62
5
39
2
10
192.898035
20
729.807151
11
194.310991
21
728.715927
0
LINE
8
boundary
62
5
39
2
10
194.310991
20
728.715927
11
195.954236
21
727.684655
0
LINE
8
boundary
62
5
39
2
10
195.954236
20
727.684655
11
197.488421
21
726.771698
0
LINE
8
boundary
62
5
39
2
10
197.488421
20
726.771698
11
199.249547
21
725.957911
0
LINE
8
boundary
62
5
39
2
10
199.249547
20
725.957911
11
200.882590
21
725.236539
0
LINE
8
boundary
62
5
39
2
10
200.882590
20
725.236539
11
202.732948
21
724.653459
0
LINE
8
boundary
62
5
39
2
10
202.732948
20
724.653459
11
204.441253
21
724.134133
0
LINE
8
boundary
62
5
39
2
10
204.441253
20
724.134133
11
206.351030
21
723.791186
0
LINE
8
boundary
62
5
39
2
10
206.351030
20
723.791186
11
208.109531
21
723.481581
0
LINE
8
boundary
62
5
39
2
10
208.109531
20
723.481581
11
231.871000
21
720.764286
0
LINE
8
boundary
62
5
39
2
10
231.871000
20
720.764286
11
301.418173
21
712.811054
0
LINE
8
annotation
62
1
39
211
10
195.369077
20
778.362880
11
199.071025
21
778.362880
0
LINE
8
annotation
62
1
39
211
10
199.071025
20
778.362880
11
199.071025
21
778.362880
0
LINE
8
annotation
62
1
39
211
10
199.071025
20
778.362880
11
199.736830
21
778.422607
0
LINE
8
annotation
62
1
39
211
10
199.736830
20
778.422607
11
200.363328
21
778.594744
0
LINE
8
annotation
62
1
39
211
10
200.363328
20
778.594744
11
200.940102
21
778.868725
0
LINE
8
annotation
62
1
39
211
10
200.940102
20
778.868725
11
201.456729
21
779.233982
0
LINE
8
annotation
62
1
39
211
10
201.456729
20
779.233982
11
201.902790
21
779.679950
0
LINE
8
annotation
62
1
39
211
10
201.902790
20
779.679950
11
202.267865
21
780.196063
0
LINE
8
annotation
62
1
39
211
10
202.267865
20
780.196063
11
202.541535
21
780.771753
0
LINE
8
annotation
62
1
39
211
10
202.541535
20
780.771753
11
202.713378
21
781.396455
0
LINE
8
annotation
62
1
39
211
10
202.713378
20
781.396455
11
202.772974
21
782.059602
0
LINE
8
annotation
62
1
39
211
10
202.772974
20
782.059602
11
202.772974
21
783.913190
0
LINE
8
annotation
62
1
39
211
10
202.772974
20
783.913190
11
202.772974
21
783.913190
0
LINE
8
annotation
62
1
39
211
10
202.772974
20
783.913190
11
202.713378
21
784.576062
0
LINE
8
annotation
62
1
39
211
10
202.713378
20
784.576062
11
202.541535
21
785.200617
0
LINE
8
annotation
62
1
39
211
10
202.541535
20
785.200617
11
202.267865
21
785.776264
0
LINE
8
annotation
62
1
39
211
10
202.267865
20
785.776264
11
201.902790
21
786.292411
0
LINE
8
annotation
62
1
39
211
10
201.902790
20
786.292411
11
201.456729
21
786.738465
0
LINE
8
annotation
62
1
39
211
10
201.456729
20
786.738465
11
200.940102
21
787.103835
0
LINE
8
annotation
62
1
39
211
10
200.940102
20
787.103835
11
200.363328
21
787.377927
0
LINE
8
annotation
62
1
39
211
10
200.363328
20
787.377927
11
199.736830
21
787.550150
0
LINE
8
annotation
62
1
39
211
10
199.736830
20
787.550150
11
199.071025
21
787.609911
0
LINE
8
annotation
62
1
39
211
10
199.071025
20
787.609911
11
197.217437
21
787.609911
0
LINE
8
annotation
62
1
39
211
10
197.217437
20
787.609911
11
199.071025
21
787.609911
0
LINE
8
annotation
62
1
39
211
10
199.071025
20
787.609911
11
199.071025
21
787.609911
0
LINE
8
annotation
62
1
39
211
10
199.071025
20
787.609911
11
199.736830
21
787.669687
0
LINE
8
annotation
62
1
39
211
10
199.736830
20
787.669687
11
200.363328
21
787.842010
0
LINE
8
annotation
62
1
39
211
10
200.363328
20
787.842010
11
200.940102
21
788.116375
0
LINE
8
annotation
62
1
39
211
10
200.940102
20
788.116375
11
201.456729
21
788.482275
0
LINE
8
annotation
62
1
39
211
10
201.456729
20
788.482275
11
201.902790
21
788.929204
0
LINE
8
annotation
62
1
39
211
10
201.902790
20
788.929204
11
202.267865
21
789.446656
0
LINE
8
annotation
62
1
39
211
10
202.267865
20
789.446656
11
202.541535
21
790.024125
0
LINE
8
annotation
62
1
39
211
10
202.541535
20
790.024125
11
202.713378
21
790.651104
0
LINE
8
annotation
62
1
39
211
10
202.713378
20
790.651104
11
202.772974
21
791.317087
0
LINE
8
annotation
62
1
39
211
10
202.772974
20
791.317087
11
202.772974
21
791.317087
0
LINE
8
annotation
62
1
39
211
10
202.772974
20
791.317087
11
202.713378
21
791.979959
0
LINE
8
annotation
62
1
39
211
10
202.713378
20
791.979959
11
202.541535
21
792.604515
0
LINE
8
annotation
62
1
39
211
10
202.541535
20
792.604515
11
202.267865
21
793.180162
0
LINE
8
annotation
62
1
39
211
10
202.267865
20
793.180162
11
201.902790
21
793.696309
0
LINE
8
annotation
62
1
39
211
10
201.902790
20
793.696309
11
201.456729
21
794.142363
0
LINE
8
annotation
62
1
39
211
10
201.456729
20
794.142363
11
200.940102
21
794.507732
0
LINE
8
annotation
62
1
39
211
10
200.940102
20
794.507732
11
200.363328
21
794.781824
0
LINE
8
annotation
62
1
39
211
10
200.363328
20
794.781824
11
199.736830
21
794.954047
0
LINE
8
annotation
62
1
39
211
10
199.736830
20
794.954047
11
199.071025
21
795.013809
0
LINE
8
annotation
62
1
39
211
10
199.071025
20
795.013809
11
195.369077
21
795.013809
0
LINE
8
annotation
62
1
39
211
10
211.702294
20
778.582251
11
211.702294
21
778.582251
0
LINE
8
annotation
62
1
39
211
10
211.702294
20
778.582251
11
212.089744
21
778.437412
0
LINE
8
annotation
62
1
39
211
10
212.089744
20
778.437412
11
212.487106
21
778.365454
0
LINE
8
annotation
62
1
39
211
10
212.487106
20
778.365454
11
212.885398
21
778.363442
0
LINE
8
annotation
62
1
39
211
10
212.885398
20
778.363442
11
213.275636
21
778.428442
0
LINE
8
annotation
62
1
39
211
10
213.275636
20
778.428442
11
213.648837
21
778.557520
0
LINE
8
annotation
62
1
39
211
10
213.648837
20
778.557520
11
213.996018
21
778.747743
0
LINE
8
annotation
62
1
39
211
10
213.996018
20
778.747743
11
214.308195
21
778.996175
0
LINE
8
annotation
62
1
39
211
10
214.308195
20
778.996175
11
214.576386
21
779.299882
0
LINE
8
annotation
62
1
39
211
10
214.576386
20
779.299882
11
214.791607
21
779.655931
0
LINE
8
annotation
62
1
39
211
10
214.791607
20
779.655931
11
214.791607
21
779.655931
0
LINE
8
annotation
62
1
39
211
10
214.791607
20
779.655931
11
215.433748
21
781.159019
0
LINE
8
annotation
62
1
39
211
10
215.433748
20
781.159019
11
215.915353
21
782.705611
0
LINE
8
annotation
62
1
39
211
10
215.915353
20
782.705611
11
216.236423
21
784.283377
0
LINE
8
annotation
62
1
39
211
10
216.236423
20
784.283377
11
216.396958
21
785.879987
0
LINE
8
annotation
62
1
39
211
10
216.396958
20
785.879987
11
216.396958
21
787.483111
0
LINE
8
annotation
62
1
39
211
10
216.396958
20
787.483111
11
216.236423
21
789.080418
0
LINE
8
annotation
62
1
39
211
10
216.236423
20
789.080418
11
215.915353
21
790.659579
0
LINE
8
annotation
62
1
39
211
10
215.915353
20
790.659579
11
215.433748
21
792.208261
0
LINE
8
annotation
62
1
39
211
10
215.433748
20
792.208261
11
214.791607
21
793.714137
0
LINE
8
annotation
62
1
39
211
10
214.791607
20
793.714137
11
214.791607
21
793.714137
0
LINE
8
annotation
62
1
39
211
10
214.791607
20
793.714137
11
214.709946
21
793.866112
0
LINE
8
annotation
62
1
39
211
10
214.709946
20
793.866112
11
214.617365
21
794.011410
0
LINE
8
annotation
62
1
39
211
10
214.617365
20
794.011410
11
214.514562
21
794.149316
0
LINE
8
annotation
62
1
39
211
10
214.514562
20
794.149316
11
214.402234
21
794.279117
0
LINE
8
annotation
62
1
39
211
10
214.402234
20
794.279117
11
214.281078
21
794.400099
0
LINE
8
annotation
62
1
39
211
10
214.281078
20
794.400099
11
214.151790
21
794.511546
0
LINE
8
annotation
62
1
39
211
10
214.151790
20
794.511546
11
214.015068
21
794.612746
0
LINE
8
annotation
62
1
39
211
10
214.015068
20
794.612746
11
213.871609
21
794.702983
0
LINE
8
annotation
62
1
39
211
10
213.871609
20
794.702983
11
213.722109
21
794.781544
0
LINE
8
annotation
62
1
39
211
10
213.722109
20
794.781544
11
213.722109
21
794.781544
0
LINE
8
annotation
62
1
39
211
10
213.722109
20
794.781544
11
213.331583
21
794.929522
0
LINE
8
annotation
62
1
39
211
10
213.331583
20
794.929522
11
212.931893
21
795.003940
0
LINE
8
annotation
62
1
39
211
10
212.931893
20
795.003940
11
212.531919
21
795.007749
0
LINE
8
annotation
62
1
39
211
10
212.531919
20
795.007749
11
212.140541
21
794.943900
0
LINE
8
annotation
62
1
39
211
10
212.140541
20
794.943900
11
211.766639
21
794.815346
0
LINE
8
annotation
62
1
39
211
10
211.766639
20
794.815346
11
211.419092
21
794.625036
0
LINE
8
annotation
62
1
39
211
10
211.419092
20
794.625036
11
211.106781
21
794.375923
0
LINE
8
annotation
62
1
39
211
10
211.106781
20
794.375923
11
210.838586
21
794.070957
0
LINE
8
annotation
62
1
39
211
10
210.838586
20
794.070957
11
210.623386
21
793.713091
0
LINE
8
annotation
62
1
39
211
10
210.623386
20
793.713091
11
210.623386
21
793.713091
0
LINE
8
annotation
62
1
39
211
10
210.623386
20
793.713091
11
209.984344
21
792.210314
0
LINE
8
annotation
62
1
39
211
10
209.984344
20
792.210314
11
209.505062
21
790.663954
0
LINE
8
annotation
62
1
39
211
10
209.505062
20
790.663954
11
209.185540
21
789.086343
0
LINE
8
annotation
62
1
39
211
10
209.185540
20
789.086343
11
209.025780
21
787.489810
0
LINE
8
annotation
62
1
39
211
10
209.025780
20
787.489810
11
209.025780
21
785.886686
0
LINE
8
annotation
62
1
39
211
10
209.025780
20
785.886686
11
209.185540
21
784.289301
0
LINE
8
annotation
62
1
39
211
10
209.185540
20
784.289301
11
209.505062
21
782.709986
0
LINE
8
annotation
62
1
39
211
10
209.505062
20
782.709986
11
209.984344
21
781.161071
0
LINE
8
annotation
62
1
39
211
10
209.984344
20
781.161071
11
210.623386
21
779.654886
0
LINE
8
annotation
62
1
39
211
10
210.623386
20
779.654886
11
210.623386
21
779.654886
0
LINE
8
annotation
62
1
39
211
10
210.623386
20
779.654886
11
210.704751
21
779.503214
0
LINE
8
annotation
62
1
39
211
10
210.704751
20
779.503214
11
210.796648
21
779.358640
0
LINE
8
annotation
62
1
39
211
10
210.796648
20
779.358640
11
210.898689
21
779.221604
0
LINE
8
annotation
62
1
39
211
10
210.898689
20
779.221604
11
211.010488
21
779.092544
0
LINE
8
annotation
62
1
39
211
10
211.010488
20
779.092544
11
211.131657
21
778.971900
0
LINE
8
annotation
62
1
39
211
10
211.131657
20
778.971900
11
211.261810
21
778.860109
0
LINE
8
annotation
62
1
39
211
10
211.261810
20
778.860109
11
211.400558
21
778.757612
0
LINE
8
annotation
62
1
39
211
10
211.400558
20
778.757612
11
211.547515
21
778.664846
0
LINE
8
annotation
62
1
39
211
10
211.547515
20
778.664846
11
211.702294
21
778.582251
0
LINE
8
boundary
62
5
39
2
10
304.539071
20
947.146113
11
320.087516
21
945.442648
0
LINE
8
boundary
62
5
39
2
10
320.087516
20
945.442648
11
320.798073
21
945.436295
0
LINE
8
boundary
62
5
39
2
10
320.798073
20
945.436295
11
321.428711
21
945.426295
0
LINE
8
boundary
62
5
39
2
10
321.428711
20
945.426295
11
322.048745
21
945.539599
0
LINE
8
boundary
62
5
39
2
10
322.048745
20
945.539599
11
323.438114
21
945.821898
0
LINE
8
boundary
62
5
39
2
10
323.438114
20
945.821898
11
324.024143
21
946.053984
0
LINE
8
boundary
62
5
39
2
10
324.024143
20
946.053984
11
325.325062
21
946.619170
0
LINE
8
boundary
62
5
39
2
10
325.325062
20
946.619170
11
325.854572
21
946.961113
0
LINE
8
boundary
62
5
39
2
10
325.854572
20
946.961113
11
327.009555
21
947.784412
0
LINE
8
boundary
62
5
39
2
10
327.009555
20
947.784412
11
327.462212
21
948.223076
0
LINE
8
boundary
62
5
39
2
10
327.462212
20
948.223076
11
328.420781
21
949.268530
0
LINE
8
boundary
62
5
39
2
10
328.420781
20
949.268530
11
328.779451
21
949.786874
0
LINE
8
boundary
62
5
39
2
10
328.779451
20
949.786874
11
329.499695
21
951.008753
0
LINE
8
boundary
62
5
39
2
10
329.499695
20
951.008753
11
329.749405
21
951.587468
0
LINE
8
boundary
62
5
39
2
10
329.749405
20
951.587468
11
329.989407
21
952.591329
0
LINE
8
boundary
62
5
39
2
10
329.989407
20
952.591329
11
330.354503
21
953.681361
0
LINE
8
boundary
62
5
39
2
10
330.354503
20
953.681361
11
330.484983
21
954.823488
0
LINE
8
boundary
62
5
39
2
10
330.484983
20
954.823488
11
330.497222
21
955.706165
0
LINE
8
boundary
62
5
39
2
10
330.497222
20
955.706165
11
330.387401
21
956.850356
0
LINE
8
boundary
62
5
39
2
10
330.387401
20
956.850356
11
330.229421
21
957.718344
0
LINE
8
boundary
62
5
39
2
10
330.229421
20
957.718344
11
329.884094
21
958.814748
0
LINE
8
boundary
62
5
39
2
10
329.884094
20
958.814748
11
329.559499
21
959.635055
0
LINE
8
boundary
62
5
39
2
10
329.559499
20
959.635055
11
328.993750
21
960.635726
0
LINE
8
boundary
62
5
39
2
10
328.993750
20
960.635726
11
328.515067
21
961.376874
0
LINE
8
boundary
62
5
39
2
10
328.515067
20
961.376874
11
327.753634
21
962.238055
0
LINE
8
boundary
62
5
39
2
10
327.753634
20
962.238055
11
327.139620
21
962.871613
0
LINE
8
boundary
62
5
39
2
10
327.139620
20
962.871613
11
326.215760
21
963.555666
0
LINE
8
boundary
62
5
39
2
10
326.215760
20
963.555666
11
325.489890
21
964.057235
0
LINE
8
boundary
62
5
39
2
10
325.489890
20
964.057235
11
324.444285
21
964.534166
0
LINE
8
boundary
62
5
39
2
10
324.444285
20
964.534166
11
323.634511
21
964.884484
0
LINE
8
boundary
62
5
39
2
10
323.634511
20
964.884484
11
322.771933
21
965.070090
0
LINE
8
boundary
62
5
39
2
10
322.771933
20
965.070090
11
321.999844
21
965.238843
0
LINE
8
boundary
62
5
39
2
10
321.999844
20
965.238843
11
301.058736
21
967.734372
0
LINE
8
boundary
62
5
39
2
10
301.058736
20
967.734372
11
249.140028
21
973.671722
0
LINE
8
boundary
62
5
39
2
10
249.140028
20
973.671722
11
246.550074
21
974.127784
0
LINE
8
boundary
62
5
39
2
10
246.550074
20
974.127784
11
244.034389
21
974.892555
0
LINE
8
boundary
62
5
39
2
10
244.034389
20
974.892555
11
243.083901
21
975.181500
0
LINE
8
boundary
62
5
39
2
10
243.083901
20
975.181500
11
240.678710
21
976.243941
0
LINE
8
boundary
62
5
39
2
10
240.678710
20
976.243941
11
239.770146
21
976.645285
0
LINE
8
boundary
62
5
39
2
10
239.770146
20
976.645285
11
237.510569
21
977.989899
0
LINE
8
boundary
62
5
39
2
10
237.510569
20
977.989899
11
236.657006
21
978.497834
0
LINE
8
boundary
62
5
39
2
10
236.657006
20
978.497834
11
234.575983
21
980.105006
0
LINE
8
boundary
62
5
39
2
10
234.575983
20
980.105006
11
233.789870
21
980.712122
0
LINE
8
boundary
62
5
39
2
10
233.789870
20
980.712122
11
231.917737
21
982.558414
0
LINE
8
boundary
62
5
39
2
10
231.917737
20
982.558414
11
231.210534
21
983.255859
0
LINE
8
boundary
62
5
39
2
10
231.210534
20
983.255859
11
229.574603
21
985.314349
0
LINE
8
boundary
62
5
39
2
10
229.574603
20
985.314349
11
228.956623
21
986.091953
0
LINE
8
boundary
62
5
39
2
10
228.956623
20
986.091953
11
227.580734
21
988.332629
0
LINE
8
boundary
62
5
39
2
10
227.580734
20
988.332629
11
227.060992
21
989.179049
0
LINE
8
boundary
62
5
39
2
10
227.060992
20
989.179049
11
225.965229
21
991.569233
0
LINE
8
boundary
62
5
39
2
10
225.965229
20
991.569233
11
225.551301
21
992.472132
0
LINE
8
boundary
62
5
39
2
10
225.551301
20
992.472132
11
224.751630
21
994.976973
0
LINE
8
boundary
62
5
39
2
10
224.751630
20
994.976973
11
224.449555
21
995.923182
0
LINE
8
boundary
62
5
39
2
10
224.449555
20
995.923182
11
223.957634
21
998.506143
0
LINE
8
boundary
62
5
39
2
10
223.957634
20
998.506143
11
223.771808
21
999.481864
0
LINE
8
boundary
62
5
39
2
10
223.771808
20
999.481864
11
223.594796
21
1002.105312
0
LINE
8
boundary
62
5
39
2
10
223.594796
20
1002.105312
11
223.527941
21
1003.096235
0
LINE
8
boundary
62
5
39
2
10
223.527941
20
1003.096235
11
223.668446
21
1005.721885
0
LINE
8
boundary
62
5
39
2
10
223.668446
20
1005.721885
11
223.718986
21
1006.713954
0
LINE
8
boundary
62
5
39
2
10
223.718986
20
1006.713954
11
224.853634
21
1016.613613
0
LINE
8
boundary
62
5
39
2
10
224.853634
20
1016.613613
11
224.926588
21
1017.251618
0
LINE
8
boundary
62
5
39
2
10
224.926588
20
1017.251618
11
225.004118
21
1017.929485
0
LINE
8
boundary
62
5
39
2
10
225.004118
20
1017.929485
11
225.082700
21
1018.616578
0
LINE
8
boundary
62
5
39
2
10
225.082700
20
1018.616578
11
225.158439
21
1019.278826
0
LINE
8
boundary
62
5
39
2
10
225.158439
20
1019.278826
11
225.227414
21
1019.881935
0
LINE
8
boundary
62
5
39
2
10
225.227414
20
1019.881935
11
235.882842
21
1113.057847
0
LINE
8
boundary
62
5
39
2
10
235.882842
20
1113.057847
11
235.955638
21
1113.694855
0
LINE
8
boundary
62
5
39
2
10
235.955638
20
1113.694855
11
236.033306
21
1114.373883
0
LINE
8
boundary
62
5
39
2
10
236.033306
20
1114.373883
11
237.527510
21
1126.911973
0
LINE
8
boundary
62
5
39
2
10
237.527510
20
1126.911973
11
237.983583
21
1129.501882
0
LINE
8
boundary
62
5
39
2
10
237.983583
20
1129.501882
11
238.748353
21
1132.017580
0
LINE
8
boundary
62
5
39
2
10
238.748353
20
1132.017580
11
239.037291
21
1132.968058
0
LINE
8
boundary
62
5
39
2
10
239.037291
20
1132.968058
11
240.099738
21
1135.373236
0
LINE
8
boundary
62
5
39
2
10
240.099738
20
1135.373236
11
240.501086
21
1136.281798
0
LINE
8
boundary
62
5
39
2
10
240.501086
20
1136.281798
11
241.845689
21
1138.541364
0
LINE
8
boundary
62
5
39
2
10
241.845689
20
1138.541364
11
242.353623
21
1139.394929
0
LINE
8
boundary
62
5
39
2
10
242.353623
20
1139.394929
11
243.960788
21
1141.475962
0
LINE
8
boundary
62
5
39
2
10
243.960788
20
1141.475962
11
244.567908
21
1142.262080
0
LINE
8
boundary
62
5
39
2
10
244.567908
20
1142.262080
11
246.414193
21
1144.134200
0
LINE
8
boundary
62
5
39
2
10
246.414193
20
1144.134200
11
247.111639
21
1144.841401
0
LINE
8
boundary
62
5
39
2
10
247.111639
20
1144.841401
11
249.170136
21
1146.477358
0
LINE
8
boundary
62
5
39
2
10
249.170136
20
1146.477358
11
249.947739
21
1147.095335
0
LINE
8
boundary
62
5
39
2
10
249.947739
20
1147.095335
11
252.188407
21
1148.471213
0
LINE
8
boundary
62
5
39
2
10
252.188407
20
1148.471213
11
253.034832
21
1148.990957
0
LINE
8
boundary
62
5
39
2
10
253.034832
20
1148.990957
11
255.425008
21
1150.086722
0
LINE
8
boundary
62
5
39
2
10
255.425008
20
1150.086722
11
256.327908
21
1150.500649
0
LINE
8
boundary
62
5
39
2
10
256.327908
20
1150.500649
11
258.832745
21
1151.300328
0
LINE
8
boundary
62
5
39
2
10
258.832745
20
1151.300328
11
259.778955
21
1151.602407
0
LINE
8
boundary
62
5
39
2
10
259.778955
20
1151.602407
11
262.361919
21
1152.094319
0
LINE
8
boundary
62
5
39
2
10
262.361919
20
1152.094319
11
263.337640
21
1152.280138
0
LINE
8
boundary
62
5
39
2
10
263.337640
20
1152.280138
11
265.961061
21
1152.457144
0
LINE
8
boundary
62
5
39
2
10
265.961061
20
1152.457144
11
266.951984
21
1152.524005
0
LINE
8
boundary
62
5
39
2
10
266.951984
20
1152.524005
11
269.577598
21
1152.383505
0
LINE
8
boundary
62
5
39
2
10
269.577598
20
1152.383505
11
270.569663
21
1152.332954
0
LINE
8
boundary
62
5
39
2
10
270.569663
20
1152.332954
11
278.677346
21
1151.403660
0
LINE
8
boundary
62
5
39
2
10
278.677346
20
1151.403660
11
311.055900
21
1147.821971
0
LINE
8
boundary
62
5
39
2
10
311.055900
20
1147.821971
11
343.253399
21
1144.139900
0
LINE
8
boundary
62
5
39
2
10
343.253399
20
1144.139900
11
344.136081
21
1144.126079
0
LINE
8
boundary
62
5
39
2
10
344.136081
20
1144.126079
11
345.004048
21
1144.284691
0
LINE
8
boundary
62
5
39
2
10
345.004048
20
1144.284691
11
346.128616
21
1144.513346
0
LINE
8
boundary
62
5
39
2
10
346.128616
20
1144.513346
11
346.948964
21
1144.838246
0
LINE
8
boundary
62
5
39
2
10
346.948964
20
1144.838246
11
348.003310
21
1145.296307
0
LINE
8
boundary
62
5
39
2
10
348.003310
20
1145.296307
11
348.744509
21
1145.774997
0
LINE
8
boundary
62
5
39
2
10
348.744509
20
1145.774997
11
349.680586
21
1146.442264
0
LINE
8
boundary
62
5
39
2
10
349.680586
20
1146.442264
11
350.314329
21
1147.056418
0
LINE
8
boundary
62
5
39
2
10
350.314329
20
1147.056418
11
351.091220
21
1147.903715
0
LINE
8
boundary
62
5
39
2
10
351.091220
20
1147.903715
11
351.592494
21
1148.629493
0
LINE
8
boundary
62
5
39
2
10
351.592494
20
1148.629493
11
352.176256
21
1149.619833
0
LINE
8
boundary
62
5
39
2
10
352.176256
20
1149.619833
11
352.526670
21
1150.429723
0
LINE
8
boundary
62
5
39
2
10
352.526670
20
1150.429723
11
352.891765
21
1151.519764
0
LINE
8
boundary
62
5
39
2
10
352.891765
20
1151.519764
11
353.077434
21
1152.382544
0
LINE
8
boundary
62
5
39
2
10
353.077434
20
1152.382544
11
353.207915
21
1153.524683
0
LINE
8
boundary
62
5
39
2
10
353.207915
20
1153.524683
11
353.224462
21
1154.315642
0
LINE
8
boundary
62
5
39
2
10
353.224462
20
1154.315642
11
353.088944
21
1155.727493
0
LINE
8
boundary
62
5
39
2
10
353.088944
20
1155.727493
11
352.962439
21
1156.371763
0
LINE
8
boundary
62
5
39
2
10
352.962439
20
1156.371763
11
352.536334
21
1157.724633
0
LINE
8
boundary
62
5
39
2
10
352.536334
20
1157.724633
11
352.281959
21
1158.329933
0
LINE
8
boundary
62
5
39
2
10
352.281959
20
1158.329933
11
351.583883
21
1159.564668
0
LINE
8
boundary
62
5
39
2
10
351.583883
20
1159.564668
11
351.211924
21
1160.105703
0
LINE
8
boundary
62
5
39
2
10
351.211924
20
1160.105703
11
350.272391
21
1161.168303
0
LINE
8
boundary
62
5
39
2
10
350.272391
20
1161.168303
11
349.798304
21
1161.622514
0
LINE
8
boundary
62
5
39
2
10
349.798304
20
1161.622514
11
348.658706
21
1162.466358
0
LINE
8
boundary
62
5
39
2
10
348.658706
20
1162.466358
11
348.102242
21
1162.814790
0
LINE
8
boundary
62
5
39
2
10
348.102242
20
1162.814790
11
347.153978
21
1163.180525
0
LINE
8
boundary
62
5
39
2
10
347.153978
20
1163.180525
11
346.108479
21
1163.657498
0
LINE
8
boundary
62
5
39
2
10
346.108479
20
1163.657498
11
345.490712
21
1163.727779
0
LINE
8
boundary
62
5
39
2
10
345.490712
20
1163.727779
11
344.361935
21
1163.940684
0
LINE
8
boundary
62
5
39
2
10
344.361935
20
1163.940684
11
336.838370
21
1164.800187
0
LINE
8
boundary
62
5
39
2
10
336.838370
20
1164.800187
11
315.602721
21
1167.182511
0
LINE
8
boundary
62
5
39
2
10
315.602721
20
1167.182511
11
232.198312
21
1176.800852
0
LINE
8
boundary
62
5
39
2
10
232.198312
20
1176.800852
11
229.483505
21
1176.944354
0
LINE
8
boundary
62
5
39
2
10
229.483505
20
1176.944354
11
228.580453
21
1176.883433
0
LINE
8
boundary
62
5
39
2
10
228.580453
20
1176.883433
11
225.869761
21
1176.696839
0
LINE
8
boundary
62
5
39
2
10
225.869761
20
1176.696839
11
223.199830
21
1176.190147
0
LINE
8
boundary
62
5
39
2
10
223.199830
20
1176.190147
11
222.310565
21
1176.020797
0
LINE
8
boundary
62
5
39
2
10
222.310565
20
1176.020797
11
219.720506
21
1175.196686
0
LINE
8
boundary
62
5
39
2
10
219.720506
20
1175.196686
11
218.858319
21
1174.921431
0
LINE
8
boundary
62
5
39
2
10
218.858319
20
1174.921431
11
218.035592
21
1174.544255
0
LINE
8
boundary
62
5
39
2
10
218.035592
20
1174.544255
11
215.567007
21
1173.405996
0
LINE
8
boundary
62
5
39
2
10
215.567007
20
1173.405996
11
213.250744
21
1171.985094
0
LINE
8
boundary
62
5
39
2
10
213.250744
20
1171.985094
11
212.479211
21
1171.511335
0
LINE
8
boundary
62
5
39
2
10
212.479211
20
1171.511335
11
210.350641
21
1169.821947
0
LINE
8
boundary
62
5
39
2
10
210.350641
20
1169.821947
11
209.641915
21
1169.258712
0
LINE
8
boundary
62
5
39
2
10
209.641915
20
1169.258712
11
207.731391
21
1167.325760
0
LINE
8
boundary
62
5
39
2
10
207.731391
20
1167.325760
11
207.095878
21
1166.681355
0
LINE
8
boundary
62
5
39
2
10
207.095878
20
1166.681355
11
206.542672
21
1165.965044
0
LINE
8
boundary
62
5
39
2
10
206.542672
20
1165.965044
11
204.886271
21
1163.809519
0
LINE
8
boundary
62
5
39
2
10
204.886271
20
1163.809519
11
203.494987
21
1161.475738
0
LINE
8
boundary
62
5
39
2
10
203.494987
20
1161.475738
11
203.031989
21
1160.697702
0
LINE
8
boundary
62
5
39
2
10
203.031989
20
1160.697702
11
202.367435
21
1159.313770
0
LINE
8
boundary
62
5
39
2
10
202.367435
20
1159.313770
11
202.001958
21
1158.486395
0
LINE
8
boundary
62
5
39
2
10
202.001958
20
1158.486395
11
201.564735
21
1157.385565
0
LINE
8
boundary
62
5
39
2
10
201.564735
20
1157.385565
11
201.223536
21
1156.419148
0
LINE
8
boundary
62
5
39
2
10
201.223536
20
1156.419148
11
200.960506
21
1155.553914
0
LINE
8
boundary
62
5
39
2
10
200.960506
20
1155.553914
11
200.416134
21
1153.414160
0
LINE
8
boundary
62
5
39
2
10
200.416134
20
1153.414160
11
200.037224
21
1151.239936
0
LINE
8
boundary
62
5
39
2
10
200.037224
20
1151.239936
11
199.879679
21
1150.349622
0
LINE
8
boundary
62
5
39
2
10
199.879679
20
1150.349622
11
198.325547
21
1136.756677
0
LINE
8
boundary
62
5
39
2
10
198.325547
20
1136.756677
11
198.244509
21
1136.047556
0
LINE
8
boundary
62
5
39
2
10
198.244509
20
1136.047556
11
198.158918
21
1135.298762
0
LINE
8
boundary
62
5
39
2
10
198.158918
20
1135.298762
11
191.014138
21
1072.602346
0
LINE
8
boundary
62
5
39
2
10
191.014138
20
1072.602346
11
190.897868
21
1071.586519
0
LINE
8
boundary
62
5
39
2
10
190.897868
20
1071.586519
11
190.832054
21
1071.011505
0
LINE
8
boundary
62
5
39
2
10
190.832054
20
1071.011505
11
190.765465
21
1070.429079
0
LINE
8
boundary
62
5
39
2
10
190.765465
20
1070.429079
11
190.701439
21
1069.868781
0
LINE
8
boundary
62
5
39
2
10
190.701439
20
1069.868781
11
190.643104
21
1069.357982
0
LINE
8
boundary
62
5
39
2
10
190.643104
20
1069.357982
11
183.433215
21
1006.111301
0
LINE
8
boundary
62
5
39
2
10
183.433215
20
1006.111301
11
181.745215
21
991.347286
0
LINE
8
boundary
62
5
39
2
10
181.745215
20
991.347286
11
181.650174
21
990.732845
0
LINE
8
boundary
62
5
39
2
10
181.650174
20
990.732845
11
181.574009
21
989.510751
0
LINE
8
boundary
62
5
39
2
10
181.574009
20
989.510751
11
181.540383
21
986.944973
0
LINE
8
boundary
62
5
39
2
10
181.540383
20
986.944973
11
181.639651
21
985.473563
0
LINE
8
boundary
62
5
39
2
10
181.639651
20
985.473563
11
181.904847
21
983.221185
0
LINE
8
boundary
62
5
39
2
10
181.904847
20
983.221185
11
182.180743
21
981.772469
0
LINE
8
boundary
62
5
39
2
10
182.180743
20
981.772469
11
182.730389
21
979.572146
0
LINE
8
boundary
62
5
39
2
10
182.730389
20
979.572146
11
183.178905
21
978.167249
0
LINE
8
boundary
62
5
39
2
10
183.178905
20
978.167249
11
184.004056
21
976.054760
0
LINE
8
boundary
62
5
39
2
10
184.004056
20
976.054760
11
184.618644
21
974.714168
0
LINE
8
boundary
62
5
39
2
10
184.618644
20
974.714168
11
185.705896
21
972.723843
0
LINE
8
boundary
62
5
39
2
10
185.705896
20
972.723843
11
186.477588
21
971.467107
0
LINE
8
boundary
62
5
39
2
10
186.477588
20
971.467107
11
187.809260
21
969.631313
0
LINE
8
boundary
62
5
39
2
10
187.809260
20
969.631313
11
188.726814
21
968.476756
0
LINE
8
boundary
62
5
39
2
10
188.726814
20
968.476756
11
190.281270
21
966.825343
0
LINE
8
boundary
62
5
39
2
10
190.281270
20
966.825343
11
191.331291
21
965.789802
0
LINE
8
boundary
62
5
39
2
10
191.331291
20
965.789802
11
193.083228
21
964.349599
0
LINE
8
boundary
62
5
39
2
10
193.083228
20
964.349599
11
194.250425
21
963.448175
0
LINE
8
boundary
62
5
39
2
10
194.250425
20
963.448175
11
196.171381
21
962.242617
0
LINE
8
boundary
62
5
39
2
10
196.171381
20
962.242617
11
197.438721
21
961.488453
0
LINE
8
boundary
62
5
39
2
10
197.438721
20
961.488453
11
199.497480
21
960.537134
0
LINE
8
boundary
62
5
39
2
10
199.497480
20
960.537134
11
200.846483
21
959.941232
0
LINE
8
boundary
62
5
39
2
10
200.846483
20
959.941232
11
203.009555
21
959.259611
0
LINE
8
boundary
62
5
39
2
10
203.009555
20
959.259611
11
204.420730
21
958.830613
0
LINE
8
boundary
62
5
39
2
10
204.420730
20
958.830613
11
206.653262
21
958.429708
0
LINE
8
boundary
62
5
39
2
10
206.653262
20
958.429708
11
208.105901
21
958.173953
0
LINE
8
boundary
62
5
39
2
10
208.105901
20
958.173953
11
227.734463
21
955.929286
0
LINE
8
boundary
62
5
39
2
10
227.734463
20
955.929286
11
304.539071
21
947.146113
0
LINE
8
annotation
62
1
39
211
10
204.431982
20
1056.468195
11
208.133969
21
1056.468195
0
LINE
8
annotation
62
1
39
211
10
208.133969
20
1056.468195
11
208.133969
21
1056.468195
0
LINE
8
annotation
62
1
39
211
10
208.133969
20
1056.468195
11
208.799781
21
1056.527923
0
LINE
8
annotation
62
1
39
211
10
208.799781
20
1056.527923
11
209.426286
21
1056.700062
0
LINE
8
annotation
62
1
39
211
10
209.426286
20
1056.700062
11
210.003065
21
1056.974045
0
LINE
8
annotation
62
1
39
211
10
210.003065
20
1056.974045
11
210.519698
21
1057.339306
0
LINE
8
annotation
62
1
39
211
10
210.519698
20
1057.339306
11
210.965764
21
1057.785279
0
LINE
8
annotation
62
1
39
211
10
210.965764
20
1057.785279
11
211.330843
21
1058.301397
0
LINE
8
annotation
62
1
39
211
10
211.330843
20
1058.301397
11
211.604515
21
1058.877093
0
LINE
8
annotation
62
1
39
211
10
211.604515
20
1058.877093
11
211.776360
21
1059.501802
0
LINE
8
annotation
62
1
39
211
10
211.776360
20
1059.501802
11
211.835957
21
1060.164956
0
LINE
8
annotation
62
1
39
211
10
211.835957
20
1060.164956
11
211.835957
21
1062.018563
0
LINE
8
annotation
62
1
39
211
10
211.835957
20
1062.018563
11
211.835957
21
1062.018563
0
LINE
8
annotation
62
1
39
211
10
211.835957
20
1062.018563
11
211.776360
21
1062.681442
0
LINE
8
annotation
62
1
39
211
10
211.776360
20
1062.681442
11
211.604515
21
1063.306004
0
LINE
8
annotation
62
1
39
211
10
211.604515
20
1063.306004
11
211.330843
21
1063.881657
0
LINE
8
annotation
62
1
39
211
10
211.330843
20
1063.881657
11
210.965764
21
1064.397809
0
LINE
8
annotation
62
1
39
211
10
210.965764
20
1064.397809
11
210.519698
21
1064.843868
0
LINE
8
annotation
62
1
39
211
10
210.519698
20
1064.843868
11
210.003065
21
1065.209241
0
LINE
8
annotation
62
1
39
211
10
210.003065
20
1065.209241
11
209.426286
21
1065.483336
0
LINE
8
annotation
62
1
39
211
10
209.426286
20
1065.483336
11
208.799781
21
1065.655561
0
LINE
8
annotation
62
1
39
211
10
208.799781
20
1065.655561
11
208.133969
21
1065.715323
0
LINE
8
annotation
62
1
39
211
10
208.133969
20
1065.715323
11
206.280362
21
1065.715323
0
LINE
8
annotation
62
1
39
211
10
206.280362
20
1065.715323
11
208.133969
21
1065.715323
0
LINE
8
annotation
62
1
39
211
10
208.133969
20
1065.715323
11
208.133969
21
1065.715323
0
LINE
8
annotation
62
1
39
211
10
208.133969
20
1065.715323
11
208.799781
21
1065.775100
0
LINE
8
annotation
62
1
39
211
10
208.799781
20
1065.775100
11
209.426286
21
1065.947425
0
LINE
8
annotation
62
1
39
211
10
209.426286
20
1065.947425
11
210.003065
21
1066.221793
0
LINE
8
annotation
62
1
39
211
10
210.003065
20
1066.221793
11
210.519698
21
1066.587696
0
LINE
8
annotation
62
1
39
211
10
210.519698
20
1066.587696
11
210.965764
21
1067.034630
0
LINE
8
annotation
62
1
39
211
10
210.965764
20
1067.034630
11
211.330843
21
1067.552087
0
LINE
8
annotation
62
1
39
211
10
211.330843
20
1067.552087
11
211.604515
21
1068.129562
0
LINE
8
annotation
62
1
39
211
10
211.604515
20
1068.129562
11
211.776360
21
1068.756548
0
LINE
8
annotation
62
1
39
211
10
211.776360
20
1068.756548
11
211.835957
21
1069.422538
0
LINE
8
annotation
62
1
39
211
10
211.835957
20
1069.422538
11
211.835957
21
1069.422538
0
LINE
8
annotation
62
1
39
211
10
211.835957
20
1069.422538
11
211.776360
21
1070.085417
0
LINE
8
annotation
62
1
39
211
10
211.776360
20
1070.085417
11
211.604515
21
1070.709979
0
LINE
8
annotation
62
1
39
211
10
211.604515
20
1070.709979
11
211.330843
21
1071.285632
0
LINE
8
annotation
62
1
39
211
10
211.330843
20
1071.285632
11
210.965764
21
1071.801785
0
LINE
8
annotation
62
1
39
211
10
210.965764
20
1071.801785
11
210.519698
21
1072.247844
0
LINE
8
annotation
62
1
39
211
10
210.519698
20
1072.247844
11
210.003065
21
1072.613217
0
LINE
8
annotation
62
1
39
211
10
210.003065
20
1072.613217
11
209.426286
21
1072.887312
0
LINE
8
annotation
62
1
39
211
10
209.426286
20
1072.887312
11
208.799781
21
1073.059537
0
LINE
8
annotation
62
1
39
211
10
208.799781
20
1073.059537
11
208.133969
21
1073.119299
0
LINE
8
annotation
62
1
39
211
10
208.133969
20
1073.119299
11
204.431982
21
1073.119299
0
LINE
8
annotation
62
1
39
211
10
221.794262
20
1056.467672
11
221.794262
21
1073.138640
0
LINE
8
annotation
62
1
39
211
10
221.794262
20
1073.138640
11
218.088092
21
1069.431425
0
LINE
8
frame
62
5
39
2
10
0.000000
20
0.000000
11
473.000000
21
0.000000
0
LINE
8
frame
62
5
39
2
10
473.000000
20
0.000000
11
473.000000
21
1196.000000
0
LINE
8
frame
62
5
39
2
10
473.000000
20
1196.000000
11
0.000000
21
1196.000000
0
LINE
8
frame
62
5
39
2
10
0.000000
20
1196.000000
11
0.000000
21
0.000000
0
ENDSEC
0
EOF
