  0
SECTION
  2
HEADER
  9
$ANGBASE
  50
0.0
  9
$ANGDIR
  70
1
  9
$MEASUREMENT
  70
0
  0
ENDSEC
  0
SECTION
  2
TABLES
  0
TABLE
  2
LTYPE
  70
4
  0
LTYPE
  5
40F
  2
CONTINUOUS
  70
0
  3
Solid line
  72
65
  73
0
  40
0.0
  0
LTYPE
  5
410
  2
DASHDOT
 70
0
  3
Dash Dot ____ _ ____ _
 72
65
 73
4
 40
2.0
 49
1.25
 49
-0.25
 49
0.25
 49
-0.25
  0
LTYPE
  5
411
  2
DASHED
 70
0
  3
Dashed __ __ __ __ __
 72
65
 73
2
 40
0.75
 49
0.5
 49
-0.25
  0
LTYPE
  5
43B
  2
DOTTED
 70
0
  3
Dotted .  .  .  .
 72
65
 73
2
 40
0.2
 49
0.0
 49
-0.2
  0
ENDTAB
  0
TABLE
  2
STYLE
  70
4
  0
STYLE
  2
KICAD
  70
0
  40
0
  41
1
  42
1
  50
0
  71
0
  3
isocp.shx
  0
STYLE
  2
KICADB
  70
0
  40
0
  41
1
  42
1
  50
0
  71
0
  3
isocp.shx
  0
STYLE
  2
KICADI
  70
0
  40
0
  41
1
  42
1
  50
15
  71
0
  3
isocp.shx
  0
STYLE
  2
KICADBI
  70
0
  40
0
  41
1
  42
1
  50
15
  71
0
  3
isocp.shx
  0
ENDTAB
  0
TABLE
  2
LAYER
  70
1
  0
LAYER
  2
BLACK
  70
0
  62
7
  6
CONTINUOUS
  0
ENDTAB
  0
ENDSEC
  0
SECTION
  2
ENTITIES
0
LINE
8
BLACK
6
CONTINUOUS
10
7.80526
20
-3.38943
11
7.80873
21
-3.39204
0
LINE
8
BLACK
6
CONTINUOUS
10
7.80873
20
-3.39204
11
7.81101
21
-3.39573
0
LINE
8
BLACK
6
CONTINUOUS
10
7.81101
20
-3.39573
11
7.81181
21
-3.4
0
LINE
8
BLACK
6
CONTINUOUS
10
7.81181
20
-3.4
11
7.81181
21
-3.47149
0
LINE
8
BLACK
6
CONTINUOUS
10
7.81181
20
-3.47149
11
7.89165
21
-3.39165
0
LINE
8
BLACK
6
CONTINUOUS
10
7.89165
20
-3.39165
11
7.89333
21
-3.39026
0
LINE
8
BLACK
6
CONTINUOUS
10
7.89333
20
-3.39026
11
7.8973
21
-3.3885
0
LINE
8
BLACK
6
CONTINUOUS
10
7.8973
20
-3.3885
11
7.90163
21
-3.3883
0
LINE
8
BLACK
6
CONTINUOUS
10
7.90163
20
-3.3883
11
7.90575
21
-3.38968
0
LINE
8
BLACK
6
CONTINUOUS
10
7.90575
20
-3.38968
11
7.90909
21
-3.39245
0
LINE
8
BLACK
6
CONTINUOUS
10
7.90909
20
-3.39245
11
7.9112
21
-3.39625
0
LINE
8
BLACK
6
CONTINUOUS
10
7.9112
20
-3.39625
11
7.9118
21
-3.40055
0
LINE
8
BLACK
6
CONTINUOUS
10
7.9118
20
-3.40055
11
7.9108
21
-3.40477
0
LINE
8
BLACK
6
CONTINUOUS
10
7.9108
20
-3.40477
11
7.90835
21
-3.40835
0
LINE
8
BLACK
6
CONTINUOUS
10
7.90835
20
-3.40835
11
7.8167
21
-3.5
0
LINE
8
BLACK
6
CONTINUOUS
10
7.8167
20
-3.5
11
7.90835
21
-3.59165
0
LINE
8
BLACK
6
CONTINUOUS
10
7.90835
20
-3.59165
11
7.90974
21
-3.59333
0
LINE
8
BLACK
6
CONTINUOUS
10
7.90974
20
-3.59333
11
7.9115
21
-3.5973
0
LINE
8
BLACK
6
CONTINUOUS
10
7.9115
20
-3.5973
11
7.9117
21
-3.60163
0
LINE
8
BLACK
6
CONTINUOUS
10
7.9117
20
-3.60163
11
7.91032
21
-3.60575
0
LINE
8
BLACK
6
CONTINUOUS
10
7.91032
20
-3.60575
11
7.90755
21
-3.60909
0
LINE
8
BLACK
6
CONTINUOUS
10
7.90755
20
-3.60909
11
7.90375
21
-3.6112
0
LINE
8
BLACK
6
CONTINUOUS
10
7.90375
20
-3.6112
11
7.89945
21
-3.6118
0
LINE
8
BLACK
6
CONTINUOUS
10
7.89945
20
-3.6118
11
7.89523
21
-3.6108
0
LINE
8
BLACK
6
CONTINUOUS
10
7.89523
20
-3.6108
11
7.89165
21
-3.60835
0
LINE
8
BLACK
6
CONTINUOUS
10
7.89165
20
-3.60835
11
7.81181
21
-3.52851
0
LINE
8
BLACK
6
CONTINUOUS
10
7.81181
20
-3.52851
11
7.81181
21
-3.6
0
LINE
8
BLACK
6
CONTINUOUS
10
7.81181
20
-3.6
11
7.81161
21
-3.60217
0
LINE
8
BLACK
6
CONTINUOUS
10
7.81161
20
-3.60217
11
7.81004
21
-3.60622
0
LINE
8
BLACK
6
CONTINUOUS
10
7.81004
20
-3.60622
11
7.80712
21
-3.60943
0
LINE
8
BLACK
6
CONTINUOUS
10
7.80712
20
-3.60943
11
7.80323
21
-3.61136
0
LINE
8
BLACK
6
CONTINUOUS
10
7.80323
20
-3.61136
11
7.79891
21
-3.61176
0
LINE
8
BLACK
6
CONTINUOUS
10
7.79891
20
-3.61176
11
7.79474
21
-3.61057
0
LINE
8
BLACK
6
CONTINUOUS
10
7.79474
20
-3.61057
11
7.79127
21
-3.60796
0
LINE
8
BLACK
6
CONTINUOUS
10
7.79127
20
-3.60796
11
7.78899
21
-3.60427
0
LINE
8
BLACK
6
CONTINUOUS
10
7.78899
20
-3.60427
11
7.78819
21
-3.6
0
LINE
8
BLACK
6
CONTINUOUS
10
7.78819
20
-3.6
11
7.78819
21
-3.5
0
LINE
8
BLACK
6
CONTINUOUS
10
7.78819
20
-3.5
11
7.78819
21
-3.4
0
LINE
8
BLACK
6
CONTINUOUS
10
7.78819
20
-3.4
11
7.78839
21
-3.39783
0
LINE
8
BLACK
6
CONTINUOUS
10
7.78839
20
-3.39783
11
7.78996
21
-3.39378
0
LINE
8
BLACK
6
CONTINUOUS
10
7.78996
20
-3.39378
11
7.79288
21
-3.39057
0
LINE
8
BLACK
6
CONTINUOUS
10
7.79288
20
-3.39057
11
7.79677
21
-3.38864
0
LINE
8
BLACK
6
CONTINUOUS
10
7.79677
20
-3.38864
11
7.80109
21
-3.38824
0
LINE
8
BLACK
6
CONTINUOUS
10
7.80109
20
-3.38824
11
7.80526
21
-3.38943
0
LINE
8
BLACK
6
CONTINUOUS
10
8.10526
20
-3.38943
11
8.10873
21
-3.39204
0
LINE
8
BLACK
6
CONTINUOUS
10
8.10873
20
-3.39204
11
8.11101
21
-3.39573
0
LINE
8
BLACK
6
CONTINUOUS
10
8.11101
20
-3.39573
11
8.11181
21
-3.4
0
LINE
8
BLACK
6
CONTINUOUS
10
8.11181
20
-3.4
11
8.11181
21
-3.5
0
LINE
8
BLACK
6
CONTINUOUS
10
8.11181
20
-3.5
11
8.11181
21
-3.6
0
LINE
8
BLACK
6
CONTINUOUS
10
8.11181
20
-3.6
11
8.11161
21
-3.60217
0
LINE
8
BLACK
6
CONTINUOUS
10
8.11161
20
-3.60217
11
8.11004
21
-3.60622
0
LINE
8
BLACK
6
CONTINUOUS
10
8.11004
20
-3.60622
11
8.10712
21
-3.60943
0
LINE
8
BLACK
6
CONTINUOUS
10
8.10712
20
-3.60943
11
8.10323
21
-3.61136
0
LINE
8
BLACK
6
CONTINUOUS
10
8.10323
20
-3.61136
11
8.09891
21
-3.61176
0
LINE
8
BLACK
6
CONTINUOUS
10
8.09891
20
-3.61176
11
8.09474
21
-3.61057
0
LINE
8
BLACK
6
CONTINUOUS
10
8.09474
20
-3.61057
11
8.09127
21
-3.60796
0
LINE
8
BLACK
6
CONTINUOUS
10
8.09127
20
-3.60796
11
8.08899
21
-3.60427
0
LINE
8
BLACK
6
CONTINUOUS
10
8.08899
20
-3.60427
11
8.08819
21
-3.6
0
LINE
8
BLACK
6
CONTINUOUS
10
8.08819
20
-3.6
11
8.08819
21
-3.51181
0
LINE
8
BLACK
6
CONTINUOUS
10
8.08819
20
-3.51181
11
8.01181
21
-3.51181
0
LINE
8
BLACK
6
CONTINUOUS
10
8.01181
20
-3.51181
11
8.01181
21
-3.6
0
LINE
8
BLACK
6
CONTINUOUS
10
8.01181
20
-3.6
11
8.01161
21
-3.60217
0
LINE
8
BLACK
6
CONTINUOUS
10
8.01161
20
-3.60217
11
8.01004
21
-3.60622
0
LINE
8
BLACK
6
CONTINUOUS
10
8.01004
20
-3.60622
11
8.00712
21
-3.60943
0
LINE
8
BLACK
6
CONTINUOUS
10
8.00712
20
-3.60943
11
8.00323
21
-3.61136
0
LINE
8
BLACK
6
CONTINUOUS
10
8.00323
20
-3.61136
11
7.99891
21
-3.61176
0
LINE
8
BLACK
6
CONTINUOUS
10
7.99891
20
-3.61176
11
7.99474
21
-3.61057
0
LINE
8
BLACK
6
CONTINUOUS
10
7.99474
20
-3.61057
11
7.99127
21
-3.60796
0
LINE
8
BLACK
6
CONTINUOUS
10
7.99127
20
-3.60796
11
7.98899
21
-3.60427
0
LINE
8
BLACK
6
CONTINUOUS
10
7.98899
20
-3.60427
11
7.98819
21
-3.6
0
LINE
8
BLACK
6
CONTINUOUS
10
7.98819
20
-3.6
11
7.98819
21
-3.5
0
LINE
8
BLACK
6
CONTINUOUS
10
7.98819
20
-3.5
11
7.98819
21
-3.4
0
LINE
8
BLACK
6
CONTINUOUS
10
7.98819
20
-3.4
11
7.98839
21
-3.39783
0
LINE
8
BLACK
6
CONTINUOUS
10
7.98839
20
-3.39783
11
7.98996
21
-3.39378
0
LINE
8
BLACK
6
CONTINUOUS
10
7.98996
20
-3.39378
11
7.99288
21
-3.39057
0
LINE
8
BLACK
6
CONTINUOUS
10
7.99288
20
-3.39057
11
7.99677
21
-3.38864
0
LINE
8
BLACK
6
CONTINUOUS
10
7.99677
20
-3.38864
11
8.00109
21
-3.38824
0
LINE
8
BLACK
6
CONTINUOUS
10
8.00109
20
-3.38824
11
8.00526
21
-3.38943
0
LINE
8
BLACK
6
CONTINUOUS
10
8.00526
20
-3.38943
11
8.00873
21
-3.39204
0
LINE
8
BLACK
6
CONTINUOUS
10
8.00873
20
-3.39204
11
8.01101
21
-3.39573
0
LINE
8
BLACK
6
CONTINUOUS
10
8.01101
20
-3.39573
11
8.01181
21
-3.4
0
LINE
8
BLACK
6
CONTINUOUS
10
8.01181
20
-3.4
11
8.01181
21
-3.48819
0
LINE
8
BLACK
6
CONTINUOUS
10
8.01181
20
-3.48819
11
8.08819
21
-3.48819
0
LINE
8
BLACK
6
CONTINUOUS
10
8.08819
20
-3.48819
11
8.08819
21
-3.4
0
LINE
8
BLACK
6
CONTINUOUS
10
8.08819
20
-3.4
11
8.08839
21
-3.39783
0
LINE
8
BLACK
6
CONTINUOUS
10
8.08839
20
-3.39783
11
8.08996
21
-3.39378
0
LINE
8
BLACK
6
CONTINUOUS
10
8.08996
20
-3.39378
11
8.09288
21
-3.39057
0
LINE
8
BLACK
6
CONTINUOUS
10
8.09288
20
-3.39057
11
8.09677
21
-3.38864
0
LINE
8
BLACK
6
CONTINUOUS
10
8.09677
20
-3.38864
11
8.10109
21
-3.38824
0
LINE
8
BLACK
6
CONTINUOUS
10
8.10109
20
-3.38824
11
8.10526
21
-3.38943
0
LINE
8
BLACK
6
CONTINUOUS
10
7.15684
20
-1.75734
11
7.16209
21
-1.7593
0
LINE
8
BLACK
6
CONTINUOUS
10
7.16209
20
-1.7593
11
7.16658
21
-1.76266
0
LINE
8
BLACK
6
CONTINUOUS
10
7.16658
20
-1.76266
11
7.16993
21
-1.76714
0
LINE
8
BLACK
6
CONTINUOUS
10
7.16993
20
-1.76714
11
7.17189
21
-1.77239
0
LINE
8
BLACK
6
CONTINUOUS
10
7.17189
20
-1.77239
11
7.17234
21
-1.77657
0
LINE
8
BLACK
6
CONTINUOUS
10
7.17234
20
-1.77657
11
7.17234
21
-1.78445
0
LINE
8
BLACK
6
CONTINUOUS
10
7.17234
20
-1.78445
11
7.79626
21
-1.78445
0
LINE
8
BLACK
6
CONTINUOUS
10
7.79626
20
-1.78445
11
7.79664
21
-1.78448
0
LINE
8
BLACK
6
CONTINUOUS
10
7.79664
20
-1.78448
11
7.79681
21
-1.78446
0
LINE
8
BLACK
6
CONTINUOUS
10
7.79681
20
-1.78446
11
7.79707
21
-1.78452
0
LINE
8
BLACK
6
CONTINUOUS
10
7.79707
20
-1.78452
11
7.79843
21
-1.78465
0
LINE
8
BLACK
6
CONTINUOUS
10
7.79843
20
-1.78465
11
7.7997
21
-1.78514
0
LINE
8
BLACK
6
CONTINUOUS
10
7.7997
20
-1.78514
11
7.80103
21
-1.78546
0
LINE
8
BLACK
6
CONTINUOUS
10
7.80103
20
-1.78546
11
7.80171
21
-1.78592
0
LINE
8
BLACK
6
CONTINUOUS
10
7.80171
20
-1.78592
11
7.80248
21
-1.78622
0
LINE
8
BLACK
6
CONTINUOUS
10
7.80248
20
-1.78622
11
7.80349
21
-1.78714
0
LINE
8
BLACK
6
CONTINUOUS
10
7.80349
20
-1.78714
11
7.80461
21
-1.78791
0
LINE
8
BLACK
6
CONTINUOUS
10
7.80461
20
-1.78791
11
7.8545
21
-1.8378
0
LINE
8
BLACK
6
CONTINUOUS
10
7.8545
20
-1.8378
11
7.96024
21
-1.8378
0
LINE
8
BLACK
6
CONTINUOUS
10
7.96024
20
-1.8378
11
7.96024
21
-1.81614
0
LINE
8
BLACK
6
CONTINUOUS
10
7.96024
20
-1.81614
11
8.05866
21
-1.81614
0
LINE
8
BLACK
6
CONTINUOUS
10
8.05866
20
-1.81614
11
8.05866
21
-1.88307
0
LINE
8
BLACK
6
CONTINUOUS
10
8.05866
20
-1.88307
11
7.96024
21
-1.88307
0
LINE
8
BLACK
6
CONTINUOUS
10
7.96024
20
-1.88307
11
7.96024
21
-1.86142
0
LINE
8
BLACK
6
CONTINUOUS
10
7.96024
20
-1.86142
11
7.84961
21
-1.86142
0
LINE
8
BLACK
6
CONTINUOUS
10
7.84961
20
-1.86142
11
7.84922
21
-1.86138
0
LINE
8
BLACK
6
CONTINUOUS
10
7.84922
20
-1.86138
11
7.84906
21
-1.8614
0
LINE
8
BLACK
6
CONTINUOUS
10
7.84906
20
-1.8614
11
7.84879
21
-1.86134
0
LINE
8
BLACK
6
CONTINUOUS
10
7.84879
20
-1.86134
11
7.84744
21
-1.86122
0
LINE
8
BLACK
6
CONTINUOUS
10
7.84744
20
-1.86122
11
7.84616
21
-1.86072
0
LINE
8
BLACK
6
CONTINUOUS
10
7.84616
20
-1.86072
11
7.84484
21
-1.86041
0
LINE
8
BLACK
6
CONTINUOUS
10
7.84484
20
-1.86041
11
7.84416
21
-1.85995
0
LINE
8
BLACK
6
CONTINUOUS
10
7.84416
20
-1.85995
11
7.84339
21
-1.85965
0
LINE
8
BLACK
6
CONTINUOUS
10
7.84339
20
-1.85965
11
7.84238
21
-1.85873
0
LINE
8
BLACK
6
CONTINUOUS
10
7.84238
20
-1.85873
11
7.84125
21
-1.85796
0
LINE
8
BLACK
6
CONTINUOUS
10
7.84125
20
-1.85796
11
7.79137
21
-1.80807
0
LINE
8
BLACK
6
CONTINUOUS
10
7.79137
20
-1.80807
11
7.17234
21
-1.80807
0
LINE
8
BLACK
6
CONTINUOUS
10
7.17234
20
-1.80807
11
7.17234
21
-1.81594
0
LINE
8
BLACK
6
CONTINUOUS
10
7.17234
20
-1.81594
11
7.17189
21
-1.82013
0
LINE
8
BLACK
6
CONTINUOUS
10
7.17189
20
-1.82013
11
7.16993
21
-1.82538
0
LINE
8
BLACK
6
CONTINUOUS
10
7.16993
20
-1.82538
11
7.16658
21
-1.82986
0
LINE
8
BLACK
6
CONTINUOUS
10
7.16658
20
-1.82986
11
7.16209
21
-1.83322
0
LINE
8
BLACK
6
CONTINUOUS
10
7.16209
20
-1.83322
11
7.15684
21
-1.83518
0
LINE
8
BLACK
6
CONTINUOUS
10
7.15684
20
-1.83518
11
7.15266
21
-1.83563
0
LINE
8
BLACK
6
CONTINUOUS
10
7.15266
20
-1.83563
11
7.08376
21
-1.83563
0
LINE
8
BLACK
6
CONTINUOUS
10
7.08376
20
-1.83563
11
7.07958
21
-1.83518
0
LINE
8
BLACK
6
CONTINUOUS
10
7.07958
20
-1.83518
11
7.07433
21
-1.83322
0
LINE
8
BLACK
6
CONTINUOUS
10
7.07433
20
-1.83322
11
7.06984
21
-1.82986
0
LINE
8
BLACK
6
CONTINUOUS
10
7.06984
20
-1.82986
11
7.06648
21
-1.82538
0
LINE
8
BLACK
6
CONTINUOUS
10
7.06648
20
-1.82538
11
7.06452
21
-1.82013
0
LINE
8
BLACK
6
CONTINUOUS
10
7.06452
20
-1.82013
11
7.06407
21
-1.81594
0
LINE
8
BLACK
6
CONTINUOUS
10
7.06407
20
-1.81594
11
7.06407
21
-1.81181
0
LINE
8
BLACK
6
CONTINUOUS
10
7.06407
20
-1.81181
11
7.01181
21
-1.81181
0
LINE
8
BLACK
6
CONTINUOUS
10
7.01181
20
-1.81181
11
7.01181
21
-2
0
LINE
8
BLACK
6
CONTINUOUS
10
7.01181
20
-2
11
7.01178
21
-2.00038
0
LINE
8
BLACK
6
CONTINUOUS
10
7.01178
20
-2.00038
11
7.0118
21
-2.00055
0
LINE
8
BLACK
6
CONTINUOUS
10
7.0118
20
-2.00055
11
7.01174
21
-2.00081
0
LINE
8
BLACK
6
CONTINUOUS
10
7.01174
20
-2.00081
11
7.01161
21
-2.00217
0
LINE
8
BLACK
6
CONTINUOUS
10
7.01161
20
-2.00217
11
7.01112
21
-2.00344
0
LINE
8
BLACK
6
CONTINUOUS
10
7.01112
20
-2.00344
11
7.0108
21
-2.00477
0
LINE
8
BLACK
6
CONTINUOUS
10
7.0108
20
-2.00477
11
7.01034
21
-2.00545
0
LINE
8
BLACK
6
CONTINUOUS
10
7.01034
20
-2.00545
11
7.01004
21
-2.00622
0
LINE
8
BLACK
6
CONTINUOUS
10
7.01004
20
-2.00622
11
7.00912
21
-2.00723
0
LINE
8
BLACK
6
CONTINUOUS
10
7.00912
20
-2.00723
11
7.00835
21
-2.00835
0
LINE
8
BLACK
6
CONTINUOUS
10
7.00835
20
-2.00835
11
6.91181
21
-2.10489
0
LINE
8
BLACK
6
CONTINUOUS
10
6.91181
20
-2.10489
11
6.91181
21
-2.49511
0
LINE
8
BLACK
6
CONTINUOUS
10
6.91181
20
-2.49511
11
7.00489
21
-2.58819
0
LINE
8
BLACK
6
CONTINUOUS
10
7.00489
20
-2.58819
11
7.4
21
-2.58819
0
LINE
8
BLACK
6
CONTINUOUS
10
7.4
20
-2.58819
11
7.40038
21
-2.58822
0
LINE
8
BLACK
6
CONTINUOUS
10
7.40038
20
-2.58822
11
7.40055
21
-2.5882
0
LINE
8
BLACK
6
CONTINUOUS
10
7.40055
20
-2.5882
11
7.40081
21
-2.58826
0
LINE
8
BLACK
6
CONTINUOUS
10
7.40081
20
-2.58826
11
7.40217
21
-2.58839
0
LINE
8
BLACK
6
CONTINUOUS
10
7.40217
20
-2.58839
11
7.40344
21
-2.58888
0
LINE
8
BLACK
6
CONTINUOUS
10
7.40344
20
-2.58888
11
7.40477
21
-2.5892
0
LINE
8
BLACK
6
CONTINUOUS
10
7.40477
20
-2.5892
11
7.40545
21
-2.58966
0
LINE
8
BLACK
6
CONTINUOUS
10
7.40545
20
-2.58966
11
7.40622
21
-2.58996
0
LINE
8
BLACK
6
CONTINUOUS
10
7.40622
20
-2.58996
11
7.40723
21
-2.59088
0
LINE
8
BLACK
6
CONTINUOUS
10
7.40723
20
-2.59088
11
7.40835
21
-2.59165
0
LINE
8
BLACK
6
CONTINUOUS
10
7.40835
20
-2.59165
11
7.50835
21
-2.69165
0
LINE
8
BLACK
6
CONTINUOUS
10
7.50835
20
-2.69165
11
7.5086
21
-2.69194
0
LINE
8
BLACK
6
CONTINUOUS
10
7.5086
20
-2.69194
11
7.50873
21
-2.69204
0
LINE
8
BLACK
6
CONTINUOUS
10
7.50873
20
-2.69204
11
7.50887
21
-2.69228
0
LINE
8
BLACK
6
CONTINUOUS
10
7.50887
20
-2.69228
11
7.50974
21
-2.69333
0
LINE
8
BLACK
6
CONTINUOUS
10
7.50974
20
-2.69333
11
7.5103
21
-2.69457
0
LINE
8
BLACK
6
CONTINUOUS
10
7.5103
20
-2.69457
11
7.51101
21
-2.69573
0
LINE
8
BLACK
6
CONTINUOUS
10
7.51101
20
-2.69573
11
7.51116
21
-2.69654
0
LINE
8
BLACK
6
CONTINUOUS
10
7.51116
20
-2.69654
11
7.5115
21
-2.6973
0
LINE
8
BLACK
6
CONTINUOUS
10
7.5115
20
-2.6973
11
7.51156
21
-2.69866
0
LINE
8
BLACK
6
CONTINUOUS
10
7.51156
20
-2.69866
11
7.51181
21
-2.7
0
LINE
8
BLACK
6
CONTINUOUS
10
7.51181
20
-2.7
11
7.51181
21
-3.49508
0
LINE
8
BLACK
6
CONTINUOUS
10
7.51181
20
-3.49508
11
7.51178
21
-3.49546
0
LINE
8
BLACK
6
CONTINUOUS
10
7.51178
20
-3.49546
11
7.5118
21
-3.49562
0
LINE
8
BLACK
6
CONTINUOUS
10
7.5118
20
-3.49562
11
7.51174
21
-3.49589
0
LINE
8
BLACK
6
CONTINUOUS
10
7.51174
20
-3.49589
11
7.51161
21
-3.49725
0
LINE
8
BLACK
6
CONTINUOUS
10
7.51161
20
-3.49725
11
7.51112
21
-3.49852
0
LINE
8
BLACK
6
CONTINUOUS
10
7.51112
20
-3.49852
11
7.5108
21
-3.49985
0
LINE
8
BLACK
6
CONTINUOUS
10
7.5108
20
-3.49985
11
7.51034
21
-3.50053
0
LINE
8
BLACK
6
CONTINUOUS
10
7.51034
20
-3.50053
11
7.51004
21
-3.5013
0
LINE
8
BLACK
6
CONTINUOUS
10
7.51004
20
-3.5013
11
7.50912
21
-3.5023
0
LINE
8
BLACK
6
CONTINUOUS
10
7.50912
20
-3.5023
11
7.50835
21
-3.50343
0
LINE
8
BLACK
6
CONTINUOUS
10
7.50835
20
-3.50343
11
7.40835
21
-3.60343
0
LINE
8
BLACK
6
CONTINUOUS
10
7.40835
20
-3.60343
11
7.40806
21
-3.60368
0
LINE
8
BLACK
6
CONTINUOUS
10
7.40806
20
-3.60368
11
7.40796
21
-3.60381
0
LINE
8
BLACK
6
CONTINUOUS
10
7.40796
20
-3.60381
11
7.40772
21
-3.60395
0
LINE
8
BLACK
6
CONTINUOUS
10
7.40772
20
-3.60395
11
7.40667
21
-3.60482
0
LINE
8
BLACK
6
CONTINUOUS
10
7.40667
20
-3.60482
11
7.40543
21
-3.60537
0
LINE
8
BLACK
6
CONTINUOUS
10
7.40543
20
-3.60537
11
7.40427
21
-3.60609
0
LINE
8
BLACK
6
CONTINUOUS
10
7.40427
20
-3.60609
11
7.40346
21
-3.60624
0
LINE
8
BLACK
6
CONTINUOUS
10
7.40346
20
-3.60624
11
7.4027
21
-3.60658
0
LINE
8
BLACK
6
CONTINUOUS
10
7.4027
20
-3.60658
11
7.40134
21
-3.60664
0
LINE
8
BLACK
6
CONTINUOUS
10
7.40134
20
-3.60664
11
7.4
21
-3.60689
0
LINE
8
BLACK
6
CONTINUOUS
10
7.4
20
-3.60689
11
6.69508
21
-3.60689
0
LINE
8
BLACK
6
CONTINUOUS
10
6.69508
20
-3.60689
11
6.6947
21
-3.60685
0
LINE
8
BLACK
6
CONTINUOUS
10
6.6947
20
-3.60685
11
6.69453
21
-3.60688
0
LINE
8
BLACK
6
CONTINUOUS
10
6.69453
20
-3.60688
11
6.69427
21
-3.60681
0
LINE
8
BLACK
6
CONTINUOUS
10
6.69427
20
-3.60681
11
6.69291
21
-3.60669
0
LINE
8
BLACK
6
CONTINUOUS
10
6.69291
20
-3.60669
11
6.69164
21
-3.6062
0
LINE
8
BLACK
6
CONTINUOUS
10
6.69164
20
-3.6062
11
6.69031
21
-3.60588
0
LINE
8
BLACK
6
CONTINUOUS
10
6.69031
20
-3.60588
11
6.68963
21
-3.60542
0
LINE
8
BLACK
6
CONTINUOUS
10
6.68963
20
-3.60542
11
6.68886
21
-3.60512
0
LINE
8
BLACK
6
CONTINUOUS
10
6.68886
20
-3.60512
11
6.68785
21
-3.6042
0
LINE
8
BLACK
6
CONTINUOUS
10
6.68785
20
-3.6042
11
6.68673
21
-3.60343
0
LINE
8
BLACK
6
CONTINUOUS
10
6.68673
20
-3.60343
11
6.59165
21
-3.50835
0
LINE
8
BLACK
6
CONTINUOUS
10
6.59165
20
-3.50835
11
6.5914
21
-3.50806
0
LINE
8
BLACK
6
CONTINUOUS
10
6.5914
20
-3.50806
11
6.59127
21
-3.50796
0
LINE
8
BLACK
6
CONTINUOUS
10
6.59127
20
-3.50796
11
6.59113
21
-3.50772
0
LINE
8
BLACK
6
CONTINUOUS
10
6.59113
20
-3.50772
11
6.59026
21
-3.50667
0
LINE
8
BLACK
6
CONTINUOUS
10
6.59026
20
-3.50667
11
6.5897
21
-3.50543
0
LINE
8
BLACK
6
CONTINUOUS
10
6.5897
20
-3.50543
11
6.58899
21
-3.50427
0
LINE
8
BLACK
6
CONTINUOUS
10
6.58899
20
-3.50427
11
6.58884
21
-3.50346
0
LINE
8
BLACK
6
CONTINUOUS
10
6.58884
20
-3.50346
11
6.5885
21
-3.5027
0
LINE
8
BLACK
6
CONTINUOUS
10
6.5885
20
-3.5027
11
6.58844
21
-3.50134
0
LINE
8
BLACK
6
CONTINUOUS
10
6.58844
20
-3.50134
11
6.58819
21
-3.5
0
LINE
8
BLACK
6
CONTINUOUS
10
6.58819
20
-3.5
11
6.58819
21
-3.45984
0
LINE
8
BLACK
6
CONTINUOUS
10
6.58819
20
-3.45984
11
6.58822
21
-3.45946
0
LINE
8
BLACK
6
CONTINUOUS
10
6.58822
20
-3.45946
11
6.5882
21
-3.4593
0
LINE
8
BLACK
6
CONTINUOUS
10
6.5882
20
-3.4593
11
6.58826
21
-3.45903
0
LINE
8
BLACK
6
CONTINUOUS
10
6.58826
20
-3.45903
11
6.58839
21
-3.45767
0
LINE
8
BLACK
6
CONTINUOUS
10
6.58839
20
-3.45767
11
6.58888
21
-3.4564
0
LINE
8
BLACK
6
CONTINUOUS
10
6.58888
20
-3.4564
11
6.5892
21
-3.45507
0
LINE
8
BLACK
6
CONTINUOUS
10
6.5892
20
-3.45507
11
6.58966
21
-3.45439
0
LINE
8
BLACK
6
CONTINUOUS
10
6.58966
20
-3.45439
11
6.58996
21
-3.45362
0
LINE
8
BLACK
6
CONTINUOUS
10
6.58996
20
-3.45362
11
6.59088
21
-3.45262
0
LINE
8
BLACK
6
CONTINUOUS
10
6.59088
20
-3.45262
11
6.59165
21
-3.45149
0
LINE
8
BLACK
6
CONTINUOUS
10
6.59165
20
-3.45149
11
6.61693
21
-3.42621
0
LINE
8
BLACK
6
CONTINUOUS
10
6.61693
20
-3.42621
11
6.61693
21
-3.36024
0
LINE
8
BLACK
6
CONTINUOUS
10
6.61693
20
-3.36024
11
6.68386
21
-3.36024
0
LINE
8
BLACK
6
CONTINUOUS
10
6.68386
20
-3.36024
11
6.68386
21
-3.45866
0
LINE
8
BLACK
6
CONTINUOUS
10
6.68386
20
-3.45866
11
6.61788
21
-3.45866
0
LINE
8
BLACK
6
CONTINUOUS
10
6.61788
20
-3.45866
11
6.61181
21
-3.46473
0
LINE
8
BLACK
6
CONTINUOUS
10
6.61181
20
-3.46473
11
6.61181
21
-3.49511
0
LINE
8
BLACK
6
CONTINUOUS
10
6.61181
20
-3.49511
11
6.69997
21
-3.58327
0
LINE
8
BLACK
6
CONTINUOUS
10
6.69997
20
-3.58327
11
7.39511
21
-3.58327
0
LINE
8
BLACK
6
CONTINUOUS
10
7.39511
20
-3.58327
11
7.48819
21
-3.49019
0
LINE
8
BLACK
6
CONTINUOUS
10
7.48819
20
-3.49019
11
7.48819
21
-2.70489
0
LINE
8
BLACK
6
CONTINUOUS
10
7.48819
20
-2.70489
11
7.39511
21
-2.61181
0
LINE
8
BLACK
6
CONTINUOUS
10
7.39511
20
-2.61181
11
7
21
-2.61181
0
LINE
8
BLACK
6
CONTINUOUS
10
7
20
-2.61181
11
6.99962
21
-2.61178
0
LINE
8
BLACK
6
CONTINUOUS
10
6.99962
20
-2.61178
11
6.99945
21
-2.6118
0
LINE
8
BLACK
6
CONTINUOUS
10
6.99945
20
-2.6118
11
6.99919
21
-2.61174
0
LINE
8
BLACK
6
CONTINUOUS
10
6.99919
20
-2.61174
11
6.99783
21
-2.61161
0
LINE
8
BLACK
6
CONTINUOUS
10
6.99783
20
-2.61161
11
6.99656
21
-2.61112
0
LINE
8
BLACK
6
CONTINUOUS
10
6.99656
20
-2.61112
11
6.99523
21
-2.6108
0
LINE
8
BLACK
6
CONTINUOUS
10
6.99523
20
-2.6108
11
6.99455
21
-2.61034
0
LINE
8
BLACK
6
CONTINUOUS
10
6.99455
20
-2.61034
11
6.99378
21
-2.61004
0
LINE
8
BLACK
6
CONTINUOUS
10
6.99378
20
-2.61004
11
6.99277
21
-2.60912
0
LINE
8
BLACK
6
CONTINUOUS
10
6.99277
20
-2.60912
11
6.99165
21
-2.60835
0
LINE
8
BLACK
6
CONTINUOUS
10
6.99165
20
-2.60835
11
6.89165
21
-2.50835
0
LINE
8
BLACK
6
CONTINUOUS
10
6.89165
20
-2.50835
11
6.8914
21
-2.50806
0
LINE
8
BLACK
6
CONTINUOUS
10
6.8914
20
-2.50806
11
6.89127
21
-2.50796
0
LINE
8
BLACK
6
CONTINUOUS
10
6.89127
20
-2.50796
11
6.89113
21
-2.50772
0
LINE
8
BLACK
6
CONTINUOUS
10
6.89113
20
-2.50772
11
6.89026
21
-2.50667
0
LINE
8
BLACK
6
CONTINUOUS
10
6.89026
20
-2.50667
11
6.8897
21
-2.50543
0
LINE
8
BLACK
6
CONTINUOUS
10
6.8897
20
-2.50543
11
6.88899
21
-2.50427
0
LINE
8
BLACK
6
CONTINUOUS
10
6.88899
20
-2.50427
11
6.88884
21
-2.50346
0
LINE
8
BLACK
6
CONTINUOUS
10
6.88884
20
-2.50346
11
6.8885
21
-2.5027
0
LINE
8
BLACK
6
CONTINUOUS
10
6.8885
20
-2.5027
11
6.88844
21
-2.50134
0
LINE
8
BLACK
6
CONTINUOUS
10
6.88844
20
-2.50134
11
6.88819
21
-2.5
0
LINE
8
BLACK
6
CONTINUOUS
10
6.88819
20
-2.5
11
6.88819
21
-2.1
0
LINE
8
BLACK
6
CONTINUOUS
10
6.88819
20
-2.1
11
6.88822
21
-2.09962
0
LINE
8
BLACK
6
CONTINUOUS
10
6.88822
20
-2.09962
11
6.8882
21
-2.09945
0
LINE
8
BLACK
6
CONTINUOUS
10
6.8882
20
-2.09945
11
6.88826
21
-2.09919
0
LINE
8
BLACK
6
CONTINUOUS
10
6.88826
20
-2.09919
11
6.88839
21
-2.09783
0
LINE
8
BLACK
6
CONTINUOUS
10
6.88839
20
-2.09783
11
6.88888
21
-2.09656
0
LINE
8
BLACK
6
CONTINUOUS
10
6.88888
20
-2.09656
11
6.8892
21
-2.09523
0
LINE
8
BLACK
6
CONTINUOUS
10
6.8892
20
-2.09523
11
6.88966
21
-2.09455
0
LINE
8
BLACK
6
CONTINUOUS
10
6.88966
20
-2.09455
11
6.88996
21
-2.09378
0
LINE
8
BLACK
6
CONTINUOUS
10
6.88996
20
-2.09378
11
6.89088
21
-2.09277
0
LINE
8
BLACK
6
CONTINUOUS
10
6.89088
20
-2.09277
11
6.89165
21
-2.09165
0
LINE
8
BLACK
6
CONTINUOUS
10
6.89165
20
-2.09165
11
6.98819
21
-1.99511
0
LINE
8
BLACK
6
CONTINUOUS
10
6.98819
20
-1.99511
11
6.98819
21
-1.8
0
LINE
8
BLACK
6
CONTINUOUS
10
6.98819
20
-1.8
11
6.98826
21
-1.79918
0
LINE
8
BLACK
6
CONTINUOUS
10
6.98826
20
-1.79918
11
6.98824
21
-1.79891
0
LINE
8
BLACK
6
CONTINUOUS
10
6.98824
20
-1.79891
11
6.98831
21
-1.79865
0
LINE
8
BLACK
6
CONTINUOUS
10
6.98831
20
-1.79865
11
6.98839
21
-1.79783
0
LINE
8
BLACK
6
CONTINUOUS
10
6.98839
20
-1.79783
11
6.98898
21
-1.79631
0
LINE
8
BLACK
6
CONTINUOUS
10
6.98898
20
-1.79631
11
6.98943
21
-1.79474
0
LINE
8
BLACK
6
CONTINUOUS
10
6.98943
20
-1.79474
11
6.98976
21
-1.7943
0
LINE
8
BLACK
6
CONTINUOUS
10
6.98976
20
-1.7943
11
6.98996
21
-1.79378
0
LINE
8
BLACK
6
CONTINUOUS
10
6.98996
20
-1.79378
11
6.99106
21
-1.79258
0
LINE
8
BLACK
6
CONTINUOUS
10
6.99106
20
-1.79258
11
6.99204
21
-1.79127
0
LINE
8
BLACK
6
CONTINUOUS
10
6.99204
20
-1.79127
11
6.99251
21
-1.79098
0
LINE
8
BLACK
6
CONTINUOUS
10
6.99251
20
-1.79098
11
6.99288
21
-1.79057
0
LINE
8
BLACK
6
CONTINUOUS
10
6.99288
20
-1.79057
11
6.99434
21
-1.78985
0
LINE
8
BLACK
6
CONTINUOUS
10
6.99434
20
-1.78985
11
6.99573
21
-1.78899
0
LINE
8
BLACK
6
CONTINUOUS
10
6.99573
20
-1.78899
11
6.99627
21
-1.78889
0
LINE
8
BLACK
6
CONTINUOUS
10
6.99627
20
-1.78889
11
6.99677
21
-1.78864
0
LINE
8
BLACK
6
CONTINUOUS
10
6.99677
20
-1.78864
11
6.99839
21
-1.78849
0
LINE
8
BLACK
6
CONTINUOUS
10
6.99839
20
-1.78849
11
7
21
-1.78819
0
LINE
8
BLACK
6
CONTINUOUS
10
7
20
-1.78819
11
7.06407
21
-1.78819
0
LINE
8
BLACK
6
CONTINUOUS
10
7.06407
20
-1.78819
11
7.06407
21
-1.77657
0
LINE
8
BLACK
6
CONTINUOUS
10
7.06407
20
-1.77657
11
7.06452
21
-1.77239
0
LINE
8
BLACK
6
CONTINUOUS
10
7.06452
20
-1.77239
11
7.06648
21
-1.76714
0
LINE
8
BLACK
6
CONTINUOUS
10
7.06648
20
-1.76714
11
7.06984
21
-1.76266
0
LINE
8
BLACK
6
CONTINUOUS
10
7.06984
20
-1.76266
11
7.07433
21
-1.7593
0
LINE
8
BLACK
6
CONTINUOUS
10
7.07433
20
-1.7593
11
7.07958
21
-1.75734
0
LINE
8
BLACK
6
CONTINUOUS
10
7.07958
20
-1.75734
11
7.08376
21
-1.75689
0
LINE
8
BLACK
6
CONTINUOUS
10
7.08376
20
-1.75689
11
7.15266
21
-1.75689
0
LINE
8
BLACK
6
CONTINUOUS
10
7.15266
20
-1.75689
11
7.15684
21
-1.75734
0
LINE
8
BLACK
6
CONTINUOUS
10
6.52042
20
-1.55734
11
6.52567
21
-1.5593
0
LINE
8
BLACK
6
CONTINUOUS
10
6.52567
20
-1.5593
11
6.53016
21
-1.56266
0
LINE
8
BLACK
6
CONTINUOUS
10
6.53016
20
-1.56266
11
6.53352
21
-1.56714
0
LINE
8
BLACK
6
CONTINUOUS
10
6.53352
20
-1.56714
11
6.53548
21
-1.57239
0
LINE
8
BLACK
6
CONTINUOUS
10
6.53548
20
-1.57239
11
6.53593
21
-1.57657
0
LINE
8
BLACK
6
CONTINUOUS
10
6.53593
20
-1.57657
11
6.53593
21
-1.58445
0
LINE
8
BLACK
6
CONTINUOUS
10
6.53593
20
-1.58445
11
6.69626
21
-1.58445
0
LINE
8
BLACK
6
CONTINUOUS
10
6.69626
20
-1.58445
11
6.69664
21
-1.58448
0
LINE
8
BLACK
6
CONTINUOUS
10
6.69664
20
-1.58448
11
6.69681
21
-1.58446
0
LINE
8
BLACK
6
CONTINUOUS
10
6.69681
20
-1.58446
11
6.69707
21
-1.58452
0
LINE
8
BLACK
6
CONTINUOUS
10
6.69707
20
-1.58452
11
6.69843
21
-1.58465
0
LINE
8
BLACK
6
CONTINUOUS
10
6.69843
20
-1.58465
11
6.6997
21
-1.58514
0
LINE
8
BLACK
6
CONTINUOUS
10
6.6997
20
-1.58514
11
6.70103
21
-1.58546
0
LINE
8
BLACK
6
CONTINUOUS
10
6.70103
20
-1.58546
11
6.70171
21
-1.58592
0
LINE
8
BLACK
6
CONTINUOUS
10
6.70171
20
-1.58592
11
6.70248
21
-1.58622
0
LINE
8
BLACK
6
CONTINUOUS
10
6.70248
20
-1.58622
11
6.70349
21
-1.58714
0
LINE
8
BLACK
6
CONTINUOUS
10
6.70349
20
-1.58714
11
6.70461
21
-1.58791
0
LINE
8
BLACK
6
CONTINUOUS
10
6.70461
20
-1.58791
11
6.80835
21
-1.69165
0
LINE
8
BLACK
6
CONTINUOUS
10
6.80835
20
-1.69165
11
6.8086
21
-1.69194
0
LINE
8
BLACK
6
CONTINUOUS
10
6.8086
20
-1.69194
11
6.80873
21
-1.69204
0
LINE
8
BLACK
6
CONTINUOUS
10
6.80873
20
-1.69204
11
6.80887
21
-1.69228
0
LINE
8
BLACK
6
CONTINUOUS
10
6.80887
20
-1.69228
11
6.80974
21
-1.69333
0
LINE
8
BLACK
6
CONTINUOUS
10
6.80974
20
-1.69333
11
6.8103
21
-1.69457
0
LINE
8
BLACK
6
CONTINUOUS
10
6.8103
20
-1.69457
11
6.81101
21
-1.69573
0
LINE
8
BLACK
6
CONTINUOUS
10
6.81101
20
-1.69573
11
6.81116
21
-1.69654
0
LINE
8
BLACK
6
CONTINUOUS
10
6.81116
20
-1.69654
11
6.8115
21
-1.6973
0
LINE
8
BLACK
6
CONTINUOUS
10
6.8115
20
-1.6973
11
6.81156
21
-1.69866
0
LINE
8
BLACK
6
CONTINUOUS
10
6.81156
20
-1.69866
11
6.81181
21
-1.7
0
LINE
8
BLACK
6
CONTINUOUS
10
6.81181
20
-1.7
11
6.81181
21
-2.49511
0
LINE
8
BLACK
6
CONTINUOUS
10
6.81181
20
-2.49511
11
7.00489
21
-2.68819
0
LINE
8
BLACK
6
CONTINUOUS
10
7.00489
20
-2.68819
11
7.3
21
-2.68819
0
LINE
8
BLACK
6
CONTINUOUS
10
7.3
20
-2.68819
11
7.30038
21
-2.68822
0
LINE
8
BLACK
6
CONTINUOUS
10
7.30038
20
-2.68822
11
7.30055
21
-2.6882
0
LINE
8
BLACK
6
CONTINUOUS
10
7.30055
20
-2.6882
11
7.30081
21
-2.68826
0
LINE
8
BLACK
6
CONTINUOUS
10
7.30081
20
-2.68826
11
7.30217
21
-2.68839
0
LINE
8
BLACK
6
CONTINUOUS
10
7.30217
20
-2.68839
11
7.30344
21
-2.68888
0
LINE
8
BLACK
6
CONTINUOUS
10
7.30344
20
-2.68888
11
7.30477
21
-2.6892
0
LINE
8
BLACK
6
CONTINUOUS
10
7.30477
20
-2.6892
11
7.30545
21
-2.68966
0
LINE
8
BLACK
6
CONTINUOUS
10
7.30545
20
-2.68966
11
7.30622
21
-2.68996
0
LINE
8
BLACK
6
CONTINUOUS
10
7.30622
20
-2.68996
11
7.30723
21
-2.69088
0
LINE
8
BLACK
6
CONTINUOUS
10
7.30723
20
-2.69088
11
7.30835
21
-2.69165
0
LINE
8
BLACK
6
CONTINUOUS
10
7.30835
20
-2.69165
11
7.40835
21
-2.79165
0
LINE
8
BLACK
6
CONTINUOUS
10
7.40835
20
-2.79165
11
7.4086
21
-2.79194
0
LINE
8
BLACK
6
CONTINUOUS
10
7.4086
20
-2.79194
11
7.40873
21
-2.79204
0
LINE
8
BLACK
6
CONTINUOUS
10
7.40873
20
-2.79204
11
7.40887
21
-2.79228
0
LINE
8
BLACK
6
CONTINUOUS
10
7.40887
20
-2.79228
11
7.40974
21
-2.79333
0
LINE
8
BLACK
6
CONTINUOUS
10
7.40974
20
-2.79333
11
7.4103
21
-2.79457
0
LINE
8
BLACK
6
CONTINUOUS
10
7.4103
20
-2.79457
11
7.41101
21
-2.79573
0
LINE
8
BLACK
6
CONTINUOUS
10
7.41101
20
-2.79573
11
7.41116
21
-2.79654
0
LINE
8
BLACK
6
CONTINUOUS
10
7.41116
20
-2.79654
11
7.4115
21
-2.7973
0
LINE
8
BLACK
6
CONTINUOUS
10
7.4115
20
-2.7973
11
7.41156
21
-2.79866
0
LINE
8
BLACK
6
CONTINUOUS
10
7.41156
20
-2.79866
11
7.41181
21
-2.8
0
LINE
8
BLACK
6
CONTINUOUS
10
7.41181
20
-2.8
11
7.41181
21
-3.3
0
LINE
8
BLACK
6
CONTINUOUS
10
7.41181
20
-3.3
11
7.41178
21
-3.30038
0
LINE
8
BLACK
6
CONTINUOUS
10
7.41178
20
-3.30038
11
7.4118
21
-3.30055
0
LINE
8
BLACK
6
CONTINUOUS
10
7.4118
20
-3.30055
11
7.41174
21
-3.30081
0
LINE
8
BLACK
6
CONTINUOUS
10
7.41174
20
-3.30081
11
7.41161
21
-3.30217
0
LINE
8
BLACK
6
CONTINUOUS
10
7.41161
20
-3.30217
11
7.41112
21
-3.30344
0
LINE
8
BLACK
6
CONTINUOUS
10
7.41112
20
-3.30344
11
7.4108
21
-3.30477
0
LINE
8
BLACK
6
CONTINUOUS
10
7.4108
20
-3.30477
11
7.41034
21
-3.30545
0
LINE
8
BLACK
6
CONTINUOUS
10
7.41034
20
-3.30545
11
7.41004
21
-3.30622
0
LINE
8
BLACK
6
CONTINUOUS
10
7.41004
20
-3.30622
11
7.40912
21
-3.30723
0
LINE
8
BLACK
6
CONTINUOUS
10
7.40912
20
-3.30723
11
7.40835
21
-3.30835
0
LINE
8
BLACK
6
CONTINUOUS
10
7.40835
20
-3.30835
11
7.3622
21
-3.3545
0
LINE
8
BLACK
6
CONTINUOUS
10
7.3622
20
-3.3545
11
7.3622
21
-3.36024
0
LINE
8
BLACK
6
CONTINUOUS
10
7.3622
20
-3.36024
11
7.38386
21
-3.36024
0
LINE
8
BLACK
6
CONTINUOUS
10
7.38386
20
-3.36024
11
7.38386
21
-3.45866
0
LINE
8
BLACK
6
CONTINUOUS
10
7.38386
20
-3.45866
11
7.31693
21
-3.45866
0
LINE
8
BLACK
6
CONTINUOUS
10
7.31693
20
-3.45866
11
7.31693
21
-3.36024
0
LINE
8
BLACK
6
CONTINUOUS
10
7.31693
20
-3.36024
11
7.33858
21
-3.36024
0
LINE
8
BLACK
6
CONTINUOUS
10
7.33858
20
-3.36024
11
7.33858
21
-3.34961
0
LINE
8
BLACK
6
CONTINUOUS
10
7.33858
20
-3.34961
11
7.33862
21
-3.34922
0
LINE
8
BLACK
6
CONTINUOUS
10
7.33862
20
-3.34922
11
7.3386
21
-3.34906
0
LINE
8
BLACK
6
CONTINUOUS
10
7.3386
20
-3.34906
11
7.33866
21
-3.34879
0
LINE
8
BLACK
6
CONTINUOUS
10
7.33866
20
-3.34879
11
7.33878
21
-3.34744
0
LINE
8
BLACK
6
CONTINUOUS
10
7.33878
20
-3.34744
11
7.33928
21
-3.34616
0
LINE
8
BLACK
6
CONTINUOUS
10
7.33928
20
-3.34616
11
7.33959
21
-3.34484
0
LINE
8
BLACK
6
CONTINUOUS
10
7.33959
20
-3.34484
11
7.34005
21
-3.34416
0
LINE
8
BLACK
6
CONTINUOUS
10
7.34005
20
-3.34416
11
7.34035
21
-3.34339
0
LINE
8
BLACK
6
CONTINUOUS
10
7.34035
20
-3.34339
11
7.34127
21
-3.34238
0
LINE
8
BLACK
6
CONTINUOUS
10
7.34127
20
-3.34238
11
7.34204
21
-3.34125
0
LINE
8
BLACK
6
CONTINUOUS
10
7.34204
20
-3.34125
11
7.38819
21
-3.29511
0
LINE
8
BLACK
6
CONTINUOUS
10
7.38819
20
-3.29511
11
7.38819
21
-2.80489
0
LINE
8
BLACK
6
CONTINUOUS
10
7.38819
20
-2.80489
11
7.29511
21
-2.71181
0
LINE
8
BLACK
6
CONTINUOUS
10
7.29511
20
-2.71181
11
7
21
-2.71181
0
LINE
8
BLACK
6
CONTINUOUS
10
7
20
-2.71181
11
6.99962
21
-2.71178
0
LINE
8
BLACK
6
CONTINUOUS
10
6.99962
20
-2.71178
11
6.99945
21
-2.7118
0
LINE
8
BLACK
6
CONTINUOUS
10
6.99945
20
-2.7118
11
6.99919
21
-2.71174
0
LINE
8
BLACK
6
CONTINUOUS
10
6.99919
20
-2.71174
11
6.99783
21
-2.71161
0
LINE
8
BLACK
6
CONTINUOUS
10
6.99783
20
-2.71161
11
6.99656
21
-2.71112
0
LINE
8
BLACK
6
CONTINUOUS
10
6.99656
20
-2.71112
11
6.99523
21
-2.7108
0
LINE
8
BLACK
6
CONTINUOUS
10
6.99523
20
-2.7108
11
6.99455
21
-2.71034
0
LINE
8
BLACK
6
CONTINUOUS
10
6.99455
20
-2.71034
11
6.99378
21
-2.71004
0
LINE
8
BLACK
6
CONTINUOUS
10
6.99378
20
-2.71004
11
6.99277
21
-2.70912
0
LINE
8
BLACK
6
CONTINUOUS
10
6.99277
20
-2.70912
11
6.99165
21
-2.70835
0
LINE
8
BLACK
6
CONTINUOUS
10
6.99165
20
-2.70835
11
6.79165
21
-2.50835
0
LINE
8
BLACK
6
CONTINUOUS
10
6.79165
20
-2.50835
11
6.7914
21
-2.50806
0
LINE
8
BLACK
6
CONTINUOUS
10
6.7914
20
-2.50806
11
6.79127
21
-2.50796
0
LINE
8
BLACK
6
CONTINUOUS
10
6.79127
20
-2.50796
11
6.79113
21
-2.50772
0
LINE
8
BLACK
6
CONTINUOUS
10
6.79113
20
-2.50772
11
6.79026
21
-2.50667
0
LINE
8
BLACK
6
CONTINUOUS
10
6.79026
20
-2.50667
11
6.7897
21
-2.50543
0
LINE
8
BLACK
6
CONTINUOUS
10
6.7897
20
-2.50543
11
6.78899
21
-2.50427
0
LINE
8
BLACK
6
CONTINUOUS
10
6.78899
20
-2.50427
11
6.78884
21
-2.50346
0
LINE
8
BLACK
6
CONTINUOUS
10
6.78884
20
-2.50346
11
6.7885
21
-2.5027
0
LINE
8
BLACK
6
CONTINUOUS
10
6.7885
20
-2.5027
11
6.78844
21
-2.50134
0
LINE
8
BLACK
6
CONTINUOUS
10
6.78844
20
-2.50134
11
6.78819
21
-2.5
0
LINE
8
BLACK
6
CONTINUOUS
10
6.78819
20
-2.5
11
6.78819
21
-1.70489
0
LINE
8
BLACK
6
CONTINUOUS
10
6.78819
20
-1.70489
11
6.69137
21
-1.60807
0
LINE
8
BLACK
6
CONTINUOUS
10
6.69137
20
-1.60807
11
6.53593
21
-1.60807
0
LINE
8
BLACK
6
CONTINUOUS
10
6.53593
20
-1.60807
11
6.53593
21
-1.61594
0
LINE
8
BLACK
6
CONTINUOUS
10
6.53593
20
-1.61594
11
6.53548
21
-1.62013
0
LINE
8
BLACK
6
CONTINUOUS
10
6.53548
20
-1.62013
11
6.53352
21
-1.62538
0
LINE
8
BLACK
6
CONTINUOUS
10
6.53352
20
-1.62538
11
6.53016
21
-1.62986
0
LINE
8
BLACK
6
CONTINUOUS
10
6.53016
20
-1.62986
11
6.52567
21
-1.63322
0
LINE
8
BLACK
6
CONTINUOUS
10
6.52567
20
-1.63322
11
6.52042
21
-1.63518
0
LINE
8
BLACK
6
CONTINUOUS
10
6.52042
20
-1.63518
11
6.51624
21
-1.63563
0
LINE
8
BLACK
6
CONTINUOUS
10
6.51624
20
-1.63563
11
6.44734
21
-1.63563
0
LINE
8
BLACK
6
CONTINUOUS
10
6.44734
20
-1.63563
11
6.44316
21
-1.63518
0
LINE
8
BLACK
6
CONTINUOUS
10
6.44316
20
-1.63518
11
6.43791
21
-1.63322
0
LINE
8
BLACK
6
CONTINUOUS
10
6.43791
20
-1.63322
11
6.43342
21
-1.62986
0
LINE
8
BLACK
6
CONTINUOUS
10
6.43342
20
-1.62986
11
6.43007
21
-1.62538
0
LINE
8
BLACK
6
CONTINUOUS
10
6.43007
20
-1.62538
11
6.42811
21
-1.62013
0
LINE
8
BLACK
6
CONTINUOUS
10
6.42811
20
-1.62013
11
6.42766
21
-1.61594
0
LINE
8
BLACK
6
CONTINUOUS
10
6.42766
20
-1.61594
11
6.42766
21
-1.57657
0
LINE
8
BLACK
6
CONTINUOUS
10
6.42766
20
-1.57657
11
6.42811
21
-1.57239
0
LINE
8
BLACK
6
CONTINUOUS
10
6.42811
20
-1.57239
11
6.43007
21
-1.56714
0
LINE
8
BLACK
6
CONTINUOUS
10
6.43007
20
-1.56714
11
6.43342
21
-1.56266
0
LINE
8
BLACK
6
CONTINUOUS
10
6.43342
20
-1.56266
11
6.43791
21
-1.5593
0
LINE
8
BLACK
6
CONTINUOUS
10
6.43791
20
-1.5593
11
6.44316
21
-1.55734
0
LINE
8
BLACK
6
CONTINUOUS
10
6.44316
20
-1.55734
11
6.44734
21
-1.55689
0
LINE
8
BLACK
6
CONTINUOUS
10
6.44734
20
-1.55689
11
6.51624
21
-1.55689
0
LINE
8
BLACK
6
CONTINUOUS
10
6.51624
20
-1.55689
11
6.52042
21
-1.55734
0
LINE
8
BLACK
6
CONTINUOUS
10
6.52042
20
-1.65734
11
6.52567
21
-1.6593
0
LINE
8
BLACK
6
CONTINUOUS
10
6.52567
20
-1.6593
11
6.53016
21
-1.66266
0
LINE
8
BLACK
6
CONTINUOUS
10
6.53016
20
-1.66266
11
6.53352
21
-1.66714
0
LINE
8
BLACK
6
CONTINUOUS
10
6.53352
20
-1.66714
11
6.53548
21
-1.67239
0
LINE
8
BLACK
6
CONTINUOUS
10
6.53548
20
-1.67239
11
6.53593
21
-1.67657
0
LINE
8
BLACK
6
CONTINUOUS
10
6.53593
20
-1.67657
11
6.53593
21
-1.68819
0
LINE
8
BLACK
6
CONTINUOUS
10
6.53593
20
-1.68819
11
6.7
21
-1.68819
0
LINE
8
BLACK
6
CONTINUOUS
10
6.7
20
-1.68819
11
6.70082
21
-1.68826
0
LINE
8
BLACK
6
CONTINUOUS
10
6.70082
20
-1.68826
11
6.70109
21
-1.68824
0
LINE
8
BLACK
6
CONTINUOUS
10
6.70109
20
-1.68824
11
6.70135
21
-1.68831
0
LINE
8
BLACK
6
CONTINUOUS
10
6.70135
20
-1.68831
11
6.70217
21
-1.68839
0
LINE
8
BLACK
6
CONTINUOUS
10
6.70217
20
-1.68839
11
6.70369
21
-1.68898
0
LINE
8
BLACK
6
CONTINUOUS
10
6.70369
20
-1.68898
11
6.70526
21
-1.68943
0
LINE
8
BLACK
6
CONTINUOUS
10
6.70526
20
-1.68943
11
6.7057
21
-1.68976
0
LINE
8
BLACK
6
CONTINUOUS
10
6.7057
20
-1.68976
11
6.70622
21
-1.68996
0
LINE
8
BLACK
6
CONTINUOUS
10
6.70622
20
-1.68996
11
6.70742
21
-1.69106
0
LINE
8
BLACK
6
CONTINUOUS
10
6.70742
20
-1.69106
11
6.70873
21
-1.69204
0
LINE
8
BLACK
6
CONTINUOUS
10
6.70873
20
-1.69204
11
6.70902
21
-1.69251
0
LINE
8
BLACK
6
CONTINUOUS
10
6.70902
20
-1.69251
11
6.70943
21
-1.69288
0
LINE
8
BLACK
6
CONTINUOUS
10
6.70943
20
-1.69288
11
6.71015
21
-1.69434
0
LINE
8
BLACK
6
CONTINUOUS
10
6.71015
20
-1.69434
11
6.71101
21
-1.69573
0
LINE
8
BLACK
6
CONTINUOUS
10
6.71101
20
-1.69573
11
6.71111
21
-1.69627
0
LINE
8
BLACK
6
CONTINUOUS
10
6.71111
20
-1.69627
11
6.71136
21
-1.69677
0
LINE
8
BLACK
6
CONTINUOUS
10
6.71136
20
-1.69677
11
6.71151
21
-1.69839
0
LINE
8
BLACK
6
CONTINUOUS
10
6.71151
20
-1.69839
11
6.71181
21
-1.7
0
LINE
8
BLACK
6
CONTINUOUS
10
6.71181
20
-1.7
11
6.71181
21
-2.49511
0
LINE
8
BLACK
6
CONTINUOUS
10
6.71181
20
-2.49511
11
7.00489
21
-2.78819
0
LINE
8
BLACK
6
CONTINUOUS
10
7.00489
20
-2.78819
11
7.1
21
-2.78819
0
LINE
8
BLACK
6
CONTINUOUS
10
7.1
20
-2.78819
11
7.10038
21
-2.78822
0
LINE
8
BLACK
6
CONTINUOUS
10
7.10038
20
-2.78822
11
7.10055
21
-2.7882
0
LINE
8
BLACK
6
CONTINUOUS
10
7.10055
20
-2.7882
11
7.10081
21
-2.78826
0
LINE
8
BLACK
6
CONTINUOUS
10
7.10081
20
-2.78826
11
7.10217
21
-2.78839
0
LINE
8
BLACK
6
CONTINUOUS
10
7.10217
20
-2.78839
11
7.10344
21
-2.78888
0
LINE
8
BLACK
6
CONTINUOUS
10
7.10344
20
-2.78888
11
7.10477
21
-2.7892
0
LINE
8
BLACK
6
CONTINUOUS
10
7.10477
20
-2.7892
11
7.10545
21
-2.78966
0
LINE
8
BLACK
6
CONTINUOUS
10
7.10545
20
-2.78966
11
7.10622
21
-2.78996
0
LINE
8
BLACK
6
CONTINUOUS
10
7.10622
20
-2.78996
11
7.10723
21
-2.79088
0
LINE
8
BLACK
6
CONTINUOUS
10
7.10723
20
-2.79088
11
7.10835
21
-2.79165
0
LINE
8
BLACK
6
CONTINUOUS
10
7.10835
20
-2.79165
11
7.25875
21
-2.94204
0
LINE
8
BLACK
6
CONTINUOUS
10
7.25875
20
-2.94204
11
7.25899
21
-2.94234
0
LINE
8
BLACK
6
CONTINUOUS
10
7.25899
20
-2.94234
11
7.25912
21
-2.94244
0
LINE
8
BLACK
6
CONTINUOUS
10
7.25912
20
-2.94244
11
7.25927
21
-2.94267
0
LINE
8
BLACK
6
CONTINUOUS
10
7.25927
20
-2.94267
11
7.26014
21
-2.94372
0
LINE
8
BLACK
6
CONTINUOUS
10
7.26014
20
-2.94372
11
7.26069
21
-2.94497
0
LINE
8
BLACK
6
CONTINUOUS
10
7.26069
20
-2.94497
11
7.26141
21
-2.94613
0
LINE
8
BLACK
6
CONTINUOUS
10
7.26141
20
-2.94613
11
7.26156
21
-2.94694
0
LINE
8
BLACK
6
CONTINUOUS
10
7.26156
20
-2.94694
11
7.26189
21
-2.94769
0
LINE
8
BLACK
6
CONTINUOUS
10
7.26189
20
-2.94769
11
7.26195
21
-2.94905
0
LINE
8
BLACK
6
CONTINUOUS
10
7.26195
20
-2.94905
11
7.2622
21
-2.95039
0
LINE
8
BLACK
6
CONTINUOUS
10
7.2622
20
-2.95039
11
7.2622
21
-3.36024
0
LINE
8
BLACK
6
CONTINUOUS
10
7.2622
20
-3.36024
11
7.28386
21
-3.36024
0
LINE
8
BLACK
6
CONTINUOUS
10
7.28386
20
-3.36024
11
7.28386
21
-3.45866
0
LINE
8
BLACK
6
CONTINUOUS
10
7.28386
20
-3.45866
11
7.21693
21
-3.45866
0
LINE
8
BLACK
6
CONTINUOUS
10
7.21693
20
-3.45866
11
7.21693
21
-3.36024
0
LINE
8
BLACK
6
CONTINUOUS
10
7.21693
20
-3.36024
11
7.23858
21
-3.36024
0
LINE
8
BLACK
6
CONTINUOUS
10
7.23858
20
-3.36024
11
7.23858
21
-2.95529
0
LINE
8
BLACK
6
CONTINUOUS
10
7.23858
20
-2.95529
11
7.09511
21
-2.81181
0
LINE
8
BLACK
6
CONTINUOUS
10
7.09511
20
-2.81181
11
7
21
-2.81181
0
LINE
8
BLACK
6
CONTINUOUS
10
7
20
-2.81181
11
6.99962
21
-2.81178
0
LINE
8
BLACK
6
CONTINUOUS
10
6.99962
20
-2.81178
11
6.99945
21
-2.8118
0
LINE
8
BLACK
6
CONTINUOUS
10
6.99945
20
-2.8118
11
6.99919
21
-2.81174
0
LINE
8
BLACK
6
CONTINUOUS
10
6.99919
20
-2.81174
11
6.99783
21
-2.81161
0
LINE
8
BLACK
6
CONTINUOUS
10
6.99783
20
-2.81161
11
6.99656
21
-2.81112
0
LINE
8
BLACK
6
CONTINUOUS
10
6.99656
20
-2.81112
11
6.99523
21
-2.8108
0
LINE
8
BLACK
6
CONTINUOUS
10
6.99523
20
-2.8108
11
6.99455
21
-2.81034
0
LINE
8
BLACK
6
CONTINUOUS
10
6.99455
20
-2.81034
11
6.99378
21
-2.81004
0
LINE
8
BLACK
6
CONTINUOUS
10
6.99378
20
-2.81004
11
6.99277
21
-2.80912
0
LINE
8
BLACK
6
CONTINUOUS
10
6.99277
20
-2.80912
11
6.99165
21
-2.80835
0
LINE
8
BLACK
6
CONTINUOUS
10
6.99165
20
-2.80835
11
6.69165
21
-2.50835
0
LINE
8
BLACK
6
CONTINUOUS
10
6.69165
20
-2.50835
11
6.6914
21
-2.50806
0
LINE
8
BLACK
6
CONTINUOUS
10
6.6914
20
-2.50806
11
6.69127
21
-2.50796
0
LINE
8
BLACK
6
CONTINUOUS
10
6.69127
20
-2.50796
11
6.69113
21
-2.50772
0
LINE
8
BLACK
6
CONTINUOUS
10
6.69113
20
-2.50772
11
6.69026
21
-2.50667
0
LINE
8
BLACK
6
CONTINUOUS
10
6.69026
20
-2.50667
11
6.6897
21
-2.50543
0
LINE
8
BLACK
6
CONTINUOUS
10
6.6897
20
-2.50543
11
6.68899
21
-2.50427
0
LINE
8
BLACK
6
CONTINUOUS
10
6.68899
20
-2.50427
11
6.68884
21
-2.50346
0
LINE
8
BLACK
6
CONTINUOUS
10
6.68884
20
-2.50346
11
6.6885
21
-2.5027
0
LINE
8
BLACK
6
CONTINUOUS
10
6.6885
20
-2.5027
11
6.68844
21
-2.50134
0
LINE
8
BLACK
6
CONTINUOUS
10
6.68844
20
-2.50134
11
6.68819
21
-2.5
0
LINE
8
BLACK
6
CONTINUOUS
10
6.68819
20
-2.5
11
6.68819
21
-1.71181
0
LINE
8
BLACK
6
CONTINUOUS
10
6.68819
20
-1.71181
11
6.53593
21
-1.71181
0
LINE
8
BLACK
6
CONTINUOUS
10
6.53593
20
-1.71181
11
6.53593
21
-1.71594
0
LINE
8
BLACK
6
CONTINUOUS
10
6.53593
20
-1.71594
11
6.53548
21
-1.72013
0
LINE
8
BLACK
6
CONTINUOUS
10
6.53548
20
-1.72013
11
6.53352
21
-1.72538
0
LINE
8
BLACK
6
CONTINUOUS
10
6.53352
20
-1.72538
11
6.53016
21
-1.72986
0
LINE
8
BLACK
6
CONTINUOUS
10
6.53016
20
-1.72986
11
6.52567
21
-1.73322
0
LINE
8
BLACK
6
CONTINUOUS
10
6.52567
20
-1.73322
11
6.52042
21
-1.73518
0
LINE
8
BLACK
6
CONTINUOUS
10
6.52042
20
-1.73518
11
6.51624
21
-1.73563
0
LINE
8
BLACK
6
CONTINUOUS
10
6.51624
20
-1.73563
11
6.44734
21
-1.73563
0
LINE
8
BLACK
6
CONTINUOUS
10
6.44734
20
-1.73563
11
6.44316
21
-1.73518
0
LINE
8
BLACK
6
CONTINUOUS
10
6.44316
20
-1.73518
11
6.43791
21
-1.73322
0
LINE
8
BLACK
6
CONTINUOUS
10
6.43791
20
-1.73322
11
6.43342
21
-1.72986
0
LINE
8
BLACK
6
CONTINUOUS
10
6.43342
20
-1.72986
11
6.43007
21
-1.72538
0
LINE
8
BLACK
6
CONTINUOUS
10
6.43007
20
-1.72538
11
6.42811
21
-1.72013
0
LINE
8
BLACK
6
CONTINUOUS
10
6.42811
20
-1.72013
11
6.42766
21
-1.71594
0
LINE
8
BLACK
6
CONTINUOUS
10
6.42766
20
-1.71594
11
6.42766
21
-1.67657
0
LINE
8
BLACK
6
CONTINUOUS
10
6.42766
20
-1.67657
11
6.42811
21
-1.67239
0
LINE
8
BLACK
6
CONTINUOUS
10
6.42811
20
-1.67239
11
6.43007
21
-1.66714
0
LINE
8
BLACK
6
CONTINUOUS
10
6.43007
20
-1.66714
11
6.43342
21
-1.66266
0
LINE
8
BLACK
6
CONTINUOUS
10
6.43342
20
-1.66266
11
6.43791
21
-1.6593
0
LINE
8
BLACK
6
CONTINUOUS
10
6.43791
20
-1.6593
11
6.44316
21
-1.65734
0
LINE
8
BLACK
6
CONTINUOUS
10
6.44316
20
-1.65734
11
6.44734
21
-1.65689
0
LINE
8
BLACK
6
CONTINUOUS
10
6.44734
20
-1.65689
11
6.51624
21
-1.65689
0
LINE
8
BLACK
6
CONTINUOUS
10
6.51624
20
-1.65689
11
6.52042
21
-1.65734
0
LINE
8
BLACK
6
CONTINUOUS
10
6.52042
20
-1.75734
11
6.52567
21
-1.7593
0
LINE
8
BLACK
6
CONTINUOUS
10
6.52567
20
-1.7593
11
6.53016
21
-1.76266
0
LINE
8
BLACK
6
CONTINUOUS
10
6.53016
20
-1.76266
11
6.53352
21
-1.76714
0
LINE
8
BLACK
6
CONTINUOUS
10
6.53352
20
-1.76714
11
6.53548
21
-1.77239
0
LINE
8
BLACK
6
CONTINUOUS
10
6.53548
20
-1.77239
11
6.53593
21
-1.77657
0
LINE
8
BLACK
6
CONTINUOUS
10
6.53593
20
-1.77657
11
6.53593
21
-1.78819
0
LINE
8
BLACK
6
CONTINUOUS
10
6.53593
20
-1.78819
11
6.6
21
-1.78819
0
LINE
8
BLACK
6
CONTINUOUS
10
6.6
20
-1.78819
11
6.60082
21
-1.78826
0
LINE
8
BLACK
6
CONTINUOUS
10
6.60082
20
-1.78826
11
6.60109
21
-1.78824
0
LINE
8
BLACK
6
CONTINUOUS
10
6.60109
20
-1.78824
11
6.60135
21
-1.78831
0
LINE
8
BLACK
6
CONTINUOUS
10
6.60135
20
-1.78831
11
6.60217
21
-1.78839
0
LINE
8
BLACK
6
CONTINUOUS
10
6.60217
20
-1.78839
11
6.60369
21
-1.78898
0
LINE
8
BLACK
6
CONTINUOUS
10
6.60369
20
-1.78898
11
6.60526
21
-1.78943
0
LINE
8
BLACK
6
CONTINUOUS
10
6.60526
20
-1.78943
11
6.6057
21
-1.78976
0
LINE
8
BLACK
6
CONTINUOUS
10
6.6057
20
-1.78976
11
6.60622
21
-1.78996
0
LINE
8
BLACK
6
CONTINUOUS
10
6.60622
20
-1.78996
11
6.60742
21
-1.79106
0
LINE
8
BLACK
6
CONTINUOUS
10
6.60742
20
-1.79106
11
6.60873
21
-1.79204
0
LINE
8
BLACK
6
CONTINUOUS
10
6.60873
20
-1.79204
11
6.60902
21
-1.79251
0
LINE
8
BLACK
6
CONTINUOUS
10
6.60902
20
-1.79251
11
6.60943
21
-1.79288
0
LINE
8
BLACK
6
CONTINUOUS
10
6.60943
20
-1.79288
11
6.61015
21
-1.79434
0
LINE
8
BLACK
6
CONTINUOUS
10
6.61015
20
-1.79434
11
6.61101
21
-1.79573
0
LINE
8
BLACK
6
CONTINUOUS
10
6.61101
20
-1.79573
11
6.61111
21
-1.79627
0
LINE
8
BLACK
6
CONTINUOUS
10
6.61111
20
-1.79627
11
6.61136
21
-1.79677
0
LINE
8
BLACK
6
CONTINUOUS
10
6.61136
20
-1.79677
11
6.61151
21
-1.79839
0
LINE
8
BLACK
6
CONTINUOUS
10
6.61151
20
-1.79839
11
6.61181
21
-1.8
0
LINE
8
BLACK
6
CONTINUOUS
10
6.61181
20
-1.8
11
6.61181
21
-2.49511
0
LINE
8
BLACK
6
CONTINUOUS
10
6.61181
20
-2.49511
11
7.15875
21
-3.04204
0
LINE
8
BLACK
6
CONTINUOUS
10
7.15875
20
-3.04204
11
7.15899
21
-3.04234
0
LINE
8
BLACK
6
CONTINUOUS
10
7.15899
20
-3.04234
11
7.15912
21
-3.04244
0
LINE
8
BLACK
6
CONTINUOUS
10
7.15912
20
-3.04244
11
7.15927
21
-3.04267
0
LINE
8
BLACK
6
CONTINUOUS
10
7.15927
20
-3.04267
11
7.16014
21
-3.04372
0
LINE
8
BLACK
6
CONTINUOUS
10
7.16014
20
-3.04372
11
7.16069
21
-3.04497
0
LINE
8
BLACK
6
CONTINUOUS
10
7.16069
20
-3.04497
11
7.16141
21
-3.04613
0
LINE
8
BLACK
6
CONTINUOUS
10
7.16141
20
-3.04613
11
7.16156
21
-3.04694
0
LINE
8
BLACK
6
CONTINUOUS
10
7.16156
20
-3.04694
11
7.16189
21
-3.04769
0
LINE
8
BLACK
6
CONTINUOUS
10
7.16189
20
-3.04769
11
7.16195
21
-3.04905
0
LINE
8
BLACK
6
CONTINUOUS
10
7.16195
20
-3.04905
11
7.1622
21
-3.05039
0
LINE
8
BLACK
6
CONTINUOUS
10
7.1622
20
-3.05039
11
7.1622
21
-3.36024
0
LINE
8
BLACK
6
CONTINUOUS
10
7.1622
20
-3.36024
11
7.18386
21
-3.36024
0
LINE
8
BLACK
6
CONTINUOUS
10
7.18386
20
-3.36024
11
7.18386
21
-3.45866
0
LINE
8
BLACK
6
CONTINUOUS
10
7.18386
20
-3.45866
11
7.11693
21
-3.45866
0
LINE
8
BLACK
6
CONTINUOUS
10
7.11693
20
-3.45866
11
7.11693
21
-3.36024
0
LINE
8
BLACK
6
CONTINUOUS
10
7.11693
20
-3.36024
11
7.13858
21
-3.36024
0
LINE
8
BLACK
6
CONTINUOUS
10
7.13858
20
-3.36024
11
7.13858
21
-3.05529
0
LINE
8
BLACK
6
CONTINUOUS
10
7.13858
20
-3.05529
11
6.59165
21
-2.50835
0
LINE
8
BLACK
6
CONTINUOUS
10
6.59165
20
-2.50835
11
6.5914
21
-2.50806
0
LINE
8
BLACK
6
CONTINUOUS
10
6.5914
20
-2.50806
11
6.59127
21
-2.50796
0
LINE
8
BLACK
6
CONTINUOUS
10
6.59127
20
-2.50796
11
6.59113
21
-2.50772
0
LINE
8
BLACK
6
CONTINUOUS
10
6.59113
20
-2.50772
11
6.59026
21
-2.50667
0
LINE
8
BLACK
6
CONTINUOUS
10
6.59026
20
-2.50667
11
6.5897
21
-2.50543
0
LINE
8
BLACK
6
CONTINUOUS
10
6.5897
20
-2.50543
11
6.58899
21
-2.50427
0
LINE
8
BLACK
6
CONTINUOUS
10
6.58899
20
-2.50427
11
6.58884
21
-2.50346
0
LINE
8
BLACK
6
CONTINUOUS
10
6.58884
20
-2.50346
11
6.5885
21
-2.5027
0
LINE
8
BLACK
6
CONTINUOUS
10
6.5885
20
-2.5027
11
6.58844
21
-2.50134
0
LINE
8
BLACK
6
CONTINUOUS
10
6.58844
20
-2.50134
11
6.58819
21
-2.5
0
LINE
8
BLACK
6
CONTINUOUS
10
6.58819
20
-2.5
11
6.58819
21
-1.81181
0
LINE
8
BLACK
6
CONTINUOUS
10
6.58819
20
-1.81181
11
6.53593
21
-1.81181
0
LINE
8
BLACK
6
CONTINUOUS
10
6.53593
20
-1.81181
11
6.53593
21
-1.81594
0
LINE
8
BLACK
6
CONTINUOUS
10
6.53593
20
-1.81594
11
6.53548
21
-1.82013
0
LINE
8
BLACK
6
CONTINUOUS
10
6.53548
20
-1.82013
11
6.53352
21
-1.82538
0
LINE
8
BLACK
6
CONTINUOUS
10
6.53352
20
-1.82538
11
6.53016
21
-1.82986
0
LINE
8
BLACK
6
CONTINUOUS
10
6.53016
20
-1.82986
11
6.52567
21
-1.83322
0
LINE
8
BLACK
6
CONTINUOUS
10
6.52567
20
-1.83322
11
6.52042
21
-1.83518
0
LINE
8
BLACK
6
CONTINUOUS
10
6.52042
20
-1.83518
11
6.51624
21
-1.83563
0
LINE
8
BLACK
6
CONTINUOUS
10
6.51624
20
-1.83563
11
6.44734
21
-1.83563
0
LINE
8
BLACK
6
CONTINUOUS
10
6.44734
20
-1.83563
11
6.44316
21
-1.83518
0
LINE
8
BLACK
6
CONTINUOUS
10
6.44316
20
-1.83518
11
6.43791
21
-1.83322
0
LINE
8
BLACK
6
CONTINUOUS
10
6.43791
20
-1.83322
11
6.43342
21
-1.82986
0
LINE
8
BLACK
6
CONTINUOUS
10
6.43342
20
-1.82986
11
6.43007
21
-1.82538
0
LINE
8
BLACK
6
CONTINUOUS
10
6.43007
20
-1.82538
11
6.42811
21
-1.82013
0
LINE
8
BLACK
6
CONTINUOUS
10
6.42811
20
-1.82013
11
6.42766
21
-1.81594
0
LINE
8
BLACK
6
CONTINUOUS
10
6.42766
20
-1.81594
11
6.42766
21
-1.77657
0
LINE
8
BLACK
6
CONTINUOUS
10
6.42766
20
-1.77657
11
6.42811
21
-1.77239
0
LINE
8
BLACK
6
CONTINUOUS
10
6.42811
20
-1.77239
11
6.43007
21
-1.76714
0
LINE
8
BLACK
6
CONTINUOUS
10
6.43007
20
-1.76714
11
6.43342
21
-1.76266
0
LINE
8
BLACK
6
CONTINUOUS
10
6.43342
20
-1.76266
11
6.43791
21
-1.7593
0
LINE
8
BLACK
6
CONTINUOUS
10
6.43791
20
-1.7593
11
6.44316
21
-1.75734
0
LINE
8
BLACK
6
CONTINUOUS
10
6.44316
20
-1.75734
11
6.44734
21
-1.75689
0
LINE
8
BLACK
6
CONTINUOUS
10
6.44734
20
-1.75689
11
6.51624
21
-1.75689
0
LINE
8
BLACK
6
CONTINUOUS
10
6.51624
20
-1.75689
11
6.52042
21
-1.75734
0
LINE
8
BLACK
6
CONTINUOUS
10
7.01811
20
-3.02267
11
7.05875
21
-3.0633
0
LINE
8
BLACK
6
CONTINUOUS
10
7.05875
20
-3.0633
11
7.05899
21
-3.0636
0
LINE
8
BLACK
6
CONTINUOUS
10
7.05899
20
-3.0636
11
7.05912
21
-3.0637
0
LINE
8
BLACK
6
CONTINUOUS
10
7.05912
20
-3.0637
11
7.05927
21
-3.06393
0
LINE
8
BLACK
6
CONTINUOUS
10
7.05927
20
-3.06393
11
7.06014
21
-3.06498
0
LINE
8
BLACK
6
CONTINUOUS
10
7.06014
20
-3.06498
11
7.06069
21
-3.06623
0
LINE
8
BLACK
6
CONTINUOUS
10
7.06069
20
-3.06623
11
7.06141
21
-3.06739
0
LINE
8
BLACK
6
CONTINUOUS
10
7.06141
20
-3.06739
11
7.06156
21
-3.0682
0
LINE
8
BLACK
6
CONTINUOUS
10
7.06156
20
-3.0682
11
7.06189
21
-3.06895
0
LINE
8
BLACK
6
CONTINUOUS
10
7.06189
20
-3.06895
11
7.06195
21
-3.07031
0
LINE
8
BLACK
6
CONTINUOUS
10
7.06195
20
-3.07031
11
7.0622
21
-3.07165
0
LINE
8
BLACK
6
CONTINUOUS
10
7.0622
20
-3.07165
11
7.0622
21
-3.36024
0
LINE
8
BLACK
6
CONTINUOUS
10
7.0622
20
-3.36024
11
7.08386
21
-3.36024
0
LINE
8
BLACK
6
CONTINUOUS
10
7.08386
20
-3.36024
11
7.08386
21
-3.45866
0
LINE
8
BLACK
6
CONTINUOUS
10
7.08386
20
-3.45866
11
7.01693
21
-3.45866
0
LINE
8
BLACK
6
CONTINUOUS
10
7.01693
20
-3.45866
11
7.01693
21
-3.36024
0
LINE
8
BLACK
6
CONTINUOUS
10
7.01693
20
-3.36024
11
7.03858
21
-3.36024
0
LINE
8
BLACK
6
CONTINUOUS
10
7.03858
20
-3.36024
11
7.03858
21
-3.07655
0
LINE
8
BLACK
6
CONTINUOUS
10
7.03858
20
-3.07655
11
6.9955
21
-3.03346
0
LINE
8
BLACK
6
CONTINUOUS
10
6.9955
20
-3.03346
11
6.93937
21
-3.03346
0
LINE
8
BLACK
6
CONTINUOUS
10
6.93937
20
-3.03346
11
6.93937
21
-2.96654
0
LINE
8
BLACK
6
CONTINUOUS
10
6.93937
20
-2.96654
11
7.01811
21
-2.96654
0
LINE
8
BLACK
6
CONTINUOUS
10
7.01811
20
-2.96654
11
7.01811
21
-3.02267
0
LINE
8
BLACK
6
CONTINUOUS
10
6.52042
20
-2.05734
11
6.52567
21
-2.0593
0
LINE
8
BLACK
6
CONTINUOUS
10
6.52567
20
-2.0593
11
6.53016
21
-2.06266
0
LINE
8
BLACK
6
CONTINUOUS
10
6.53016
20
-2.06266
11
6.53352
21
-2.06714
0
LINE
8
BLACK
6
CONTINUOUS
10
6.53352
20
-2.06714
11
6.53548
21
-2.07239
0
LINE
8
BLACK
6
CONTINUOUS
10
6.53548
20
-2.07239
11
6.53593
21
-2.07657
0
LINE
8
BLACK
6
CONTINUOUS
10
6.53593
20
-2.07657
11
6.53593
21
-2.11594
0
LINE
8
BLACK
6
CONTINUOUS
10
6.53593
20
-2.11594
11
6.53548
21
-2.12013
0
LINE
8
BLACK
6
CONTINUOUS
10
6.53548
20
-2.12013
11
6.53352
21
-2.12538
0
LINE
8
BLACK
6
CONTINUOUS
10
6.53352
20
-2.12538
11
6.53016
21
-2.12986
0
LINE
8
BLACK
6
CONTINUOUS
10
6.53016
20
-2.12986
11
6.52567
21
-2.13322
0
LINE
8
BLACK
6
CONTINUOUS
10
6.52567
20
-2.13322
11
6.52042
21
-2.13518
0
LINE
8
BLACK
6
CONTINUOUS
10
6.52042
20
-2.13518
11
6.51624
21
-2.13563
0
LINE
8
BLACK
6
CONTINUOUS
10
6.51624
20
-2.13563
11
6.44734
21
-2.13563
0
LINE
8
BLACK
6
CONTINUOUS
10
6.44734
20
-2.13563
11
6.44316
21
-2.13518
0
LINE
8
BLACK
6
CONTINUOUS
10
6.44316
20
-2.13518
11
6.43791
21
-2.13322
0
LINE
8
BLACK
6
CONTINUOUS
10
6.43791
20
-2.13322
11
6.43342
21
-2.12986
0
LINE
8
BLACK
6
CONTINUOUS
10
6.43342
20
-2.12986
11
6.43007
21
-2.12538
0
LINE
8
BLACK
6
CONTINUOUS
10
6.43007
20
-2.12538
11
6.42811
21
-2.12013
0
LINE
8
BLACK
6
CONTINUOUS
10
6.42811
20
-2.12013
11
6.42766
21
-2.11594
0
LINE
8
BLACK
6
CONTINUOUS
10
6.42766
20
-2.11594
11
6.42766
21
-2.10807
0
LINE
8
BLACK
6
CONTINUOUS
10
6.42766
20
-2.10807
11
6.40863
21
-2.10807
0
LINE
8
BLACK
6
CONTINUOUS
10
6.40863
20
-2.10807
11
6.31181
21
-2.20489
0
LINE
8
BLACK
6
CONTINUOUS
10
6.31181
20
-2.20489
11
6.31181
21
-2.39511
0
LINE
8
BLACK
6
CONTINUOUS
10
6.31181
20
-2.39511
11
6.70835
21
-2.79165
0
LINE
8
BLACK
6
CONTINUOUS
10
6.70835
20
-2.79165
11
6.7086
21
-2.79194
0
LINE
8
BLACK
6
CONTINUOUS
10
6.7086
20
-2.79194
11
6.70873
21
-2.79204
0
LINE
8
BLACK
6
CONTINUOUS
10
6.70873
20
-2.79204
11
6.70887
21
-2.79228
0
LINE
8
BLACK
6
CONTINUOUS
10
6.70887
20
-2.79228
11
6.70974
21
-2.79333
0
LINE
8
BLACK
6
CONTINUOUS
10
6.70974
20
-2.79333
11
6.7103
21
-2.79457
0
LINE
8
BLACK
6
CONTINUOUS
10
6.7103
20
-2.79457
11
6.71101
21
-2.79573
0
LINE
8
BLACK
6
CONTINUOUS
10
6.71101
20
-2.79573
11
6.71116
21
-2.79654
0
LINE
8
BLACK
6
CONTINUOUS
10
6.71116
20
-2.79654
11
6.7115
21
-2.7973
0
LINE
8
BLACK
6
CONTINUOUS
10
6.7115
20
-2.7973
11
6.71156
21
-2.79866
0
LINE
8
BLACK
6
CONTINUOUS
10
6.71156
20
-2.79866
11
6.71181
21
-2.8
0
LINE
8
BLACK
6
CONTINUOUS
10
6.71181
20
-2.8
11
6.71181
21
-3.08819
0
LINE
8
BLACK
6
CONTINUOUS
10
6.71181
20
-3.08819
11
6.8
21
-3.08819
0
LINE
8
BLACK
6
CONTINUOUS
10
6.8
20
-3.08819
11
6.80038
21
-3.08822
0
LINE
8
BLACK
6
CONTINUOUS
10
6.80038
20
-3.08822
11
6.80055
21
-3.0882
0
LINE
8
BLACK
6
CONTINUOUS
10
6.80055
20
-3.0882
11
6.80081
21
-3.08826
0
LINE
8
BLACK
6
CONTINUOUS
10
6.80081
20
-3.08826
11
6.80217
21
-3.08839
0
LINE
8
BLACK
6
CONTINUOUS
10
6.80217
20
-3.08839
11
6.80344
21
-3.08888
0
LINE
8
BLACK
6
CONTINUOUS
10
6.80344
20
-3.08888
11
6.80477
21
-3.0892
0
LINE
8
BLACK
6
CONTINUOUS
10
6.80477
20
-3.0892
11
6.80545
21
-3.08966
0
LINE
8
BLACK
6
CONTINUOUS
10
6.80545
20
-3.08966
11
6.80622
21
-3.08996
0
LINE
8
BLACK
6
CONTINUOUS
10
6.80622
20
-3.08996
11
6.80723
21
-3.09088
0
LINE
8
BLACK
6
CONTINUOUS
10
6.80723
20
-3.09088
11
6.80835
21
-3.09165
0
LINE
8
BLACK
6
CONTINUOUS
10
6.80835
20
-3.09165
11
6.95875
21
-3.24204
0
LINE
8
BLACK
6
CONTINUOUS
10
6.95875
20
-3.24204
11
6.95899
21
-3.24234
0
LINE
8
BLACK
6
CONTINUOUS
10
6.95899
20
-3.24234
11
6.95912
21
-3.24244
0
LINE
8
BLACK
6
CONTINUOUS
10
6.95912
20
-3.24244
11
6.95927
21
-3.24267
0
LINE
8
BLACK
6
CONTINUOUS
10
6.95927
20
-3.24267
11
6.96014
21
-3.24372
0
LINE
8
BLACK
6
CONTINUOUS
10
6.96014
20
-3.24372
11
6.96069
21
-3.24497
0
LINE
8
BLACK
6
CONTINUOUS
10
6.96069
20
-3.24497
11
6.96141
21
-3.24613
0
LINE
8
BLACK
6
CONTINUOUS
10
6.96141
20
-3.24613
11
6.96156
21
-3.24694
0
LINE
8
BLACK
6
CONTINUOUS
10
6.96156
20
-3.24694
11
6.96189
21
-3.24769
0
LINE
8
BLACK
6
CONTINUOUS
10
6.96189
20
-3.24769
11
6.96195
21
-3.24905
0
LINE
8
BLACK
6
CONTINUOUS
10
6.96195
20
-3.24905
11
6.9622
21
-3.25039
0
LINE
8
BLACK
6
CONTINUOUS
10
6.9622
20
-3.25039
11
6.9622
21
-3.36024
0
LINE
8
BLACK
6
CONTINUOUS
10
6.9622
20
-3.36024
11
6.98386
21
-3.36024
0
LINE
8
BLACK
6
CONTINUOUS
10
6.98386
20
-3.36024
11
6.98386
21
-3.45866
0
LINE
8
BLACK
6
CONTINUOUS
10
6.98386
20
-3.45866
11
6.91693
21
-3.45866
0
LINE
8
BLACK
6
CONTINUOUS
10
6.91693
20
-3.45866
11
6.91693
21
-3.36024
0
LINE
8
BLACK
6
CONTINUOUS
10
6.91693
20
-3.36024
11
6.93858
21
-3.36024
0
LINE
8
BLACK
6
CONTINUOUS
10
6.93858
20
-3.36024
11
6.93858
21
-3.25529
0
LINE
8
BLACK
6
CONTINUOUS
10
6.93858
20
-3.25529
11
6.79511
21
-3.11181
0
LINE
8
BLACK
6
CONTINUOUS
10
6.79511
20
-3.11181
11
6.7
21
-3.11181
0
LINE
8
BLACK
6
CONTINUOUS
10
6.7
20
-3.11181
11
6.69918
21
-3.11174
0
LINE
8
BLACK
6
CONTINUOUS
10
6.69918
20
-3.11174
11
6.69891
21
-3.11176
0
LINE
8
BLACK
6
CONTINUOUS
10
6.69891
20
-3.11176
11
6.69865
21
-3.11169
0
LINE
8
BLACK
6
CONTINUOUS
10
6.69865
20
-3.11169
11
6.69783
21
-3.11161
0
LINE
8
BLACK
6
CONTINUOUS
10
6.69783
20
-3.11161
11
6.69631
21
-3.11102
0
LINE
8
BLACK
6
CONTINUOUS
10
6.69631
20
-3.11102
11
6.69474
21
-3.11057
0
LINE
8
BLACK
6
CONTINUOUS
10
6.69474
20
-3.11057
11
6.6943
21
-3.11024
0
LINE
8
BLACK
6
CONTINUOUS
10
6.6943
20
-3.11024
11
6.69378
21
-3.11004
0
LINE
8
BLACK
6
CONTINUOUS
10
6.69378
20
-3.11004
11
6.69258
21
-3.10894
0
LINE
8
BLACK
6
CONTINUOUS
10
6.69258
20
-3.10894
11
6.69127
21
-3.10796
0
LINE
8
BLACK
6
CONTINUOUS
10
6.69127
20
-3.10796
11
6.69098
21
-3.10749
0
LINE
8
BLACK
6
CONTINUOUS
10
6.69098
20
-3.10749
11
6.69057
21
-3.10712
0
LINE
8
BLACK
6
CONTINUOUS
10
6.69057
20
-3.10712
11
6.68985
21
-3.10566
0
LINE
8
BLACK
6
CONTINUOUS
10
6.68985
20
-3.10566
11
6.68899
21
-3.10427
0
LINE
8
BLACK
6
CONTINUOUS
10
6.68899
20
-3.10427
11
6.68889
21
-3.10373
0
LINE
8
BLACK
6
CONTINUOUS
10
6.68889
20
-3.10373
11
6.68864
21
-3.10323
0
LINE
8
BLACK
6
CONTINUOUS
10
6.68864
20
-3.10323
11
6.68849
21
-3.10161
0
LINE
8
BLACK
6
CONTINUOUS
10
6.68849
20
-3.10161
11
6.68819
21
-3.1
0
LINE
8
BLACK
6
CONTINUOUS
10
6.68819
20
-3.1
11
6.68819
21
-2.80489
0
LINE
8
BLACK
6
CONTINUOUS
10
6.68819
20
-2.80489
11
6.29165
21
-2.40835
0
LINE
8
BLACK
6
CONTINUOUS
10
6.29165
20
-2.40835
11
6.2914
21
-2.40806
0
LINE
8
BLACK
6
CONTINUOUS
10
6.2914
20
-2.40806
11
6.29127
21
-2.40796
0
LINE
8
BLACK
6
CONTINUOUS
10
6.29127
20
-2.40796
11
6.29113
21
-2.40772
0
LINE
8
BLACK
6
CONTINUOUS
10
6.29113
20
-2.40772
11
6.29026
21
-2.40667
0
LINE
8
BLACK
6
CONTINUOUS
10
6.29026
20
-2.40667
11
6.2897
21
-2.40543
0
LINE
8
BLACK
6
CONTINUOUS
10
6.2897
20
-2.40543
11
6.28899
21
-2.40427
0
LINE
8
BLACK
6
CONTINUOUS
10
6.28899
20
-2.40427
11
6.28884
21
-2.40346
0
LINE
8
BLACK
6
CONTINUOUS
10
6.28884
20
-2.40346
11
6.2885
21
-2.4027
0
LINE
8
BLACK
6
CONTINUOUS
10
6.2885
20
-2.4027
11
6.28844
21
-2.40134
0
LINE
8
BLACK
6
CONTINUOUS
10
6.28844
20
-2.40134
11
6.28819
21
-2.4
0
LINE
8
BLACK
6
CONTINUOUS
10
6.28819
20
-2.4
11
6.28819
21
-2.2
0
LINE
8
BLACK
6
CONTINUOUS
10
6.28819
20
-2.2
11
6.28822
21
-2.19962
0
LINE
8
BLACK
6
CONTINUOUS
10
6.28822
20
-2.19962
11
6.2882
21
-2.19945
0
LINE
8
BLACK
6
CONTINUOUS
10
6.2882
20
-2.19945
11
6.28826
21
-2.19919
0
LINE
8
BLACK
6
CONTINUOUS
10
6.28826
20
-2.19919
11
6.28839
21
-2.19783
0
LINE
8
BLACK
6
CONTINUOUS
10
6.28839
20
-2.19783
11
6.28888
21
-2.19656
0
LINE
8
BLACK
6
CONTINUOUS
10
6.28888
20
-2.19656
11
6.2892
21
-2.19523
0
LINE
8
BLACK
6
CONTINUOUS
10
6.2892
20
-2.19523
11
6.28966
21
-2.19455
0
LINE
8
BLACK
6
CONTINUOUS
10
6.28966
20
-2.19455
11
6.28996
21
-2.19378
0
LINE
8
BLACK
6
CONTINUOUS
10
6.28996
20
-2.19378
11
6.29088
21
-2.19277
0
LINE
8
BLACK
6
CONTINUOUS
10
6.29088
20
-2.19277
11
6.29165
21
-2.19165
0
LINE
8
BLACK
6
CONTINUOUS
10
6.29165
20
-2.19165
11
6.39539
21
-2.08791
0
LINE
8
BLACK
6
CONTINUOUS
10
6.39539
20
-2.08791
11
6.39568
21
-2.08766
0
LINE
8
BLACK
6
CONTINUOUS
10
6.39568
20
-2.08766
11
6.39578
21
-2.08753
0
LINE
8
BLACK
6
CONTINUOUS
10
6.39578
20
-2.08753
11
6.39602
21
-2.08739
0
LINE
8
BLACK
6
CONTINUOUS
10
6.39602
20
-2.08739
11
6.39707
21
-2.08652
0
LINE
8
BLACK
6
CONTINUOUS
10
6.39707
20
-2.08652
11
6.39831
21
-2.08596
0
LINE
8
BLACK
6
CONTINUOUS
10
6.39831
20
-2.08596
11
6.39947
21
-2.08525
0
LINE
8
BLACK
6
CONTINUOUS
10
6.39947
20
-2.08525
11
6.40028
21
-2.0851
0
LINE
8
BLACK
6
CONTINUOUS
10
6.40028
20
-2.0851
11
6.40104
21
-2.08476
0
LINE
8
BLACK
6
CONTINUOUS
10
6.40104
20
-2.08476
11
6.4024
21
-2.0847
0
LINE
8
BLACK
6
CONTINUOUS
10
6.4024
20
-2.0847
11
6.40374
21
-2.08445
0
LINE
8
BLACK
6
CONTINUOUS
10
6.40374
20
-2.08445
11
6.42766
21
-2.08445
0
LINE
8
BLACK
6
CONTINUOUS
10
6.42766
20
-2.08445
11
6.42766
21
-2.07657
0
LINE
8
BLACK
6
CONTINUOUS
10
6.42766
20
-2.07657
11
6.42811
21
-2.07239
0
LINE
8
BLACK
6
CONTINUOUS
10
6.42811
20
-2.07239
11
6.43007
21
-2.06714
0
LINE
8
BLACK
6
CONTINUOUS
10
6.43007
20
-2.06714
11
6.43342
21
-2.06266
0
LINE
8
BLACK
6
CONTINUOUS
10
6.43342
20
-2.06266
11
6.43791
21
-2.0593
0
LINE
8
BLACK
6
CONTINUOUS
10
6.43791
20
-2.0593
11
6.44316
21
-2.05734
0
LINE
8
BLACK
6
CONTINUOUS
10
6.44316
20
-2.05734
11
6.44734
21
-2.05689
0
LINE
8
BLACK
6
CONTINUOUS
10
6.44734
20
-2.05689
11
6.51624
21
-2.05689
0
LINE
8
BLACK
6
CONTINUOUS
10
6.51624
20
-2.05689
11
6.52042
21
-2.05734
0
LINE
8
BLACK
6
CONTINUOUS
10
6.52042
20
-1.95734
11
6.52567
21
-1.9593
0
LINE
8
BLACK
6
CONTINUOUS
10
6.52567
20
-1.9593
11
6.53016
21
-1.96266
0
LINE
8
BLACK
6
CONTINUOUS
10
6.53016
20
-1.96266
11
6.53352
21
-1.96714
0
LINE
8
BLACK
6
CONTINUOUS
10
6.53352
20
-1.96714
11
6.53548
21
-1.97239
0
LINE
8
BLACK
6
CONTINUOUS
10
6.53548
20
-1.97239
11
6.53593
21
-1.97657
0
LINE
8
BLACK
6
CONTINUOUS
10
6.53593
20
-1.97657
11
6.53593
21
-2.01594
0
LINE
8
BLACK
6
CONTINUOUS
10
6.53593
20
-2.01594
11
6.53548
21
-2.02013
0
LINE
8
BLACK
6
CONTINUOUS
10
6.53548
20
-2.02013
11
6.53352
21
-2.02538
0
LINE
8
BLACK
6
CONTINUOUS
10
6.53352
20
-2.02538
11
6.53016
21
-2.02986
0
LINE
8
BLACK
6
CONTINUOUS
10
6.53016
20
-2.02986
11
6.52567
21
-2.03322
0
LINE
8
BLACK
6
CONTINUOUS
10
6.52567
20
-2.03322
11
6.52042
21
-2.03518
0
LINE
8
BLACK
6
CONTINUOUS
10
6.52042
20
-2.03518
11
6.51624
21
-2.03563
0
LINE
8
BLACK
6
CONTINUOUS
10
6.51624
20
-2.03563
11
6.44734
21
-2.03563
0
LINE
8
BLACK
6
CONTINUOUS
10
6.44734
20
-2.03563
11
6.44316
21
-2.03518
0
LINE
8
BLACK
6
CONTINUOUS
10
6.44316
20
-2.03518
11
6.43791
21
-2.03322
0
LINE
8
BLACK
6
CONTINUOUS
10
6.43791
20
-2.03322
11
6.43342
21
-2.02986
0
LINE
8
BLACK
6
CONTINUOUS
10
6.43342
20
-2.02986
11
6.43007
21
-2.02538
0
LINE
8
BLACK
6
CONTINUOUS
10
6.43007
20
-2.02538
11
6.42811
21
-2.02013
0
LINE
8
BLACK
6
CONTINUOUS
10
6.42811
20
-2.02013
11
6.42766
21
-2.01594
0
LINE
8
BLACK
6
CONTINUOUS
10
6.42766
20
-2.01594
11
6.42766
21
-2.00807
0
LINE
8
BLACK
6
CONTINUOUS
10
6.42766
20
-2.00807
11
6.40863
21
-2.00807
0
LINE
8
BLACK
6
CONTINUOUS
10
6.40863
20
-2.00807
11
6.21181
21
-2.20489
0
LINE
8
BLACK
6
CONTINUOUS
10
6.21181
20
-2.20489
11
6.21181
21
-2.49511
0
LINE
8
BLACK
6
CONTINUOUS
10
6.21181
20
-2.49511
11
6.60835
21
-2.89165
0
LINE
8
BLACK
6
CONTINUOUS
10
6.60835
20
-2.89165
11
6.6086
21
-2.89194
0
LINE
8
BLACK
6
CONTINUOUS
10
6.6086
20
-2.89194
11
6.60873
21
-2.89204
0
LINE
8
BLACK
6
CONTINUOUS
10
6.60873
20
-2.89204
11
6.60887
21
-2.89228
0
LINE
8
BLACK
6
CONTINUOUS
10
6.60887
20
-2.89228
11
6.60974
21
-2.89333
0
LINE
8
BLACK
6
CONTINUOUS
10
6.60974
20
-2.89333
11
6.6103
21
-2.89457
0
LINE
8
BLACK
6
CONTINUOUS
10
6.6103
20
-2.89457
11
6.61101
21
-2.89573
0
LINE
8
BLACK
6
CONTINUOUS
10
6.61101
20
-2.89573
11
6.61116
21
-2.89654
0
LINE
8
BLACK
6
CONTINUOUS
10
6.61116
20
-2.89654
11
6.6115
21
-2.8973
0
LINE
8
BLACK
6
CONTINUOUS
10
6.6115
20
-2.8973
11
6.61156
21
-2.89866
0
LINE
8
BLACK
6
CONTINUOUS
10
6.61156
20
-2.89866
11
6.61181
21
-2.9
0
LINE
8
BLACK
6
CONTINUOUS
10
6.61181
20
-2.9
11
6.61181
21
-3.09511
0
LINE
8
BLACK
6
CONTINUOUS
10
6.61181
20
-3.09511
11
6.85875
21
-3.34204
0
LINE
8
BLACK
6
CONTINUOUS
10
6.85875
20
-3.34204
11
6.85899
21
-3.34234
0
LINE
8
BLACK
6
CONTINUOUS
10
6.85899
20
-3.34234
11
6.85912
21
-3.34244
0
LINE
8
BLACK
6
CONTINUOUS
10
6.85912
20
-3.34244
11
6.85927
21
-3.34267
0
LINE
8
BLACK
6
CONTINUOUS
10
6.85927
20
-3.34267
11
6.86014
21
-3.34372
0
LINE
8
BLACK
6
CONTINUOUS
10
6.86014
20
-3.34372
11
6.86069
21
-3.34497
0
LINE
8
BLACK
6
CONTINUOUS
10
6.86069
20
-3.34497
11
6.86141
21
-3.34613
0
LINE
8
BLACK
6
CONTINUOUS
10
6.86141
20
-3.34613
11
6.86156
21
-3.34694
0
LINE
8
BLACK
6
CONTINUOUS
10
6.86156
20
-3.34694
11
6.86189
21
-3.34769
0
LINE
8
BLACK
6
CONTINUOUS
10
6.86189
20
-3.34769
11
6.86195
21
-3.34905
0
LINE
8
BLACK
6
CONTINUOUS
10
6.86195
20
-3.34905
11
6.8622
21
-3.35039
0
LINE
8
BLACK
6
CONTINUOUS
10
6.8622
20
-3.35039
11
6.8622
21
-3.36024
0
LINE
8
BLACK
6
CONTINUOUS
10
6.8622
20
-3.36024
11
6.88386
21
-3.36024
0
LINE
8
BLACK
6
CONTINUOUS
10
6.88386
20
-3.36024
11
6.88386
21
-3.45866
0
LINE
8
BLACK
6
CONTINUOUS
10
6.88386
20
-3.45866
11
6.81693
21
-3.45866
0
LINE
8
BLACK
6
CONTINUOUS
10
6.81693
20
-3.45866
11
6.81693
21
-3.36024
0
LINE
8
BLACK
6
CONTINUOUS
10
6.81693
20
-3.36024
11
6.83858
21
-3.36024
0
LINE
8
BLACK
6
CONTINUOUS
10
6.83858
20
-3.36024
11
6.83858
21
-3.35529
0
LINE
8
BLACK
6
CONTINUOUS
10
6.83858
20
-3.35529
11
6.59165
21
-3.10835
0
LINE
8
BLACK
6
CONTINUOUS
10
6.59165
20
-3.10835
11
6.5914
21
-3.10806
0
LINE
8
BLACK
6
CONTINUOUS
10
6.5914
20
-3.10806
11
6.59127
21
-3.10796
0
LINE
8
BLACK
6
CONTINUOUS
10
6.59127
20
-3.10796
11
6.59113
21
-3.10772
0
LINE
8
BLACK
6
CONTINUOUS
10
6.59113
20
-3.10772
11
6.59026
21
-3.10667
0
LINE
8
BLACK
6
CONTINUOUS
10
6.59026
20
-3.10667
11
6.5897
21
-3.10543
0
LINE
8
BLACK
6
CONTINUOUS
10
6.5897
20
-3.10543
11
6.58899
21
-3.10427
0
LINE
8
BLACK
6
CONTINUOUS
10
6.58899
20
-3.10427
11
6.58884
21
-3.10346
0
LINE
8
BLACK
6
CONTINUOUS
10
6.58884
20
-3.10346
11
6.5885
21
-3.1027
0
LINE
8
BLACK
6
CONTINUOUS
10
6.5885
20
-3.1027
11
6.58844
21
-3.10134
0
LINE
8
BLACK
6
CONTINUOUS
10
6.58844
20
-3.10134
11
6.58819
21
-3.1
0
LINE
8
BLACK
6
CONTINUOUS
10
6.58819
20
-3.1
11
6.58819
21
-2.90489
0
LINE
8
BLACK
6
CONTINUOUS
10
6.58819
20
-2.90489
11
6.19165
21
-2.50835
0
LINE
8
BLACK
6
CONTINUOUS
10
6.19165
20
-2.50835
11
6.1914
21
-2.50806
0
LINE
8
BLACK
6
CONTINUOUS
10
6.1914
20
-2.50806
11
6.19127
21
-2.50796
0
LINE
8
BLACK
6
CONTINUOUS
10
6.19127
20
-2.50796
11
6.19113
21
-2.50772
0
LINE
8
BLACK
6
CONTINUOUS
10
6.19113
20
-2.50772
11
6.19026
21
-2.50667
0
LINE
8
BLACK
6
CONTINUOUS
10
6.19026
20
-2.50667
11
6.1897
21
-2.50543
0
LINE
8
BLACK
6
CONTINUOUS
10
6.1897
20
-2.50543
11
6.18899
21
-2.50427
0
LINE
8
BLACK
6
CONTINUOUS
10
6.18899
20
-2.50427
11
6.18884
21
-2.50346
0
LINE
8
BLACK
6
CONTINUOUS
10
6.18884
20
-2.50346
11
6.1885
21
-2.5027
0
LINE
8
BLACK
6
CONTINUOUS
10
6.1885
20
-2.5027
11
6.18844
21
-2.50134
0
LINE
8
BLACK
6
CONTINUOUS
10
6.18844
20
-2.50134
11
6.18819
21
-2.5
0
LINE
8
BLACK
6
CONTINUOUS
10
6.18819
20
-2.5
11
6.18819
21
-2.2
0
LINE
8
BLACK
6
CONTINUOUS
10
6.18819
20
-2.2
11
6.18822
21
-2.19962
0
LINE
8
BLACK
6
CONTINUOUS
10
6.18822
20
-2.19962
11
6.1882
21
-2.19945
0
LINE
8
BLACK
6
CONTINUOUS
10
6.1882
20
-2.19945
11
6.18826
21
-2.19919
0
LINE
8
BLACK
6
CONTINUOUS
10
6.18826
20
-2.19919
11
6.18839
21
-2.19783
0
LINE
8
BLACK
6
CONTINUOUS
10
6.18839
20
-2.19783
11
6.18888
21
-2.19656
0
LINE
8
BLACK
6
CONTINUOUS
10
6.18888
20
-2.19656
11
6.1892
21
-2.19523
0
LINE
8
BLACK
6
CONTINUOUS
10
6.1892
20
-2.19523
11
6.18966
21
-2.19455
0
LINE
8
BLACK
6
CONTINUOUS
10
6.18966
20
-2.19455
11
6.18996
21
-2.19378
0
LINE
8
BLACK
6
CONTINUOUS
10
6.18996
20
-2.19378
11
6.19088
21
-2.19277
0
LINE
8
BLACK
6
CONTINUOUS
10
6.19088
20
-2.19277
11
6.19165
21
-2.19165
0
LINE
8
BLACK
6
CONTINUOUS
10
6.19165
20
-2.19165
11
6.39539
21
-1.98791
0
LINE
8
BLACK
6
CONTINUOUS
10
6.39539
20
-1.98791
11
6.39568
21
-1.98766
0
LINE
8
BLACK
6
CONTINUOUS
10
6.39568
20
-1.98766
11
6.39578
21
-1.98753
0
LINE
8
BLACK
6
CONTINUOUS
10
6.39578
20
-1.98753
11
6.39602
21
-1.98739
0
LINE
8
BLACK
6
CONTINUOUS
10
6.39602
20
-1.98739
11
6.39707
21
-1.98652
0
LINE
8
BLACK
6
CONTINUOUS
10
6.39707
20
-1.98652
11
6.39831
21
-1.98596
0
LINE
8
BLACK
6
CONTINUOUS
10
6.39831
20
-1.98596
11
6.39947
21
-1.98525
0
LINE
8
BLACK
6
CONTINUOUS
10
6.39947
20
-1.98525
11
6.40028
21
-1.9851
0
LINE
8
BLACK
6
CONTINUOUS
10
6.40028
20
-1.9851
11
6.40104
21
-1.98476
0
LINE
8
BLACK
6
CONTINUOUS
10
6.40104
20
-1.98476
11
6.4024
21
-1.9847
0
LINE
8
BLACK
6
CONTINUOUS
10
6.4024
20
-1.9847
11
6.40374
21
-1.98445
0
LINE
8
BLACK
6
CONTINUOUS
10
6.40374
20
-1.98445
11
6.42766
21
-1.98445
0
LINE
8
BLACK
6
CONTINUOUS
10
6.42766
20
-1.98445
11
6.42766
21
-1.97657
0
LINE
8
BLACK
6
CONTINUOUS
10
6.42766
20
-1.97657
11
6.42811
21
-1.97239
0
LINE
8
BLACK
6
CONTINUOUS
10
6.42811
20
-1.97239
11
6.43007
21
-1.96714
0
LINE
8
BLACK
6
CONTINUOUS
10
6.43007
20
-1.96714
11
6.43342
21
-1.96266
0
LINE
8
BLACK
6
CONTINUOUS
10
6.43342
20
-1.96266
11
6.43791
21
-1.9593
0
LINE
8
BLACK
6
CONTINUOUS
10
6.43791
20
-1.9593
11
6.44316
21
-1.95734
0
LINE
8
BLACK
6
CONTINUOUS
10
6.44316
20
-1.95734
11
6.44734
21
-1.95689
0
LINE
8
BLACK
6
CONTINUOUS
10
6.44734
20
-1.95689
11
6.51624
21
-1.95689
0
LINE
8
BLACK
6
CONTINUOUS
10
6.51624
20
-1.95689
11
6.52042
21
-1.95734
0
LINE
8
BLACK
6
CONTINUOUS
10
6.52042
20
-1.85734
11
6.52567
21
-1.8593
0
LINE
8
BLACK
6
CONTINUOUS
10
6.52567
20
-1.8593
11
6.53016
21
-1.86266
0
LINE
8
BLACK
6
CONTINUOUS
10
6.53016
20
-1.86266
11
6.53352
21
-1.86714
0
LINE
8
BLACK
6
CONTINUOUS
10
6.53352
20
-1.86714
11
6.53548
21
-1.87239
0
LINE
8
BLACK
6
CONTINUOUS
10
6.53548
20
-1.87239
11
6.53593
21
-1.87657
0
LINE
8
BLACK
6
CONTINUOUS
10
6.53593
20
-1.87657
11
6.53593
21
-1.91594
0
LINE
8
BLACK
6
CONTINUOUS
10
6.53593
20
-1.91594
11
6.53548
21
-1.92013
0
LINE
8
BLACK
6
CONTINUOUS
10
6.53548
20
-1.92013
11
6.53352
21
-1.92538
0
LINE
8
BLACK
6
CONTINUOUS
10
6.53352
20
-1.92538
11
6.53016
21
-1.92986
0
LINE
8
BLACK
6
CONTINUOUS
10
6.53016
20
-1.92986
11
6.52567
21
-1.93322
0
LINE
8
BLACK
6
CONTINUOUS
10
6.52567
20
-1.93322
11
6.52042
21
-1.93518
0
LINE
8
BLACK
6
CONTINUOUS
10
6.52042
20
-1.93518
11
6.51624
21
-1.93563
0
LINE
8
BLACK
6
CONTINUOUS
10
6.51624
20
-1.93563
11
6.44734
21
-1.93563
0
LINE
8
BLACK
6
CONTINUOUS
10
6.44734
20
-1.93563
11
6.44316
21
-1.93518
0
LINE
8
BLACK
6
CONTINUOUS
10
6.44316
20
-1.93518
11
6.43791
21
-1.93322
0
LINE
8
BLACK
6
CONTINUOUS
10
6.43791
20
-1.93322
11
6.43342
21
-1.92986
0
LINE
8
BLACK
6
CONTINUOUS
10
6.43342
20
-1.92986
11
6.43007
21
-1.92538
0
LINE
8
BLACK
6
CONTINUOUS
10
6.43007
20
-1.92538
11
6.42811
21
-1.92013
0
LINE
8
BLACK
6
CONTINUOUS
10
6.42811
20
-1.92013
11
6.42766
21
-1.91594
0
LINE
8
BLACK
6
CONTINUOUS
10
6.42766
20
-1.91594
11
6.42766
21
-1.90807
0
LINE
8
BLACK
6
CONTINUOUS
10
6.42766
20
-1.90807
11
6.30863
21
-1.90807
0
LINE
8
BLACK
6
CONTINUOUS
10
6.30863
20
-1.90807
11
6.11181
21
-2.10489
0
LINE
8
BLACK
6
CONTINUOUS
10
6.11181
20
-2.10489
11
6.11181
21
-2.49511
0
LINE
8
BLACK
6
CONTINUOUS
10
6.11181
20
-2.49511
11
6.50835
21
-2.89165
0
LINE
8
BLACK
6
CONTINUOUS
10
6.50835
20
-2.89165
11
6.5086
21
-2.89194
0
LINE
8
BLACK
6
CONTINUOUS
10
6.5086
20
-2.89194
11
6.50873
21
-2.89204
0
LINE
8
BLACK
6
CONTINUOUS
10
6.50873
20
-2.89204
11
6.50887
21
-2.89228
0
LINE
8
BLACK
6
CONTINUOUS
10
6.50887
20
-2.89228
11
6.50974
21
-2.89333
0
LINE
8
BLACK
6
CONTINUOUS
10
6.50974
20
-2.89333
11
6.5103
21
-2.89457
0
LINE
8
BLACK
6
CONTINUOUS
10
6.5103
20
-2.89457
11
6.51101
21
-2.89573
0
LINE
8
BLACK
6
CONTINUOUS
10
6.51101
20
-2.89573
11
6.51116
21
-2.89654
0
LINE
8
BLACK
6
CONTINUOUS
10
6.51116
20
-2.89654
11
6.5115
21
-2.8973
0
LINE
8
BLACK
6
CONTINUOUS
10
6.5115
20
-2.8973
11
6.51156
21
-2.89866
0
LINE
8
BLACK
6
CONTINUOUS
10
6.51156
20
-2.89866
11
6.51181
21
-2.9
0
LINE
8
BLACK
6
CONTINUOUS
10
6.51181
20
-2.9
11
6.51181
21
-3.09511
0
LINE
8
BLACK
6
CONTINUOUS
10
6.51181
20
-3.09511
11
6.75875
21
-3.34204
0
LINE
8
BLACK
6
CONTINUOUS
10
6.75875
20
-3.34204
11
6.75899
21
-3.34234
0
LINE
8
BLACK
6
CONTINUOUS
10
6.75899
20
-3.34234
11
6.75912
21
-3.34244
0
LINE
8
BLACK
6
CONTINUOUS
10
6.75912
20
-3.34244
11
6.75927
21
-3.34267
0
LINE
8
BLACK
6
CONTINUOUS
10
6.75927
20
-3.34267
11
6.76014
21
-3.34372
0
LINE
8
BLACK
6
CONTINUOUS
10
6.76014
20
-3.34372
11
6.76069
21
-3.34497
0
LINE
8
BLACK
6
CONTINUOUS
10
6.76069
20
-3.34497
11
6.76141
21
-3.34613
0
LINE
8
BLACK
6
CONTINUOUS
10
6.76141
20
-3.34613
11
6.76156
21
-3.34694
0
LINE
8
BLACK
6
CONTINUOUS
10
6.76156
20
-3.34694
11
6.76189
21
-3.34769
0
LINE
8
BLACK
6
CONTINUOUS
10
6.76189
20
-3.34769
11
6.76195
21
-3.34905
0
LINE
8
BLACK
6
CONTINUOUS
10
6.76195
20
-3.34905
11
6.7622
21
-3.35039
0
LINE
8
BLACK
6
CONTINUOUS
10
6.7622
20
-3.35039
11
6.7622
21
-3.36024
0
LINE
8
BLACK
6
CONTINUOUS
10
6.7622
20
-3.36024
11
6.78386
21
-3.36024
0
LINE
8
BLACK
6
CONTINUOUS
10
6.78386
20
-3.36024
11
6.78386
21
-3.45866
0
LINE
8
BLACK
6
CONTINUOUS
10
6.78386
20
-3.45866
11
6.71693
21
-3.45866
0
LINE
8
BLACK
6
CONTINUOUS
10
6.71693
20
-3.45866
11
6.71693
21
-3.36024
0
LINE
8
BLACK
6
CONTINUOUS
10
6.71693
20
-3.36024
11
6.73858
21
-3.36024
0
LINE
8
BLACK
6
CONTINUOUS
10
6.73858
20
-3.36024
11
6.73858
21
-3.35529
0
LINE
8
BLACK
6
CONTINUOUS
10
6.73858
20
-3.35529
11
6.49165
21
-3.10835
0
LINE
8
BLACK
6
CONTINUOUS
10
6.49165
20
-3.10835
11
6.4914
21
-3.10806
0
LINE
8
BLACK
6
CONTINUOUS
10
6.4914
20
-3.10806
11
6.49127
21
-3.10796
0
LINE
8
BLACK
6
CONTINUOUS
10
6.49127
20
-3.10796
11
6.49113
21
-3.10772
0
LINE
8
BLACK
6
CONTINUOUS
10
6.49113
20
-3.10772
11
6.49026
21
-3.10667
0
LINE
8
BLACK
6
CONTINUOUS
10
6.49026
20
-3.10667
11
6.4897
21
-3.10543
0
LINE
8
BLACK
6
CONTINUOUS
10
6.4897
20
-3.10543
11
6.48899
21
-3.10427
0
LINE
8
BLACK
6
CONTINUOUS
10
6.48899
20
-3.10427
11
6.48884
21
-3.10346
0
LINE
8
BLACK
6
CONTINUOUS
10
6.48884
20
-3.10346
11
6.4885
21
-3.1027
0
LINE
8
BLACK
6
CONTINUOUS
10
6.4885
20
-3.1027
11
6.48844
21
-3.10134
0
LINE
8
BLACK
6
CONTINUOUS
10
6.48844
20
-3.10134
11
6.48819
21
-3.1
0
LINE
8
BLACK
6
CONTINUOUS
10
6.48819
20
-3.1
11
6.48819
21
-2.90489
0
LINE
8
BLACK
6
CONTINUOUS
10
6.48819
20
-2.90489
11
6.09165
21
-2.50835
0
LINE
8
BLACK
6
CONTINUOUS
10
6.09165
20
-2.50835
11
6.0914
21
-2.50806
0
LINE
8
BLACK
6
CONTINUOUS
10
6.0914
20
-2.50806
11
6.09127
21
-2.50796
0
LINE
8
BLACK
6
CONTINUOUS
10
6.09127
20
-2.50796
11
6.09113
21
-2.50772
0
LINE
8
BLACK
6
CONTINUOUS
10
6.09113
20
-2.50772
11
6.09026
21
-2.50667
0
LINE
8
BLACK
6
CONTINUOUS
10
6.09026
20
-2.50667
11
6.0897
21
-2.50543
0
LINE
8
BLACK
6
CONTINUOUS
10
6.0897
20
-2.50543
11
6.08899
21
-2.50427
0
LINE
8
BLACK
6
CONTINUOUS
10
6.08899
20
-2.50427
11
6.08884
21
-2.50346
0
LINE
8
BLACK
6
CONTINUOUS
10
6.08884
20
-2.50346
11
6.0885
21
-2.5027
0
LINE
8
BLACK
6
CONTINUOUS
10
6.0885
20
-2.5027
11
6.08844
21
-2.50134
0
LINE
8
BLACK
6
CONTINUOUS
10
6.08844
20
-2.50134
11
6.08819
21
-2.5
0
LINE
8
BLACK
6
CONTINUOUS
10
6.08819
20
-2.5
11
6.08819
21
-2.1
0
LINE
8
BLACK
6
CONTINUOUS
10
6.08819
20
-2.1
11
6.08822
21
-2.09962
0
LINE
8
BLACK
6
CONTINUOUS
10
6.08822
20
-2.09962
11
6.0882
21
-2.09945
0
LINE
8
BLACK
6
CONTINUOUS
10
6.0882
20
-2.09945
11
6.08826
21
-2.09919
0
LINE
8
BLACK
6
CONTINUOUS
10
6.08826
20
-2.09919
11
6.08839
21
-2.09783
0
LINE
8
BLACK
6
CONTINUOUS
10
6.08839
20
-2.09783
11
6.08888
21
-2.09656
0
LINE
8
BLACK
6
CONTINUOUS
10
6.08888
20
-2.09656
11
6.0892
21
-2.09523
0
LINE
8
BLACK
6
CONTINUOUS
10
6.0892
20
-2.09523
11
6.08966
21
-2.09455
0
LINE
8
BLACK
6
CONTINUOUS
10
6.08966
20
-2.09455
11
6.08996
21
-2.09378
0
LINE
8
BLACK
6
CONTINUOUS
10
6.08996
20
-2.09378
11
6.09088
21
-2.09277
0
LINE
8
BLACK
6
CONTINUOUS
10
6.09088
20
-2.09277
11
6.09165
21
-2.09165
0
LINE
8
BLACK
6
CONTINUOUS
10
6.09165
20
-2.09165
11
6.29539
21
-1.88791
0
LINE
8
BLACK
6
CONTINUOUS
10
6.29539
20
-1.88791
11
6.29568
21
-1.88766
0
LINE
8
BLACK
6
CONTINUOUS
10
6.29568
20
-1.88766
11
6.29578
21
-1.88753
0
LINE
8
BLACK
6
CONTINUOUS
10
6.29578
20
-1.88753
11
6.29602
21
-1.88739
0
LINE
8
BLACK
6
CONTINUOUS
10
6.29602
20
-1.88739
11
6.29707
21
-1.88652
0
LINE
8
BLACK
6
CONTINUOUS
10
6.29707
20
-1.88652
11
6.29831
21
-1.88596
0
LINE
8
BLACK
6
CONTINUOUS
10
6.29831
20
-1.88596
11
6.29947
21
-1.88525
0
LINE
8
BLACK
6
CONTINUOUS
10
6.29947
20
-1.88525
11
6.30028
21
-1.8851
0
LINE
8
BLACK
6
CONTINUOUS
10
6.30028
20
-1.8851
11
6.30104
21
-1.88476
0
LINE
8
BLACK
6
CONTINUOUS
10
6.30104
20
-1.88476
11
6.3024
21
-1.8847
0
LINE
8
BLACK
6
CONTINUOUS
10
6.3024
20
-1.8847
11
6.30374
21
-1.88445
0
LINE
8
BLACK
6
CONTINUOUS
10
6.30374
20
-1.88445
11
6.42766
21
-1.88445
0
LINE
8
BLACK
6
CONTINUOUS
10
6.42766
20
-1.88445
11
6.42766
21
-1.87657
0
LINE
8
BLACK
6
CONTINUOUS
10
6.42766
20
-1.87657
11
6.42811
21
-1.87239
0
LINE
8
BLACK
6
CONTINUOUS
10
6.42811
20
-1.87239
11
6.43007
21
-1.86714
0
LINE
8
BLACK
6
CONTINUOUS
10
6.43007
20
-1.86714
11
6.43342
21
-1.86266
0
LINE
8
BLACK
6
CONTINUOUS
10
6.43342
20
-1.86266
11
6.43791
21
-1.8593
0
LINE
8
BLACK
6
CONTINUOUS
10
6.43791
20
-1.8593
11
6.44316
21
-1.85734
0
LINE
8
BLACK
6
CONTINUOUS
10
6.44316
20
-1.85734
11
6.44734
21
-1.85689
0
LINE
8
BLACK
6
CONTINUOUS
10
6.44734
20
-1.85689
11
6.51624
21
-1.85689
0
LINE
8
BLACK
6
CONTINUOUS
10
6.51624
20
-1.85689
11
6.52042
21
-1.85734
0
LINE
8
BLACK
6
CONTINUOUS
10
6.52042
20
-2.15734
11
6.52567
21
-2.1593
0
LINE
8
BLACK
6
CONTINUOUS
10
6.52567
20
-2.1593
11
6.53016
21
-2.16266
0
LINE
8
BLACK
6
CONTINUOUS
10
6.53016
20
-2.16266
11
6.53352
21
-2.16714
0
LINE
8
BLACK
6
CONTINUOUS
10
6.53352
20
-2.16714
11
6.53548
21
-2.17239
0
LINE
8
BLACK
6
CONTINUOUS
10
6.53548
20
-2.17239
11
6.53593
21
-2.17657
0
LINE
8
BLACK
6
CONTINUOUS
10
6.53593
20
-2.17657
11
6.53593
21
-2.21594
0
LINE
8
BLACK
6
CONTINUOUS
10
6.53593
20
-2.21594
11
6.53548
21
-2.22013
0
LINE
8
BLACK
6
CONTINUOUS
10
6.53548
20
-2.22013
11
6.53352
21
-2.22538
0
LINE
8
BLACK
6
CONTINUOUS
10
6.53352
20
-2.22538
11
6.53016
21
-2.22986
0
LINE
8
BLACK
6
CONTINUOUS
10
6.53016
20
-2.22986
11
6.52567
21
-2.23322
0
LINE
8
BLACK
6
CONTINUOUS
10
6.52567
20
-2.23322
11
6.52042
21
-2.23518
0
LINE
8
BLACK
6
CONTINUOUS
10
6.52042
20
-2.23518
11
6.51624
21
-2.23563
0
LINE
8
BLACK
6
CONTINUOUS
10
6.51624
20
-2.23563
11
6.51181
21
-2.23563
0
LINE
8
BLACK
6
CONTINUOUS
10
6.51181
20
-2.23563
11
6.51181
21
-2.49511
0
LINE
8
BLACK
6
CONTINUOUS
10
6.51181
20
-2.49511
11
6.82961
21
-2.81291
0
LINE
8
BLACK
6
CONTINUOUS
10
6.82961
20
-2.81291
11
6.82986
21
-2.8132
0
LINE
8
BLACK
6
CONTINUOUS
10
6.82986
20
-2.8132
11
6.82999
21
-2.8133
0
LINE
8
BLACK
6
CONTINUOUS
10
6.82999
20
-2.8133
11
6.83013
21
-2.81354
0
LINE
8
BLACK
6
CONTINUOUS
10
6.83013
20
-2.81354
11
6.831
21
-2.81459
0
LINE
8
BLACK
6
CONTINUOUS
10
6.831
20
-2.81459
11
6.83156
21
-2.81583
0
LINE
8
BLACK
6
CONTINUOUS
10
6.83156
20
-2.81583
11
6.83227
21
-2.81699
0
LINE
8
BLACK
6
CONTINUOUS
10
6.83227
20
-2.81699
11
6.83242
21
-2.8178
0
LINE
8
BLACK
6
CONTINUOUS
10
6.83242
20
-2.8178
11
6.83276
21
-2.81856
0
LINE
8
BLACK
6
CONTINUOUS
10
6.83276
20
-2.81856
11
6.83282
21
-2.81992
0
LINE
8
BLACK
6
CONTINUOUS
10
6.83282
20
-2.81992
11
6.83307
21
-2.82126
0
LINE
8
BLACK
6
CONTINUOUS
10
6.83307
20
-2.82126
11
6.83307
21
-2.96654
0
LINE
8
BLACK
6
CONTINUOUS
10
6.83307
20
-2.96654
11
6.86063
21
-2.96654
0
LINE
8
BLACK
6
CONTINUOUS
10
6.86063
20
-2.96654
11
6.86063
21
-3.03346
0
LINE
8
BLACK
6
CONTINUOUS
10
6.86063
20
-3.03346
11
6.78189
21
-3.03346
0
LINE
8
BLACK
6
CONTINUOUS
10
6.78189
20
-3.03346
11
6.78189
21
-2.96654
0
LINE
8
BLACK
6
CONTINUOUS
10
6.78189
20
-2.96654
11
6.80945
21
-2.96654
0
LINE
8
BLACK
6
CONTINUOUS
10
6.80945
20
-2.96654
11
6.80945
21
-2.82615
0
LINE
8
BLACK
6
CONTINUOUS
10
6.80945
20
-2.82615
11
6.49165
21
-2.50835
0
LINE
8
BLACK
6
CONTINUOUS
10
6.49165
20
-2.50835
11
6.4914
21
-2.50806
0
LINE
8
BLACK
6
CONTINUOUS
10
6.4914
20
-2.50806
11
6.49127
21
-2.50796
0
LINE
8
BLACK
6
CONTINUOUS
10
6.49127
20
-2.50796
11
6.49113
21
-2.50772
0
LINE
8
BLACK
6
CONTINUOUS
10
6.49113
20
-2.50772
11
6.49026
21
-2.50667
0
LINE
8
BLACK
6
CONTINUOUS
10
6.49026
20
-2.50667
11
6.4897
21
-2.50543
0
LINE
8
BLACK
6
CONTINUOUS
10
6.4897
20
-2.50543
11
6.48899
21
-2.50427
0
LINE
8
BLACK
6
CONTINUOUS
10
6.48899
20
-2.50427
11
6.48884
21
-2.50346
0
LINE
8
BLACK
6
CONTINUOUS
10
6.48884
20
-2.50346
11
6.4885
21
-2.5027
0
LINE
8
BLACK
6
CONTINUOUS
10
6.4885
20
-2.5027
11
6.48844
21
-2.50134
0
LINE
8
BLACK
6
CONTINUOUS
10
6.48844
20
-2.50134
11
6.48819
21
-2.5
0
LINE
8
BLACK
6
CONTINUOUS
10
6.48819
20
-2.5
11
6.48819
21
-2.23563
0
LINE
8
BLACK
6
CONTINUOUS
10
6.48819
20
-2.23563
11
6.44734
21
-2.23563
0
LINE
8
BLACK
6
CONTINUOUS
10
6.44734
20
-2.23563
11
6.44316
21
-2.23518
0
LINE
8
BLACK
6
CONTINUOUS
10
6.44316
20
-2.23518
11
6.43791
21
-2.23322
0
LINE
8
BLACK
6
CONTINUOUS
10
6.43791
20
-2.23322
11
6.43342
21
-2.22986
0
LINE
8
BLACK
6
CONTINUOUS
10
6.43342
20
-2.22986
11
6.43007
21
-2.22538
0
LINE
8
BLACK
6
CONTINUOUS
10
6.43007
20
-2.22538
11
6.42811
21
-2.22013
0
LINE
8
BLACK
6
CONTINUOUS
10
6.42811
20
-2.22013
11
6.42766
21
-2.21594
0
LINE
8
BLACK
6
CONTINUOUS
10
6.42766
20
-2.21594
11
6.42766
21
-2.17657
0
LINE
8
BLACK
6
CONTINUOUS
10
6.42766
20
-2.17657
11
6.42811
21
-2.17239
0
LINE
8
BLACK
6
CONTINUOUS
10
6.42811
20
-2.17239
11
6.43007
21
-2.16714
0
LINE
8
BLACK
6
CONTINUOUS
10
6.43007
20
-2.16714
11
6.43342
21
-2.16266
0
LINE
8
BLACK
6
CONTINUOUS
10
6.43342
20
-2.16266
11
6.43791
21
-2.1593
0
LINE
8
BLACK
6
CONTINUOUS
10
6.43791
20
-2.1593
11
6.44316
21
-2.15734
0
LINE
8
BLACK
6
CONTINUOUS
10
6.44316
20
-2.15734
11
6.44734
21
-2.15689
0
LINE
8
BLACK
6
CONTINUOUS
10
6.44734
20
-2.15689
11
6.51624
21
-2.15689
0
LINE
8
BLACK
6
CONTINUOUS
10
6.51624
20
-2.15689
11
6.52042
21
-2.15734
0
LINE
8
BLACK
6
CONTINUOUS
10
8.05866
20
-2.38307
11
8.02126
21
-2.38307
0
LINE
8
BLACK
6
CONTINUOUS
10
8.02126
20
-2.38307
11
8.02126
21
-2.40456
0
LINE
8
BLACK
6
CONTINUOUS
10
8.02126
20
-2.40456
11
8.10835
21
-2.49165
0
LINE
8
BLACK
6
CONTINUOUS
10
8.10835
20
-2.49165
11
8.1086
21
-2.49194
0
LINE
8
BLACK
6
CONTINUOUS
10
8.1086
20
-2.49194
11
8.10873
21
-2.49204
0
LINE
8
BLACK
6
CONTINUOUS
10
8.10873
20
-2.49204
11
8.10887
21
-2.49228
0
LINE
8
BLACK
6
CONTINUOUS
10
8.10887
20
-2.49228
11
8.10974
21
-2.49333
0
LINE
8
BLACK
6
CONTINUOUS
10
8.10974
20
-2.49333
11
8.1103
21
-2.49457
0
LINE
8
BLACK
6
CONTINUOUS
10
8.1103
20
-2.49457
11
8.11101
21
-2.49573
0
LINE
8
BLACK
6
CONTINUOUS
10
8.11101
20
-2.49573
11
8.11116
21
-2.49654
0
LINE
8
BLACK
6
CONTINUOUS
10
8.11116
20
-2.49654
11
8.1115
21
-2.4973
0
LINE
8
BLACK
6
CONTINUOUS
10
8.1115
20
-2.4973
11
8.11156
21
-2.49866
0
LINE
8
BLACK
6
CONTINUOUS
10
8.11156
20
-2.49866
11
8.11181
21
-2.5
0
LINE
8
BLACK
6
CONTINUOUS
10
8.11181
20
-2.5
11
8.11181
21
-2.8
0
LINE
8
BLACK
6
CONTINUOUS
10
8.11181
20
-2.8
11
8.11178
21
-2.80038
0
LINE
8
BLACK
6
CONTINUOUS
10
8.11178
20
-2.80038
11
8.1118
21
-2.80055
0
LINE
8
BLACK
6
CONTINUOUS
10
8.1118
20
-2.80055
11
8.11174
21
-2.80081
0
LINE
8
BLACK
6
CONTINUOUS
10
8.11174
20
-2.80081
11
8.11161
21
-2.80217
0
LINE
8
BLACK
6
CONTINUOUS
10
8.11161
20
-2.80217
11
8.11112
21
-2.80344
0
LINE
8
BLACK
6
CONTINUOUS
10
8.11112
20
-2.80344
11
8.1108
21
-2.80477
0
LINE
8
BLACK
6
CONTINUOUS
10
8.1108
20
-2.80477
11
8.11034
21
-2.80545
0
LINE
8
BLACK
6
CONTINUOUS
10
8.11034
20
-2.80545
11
8.11004
21
-2.80622
0
LINE
8
BLACK
6
CONTINUOUS
10
8.11004
20
-2.80622
11
8.10912
21
-2.80723
0
LINE
8
BLACK
6
CONTINUOUS
10
8.10912
20
-2.80723
11
8.10835
21
-2.80835
0
LINE
8
BLACK
6
CONTINUOUS
10
8.10835
20
-2.80835
11
8.00835
21
-2.90835
0
LINE
8
BLACK
6
CONTINUOUS
10
8.00835
20
-2.90835
11
8.00806
21
-2.9086
0
LINE
8
BLACK
6
CONTINUOUS
10
8.00806
20
-2.9086
11
8.00796
21
-2.90873
0
LINE
8
BLACK
6
CONTINUOUS
10
8.00796
20
-2.90873
11
8.00772
21
-2.90887
0
LINE
8
BLACK
6
CONTINUOUS
10
8.00772
20
-2.90887
11
8.00667
21
-2.90974
0
LINE
8
BLACK
6
CONTINUOUS
10
8.00667
20
-2.90974
11
8.00543
21
-2.9103
0
LINE
8
BLACK
6
CONTINUOUS
10
8.00543
20
-2.9103
11
8.00427
21
-2.91101
0
LINE
8
BLACK
6
CONTINUOUS
10
8.00427
20
-2.91101
11
8.00346
21
-2.91116
0
LINE
8
BLACK
6
CONTINUOUS
10
8.00346
20
-2.91116
11
8.0027
21
-2.9115
0
LINE
8
BLACK
6
CONTINUOUS
10
8.0027
20
-2.9115
11
8.00134
21
-2.91156
0
LINE
8
BLACK
6
CONTINUOUS
10
8.00134
20
-2.91156
11
8
21
-2.91181
0
LINE
8
BLACK
6
CONTINUOUS
10
8
20
-2.91181
11
7.94921
21
-2.91181
0
LINE
8
BLACK
6
CONTINUOUS
10
7.94921
20
-2.91181
11
7.94921
21
-2.92953
0
LINE
8
BLACK
6
CONTINUOUS
10
7.94921
20
-2.92953
11
7.85079
21
-2.92953
0
LINE
8
BLACK
6
CONTINUOUS
10
7.85079
20
-2.92953
11
7.85079
21
-2.87047
0
LINE
8
BLACK
6
CONTINUOUS
10
7.85079
20
-2.87047
11
7.94921
21
-2.87047
0
LINE
8
BLACK
6
CONTINUOUS
10
7.94921
20
-2.87047
11
7.94921
21
-2.88819
0
LINE
8
BLACK
6
CONTINUOUS
10
7.94921
20
-2.88819
11
7.99511
21
-2.88819
0
LINE
8
BLACK
6
CONTINUOUS
10
7.99511
20
-2.88819
11
8.08819
21
-2.79511
0
LINE
8
BLACK
6
CONTINUOUS
10
8.08819
20
-2.79511
11
8.08819
21
-2.50489
0
LINE
8
BLACK
6
CONTINUOUS
10
8.08819
20
-2.50489
11
8.0011
21
-2.4178
0
LINE
8
BLACK
6
CONTINUOUS
10
8.0011
20
-2.4178
11
8.00085
21
-2.41751
0
LINE
8
BLACK
6
CONTINUOUS
10
8.00085
20
-2.41751
11
8.00072
21
-2.41741
0
LINE
8
BLACK
6
CONTINUOUS
10
8.00072
20
-2.41741
11
8.00058
21
-2.41717
0
LINE
8
BLACK
6
CONTINUOUS
10
8.00058
20
-2.41717
11
7.9997
21
-2.41612
0
LINE
8
BLACK
6
CONTINUOUS
10
7.9997
20
-2.41612
11
7.99915
21
-2.41488
0
LINE
8
BLACK
6
CONTINUOUS
10
7.99915
20
-2.41488
11
7.99844
21
-2.41372
0
LINE
8
BLACK
6
CONTINUOUS
10
7.99844
20
-2.41372
11
7.99828
21
-2.41291
0
LINE
8
BLACK
6
CONTINUOUS
10
7.99828
20
-2.41291
11
7.99795
21
-2.41215
0
LINE
8
BLACK
6
CONTINUOUS
10
7.99795
20
-2.41215
11
7.99789
21
-2.41079
0
LINE
8
BLACK
6
CONTINUOUS
10
7.99789
20
-2.41079
11
7.99764
21
-2.40945
0
LINE
8
BLACK
6
CONTINUOUS
10
7.99764
20
-2.40945
11
7.99764
21
-2.38307
0
LINE
8
BLACK
6
CONTINUOUS
10
7.99764
20
-2.38307
11
7.96024
21
-2.38307
0
LINE
8
BLACK
6
CONTINUOUS
10
7.96024
20
-2.38307
11
7.96024
21
-2.31614
0
LINE
8
BLACK
6
CONTINUOUS
10
7.96024
20
-2.31614
11
8.05866
21
-2.31614
0
LINE
8
BLACK
6
CONTINUOUS
10
8.05866
20
-2.31614
11
8.05866
21
-2.38307
0
LINE
8
BLACK
6
CONTINUOUS
10
7.67362
20
-2.92953
11
7.5752
21
-2.92953
0
LINE
8
BLACK
6
CONTINUOUS
10
7.5752
20
-2.92953
11
7.5752
21
-2.87047
0
LINE
8
BLACK
6
CONTINUOUS
10
7.5752
20
-2.87047
11
7.67362
21
-2.87047
0
LINE
8
BLACK
6
CONTINUOUS
10
7.67362
20
-2.87047
11
7.67362
21
-2.92953
0
LINE
8
BLACK
6
CONTINUOUS
10
7.94921
20
-2.77205
11
7.85079
21
-2.77205
0
LINE
8
BLACK
6
CONTINUOUS
10
7.85079
20
-2.77205
11
7.85079
21
-2.71299
0
LINE
8
BLACK
6
CONTINUOUS
10
7.85079
20
-2.71299
11
7.94921
21
-2.71299
0
LINE
8
BLACK
6
CONTINUOUS
10
7.94921
20
-2.71299
11
7.94921
21
-2.77205
0
LINE
8
BLACK
6
CONTINUOUS
10
7.21811
20
-2.48819
11
7.38189
21
-2.48819
0
LINE
8
BLACK
6
CONTINUOUS
10
7.38189
20
-2.48819
11
7.38227
21
-2.48822
0
LINE
8
BLACK
6
CONTINUOUS
10
7.38227
20
-2.48822
11
7.38244
21
-2.4882
0
LINE
8
BLACK
6
CONTINUOUS
10
7.38244
20
-2.4882
11
7.3827
21
-2.48826
0
LINE
8
BLACK
6
CONTINUOUS
10
7.3827
20
-2.48826
11
7.38406
21
-2.48839
0
LINE
8
BLACK
6
CONTINUOUS
10
7.38406
20
-2.48839
11
7.38533
21
-2.48888
0
LINE
8
BLACK
6
CONTINUOUS
10
7.38533
20
-2.48888
11
7.38666
21
-2.4892
0
LINE
8
BLACK
6
CONTINUOUS
10
7.38666
20
-2.4892
11
7.38734
21
-2.48966
0
LINE
8
BLACK
6
CONTINUOUS
10
7.38734
20
-2.48966
11
7.38811
21
-2.48996
0
LINE
8
BLACK
6
CONTINUOUS
10
7.38811
20
-2.48996
11
7.38912
21
-2.49088
0
LINE
8
BLACK
6
CONTINUOUS
10
7.38912
20
-2.49088
11
7.39024
21
-2.49165
0
LINE
8
BLACK
6
CONTINUOUS
10
7.39024
20
-2.49165
11
7.61159
21
-2.71299
0
LINE
8
BLACK
6
CONTINUOUS
10
7.61159
20
-2.71299
11
7.67362
21
-2.71299
0
LINE
8
BLACK
6
CONTINUOUS
10
7.67362
20
-2.71299
11
7.67362
21
-2.77205
0
LINE
8
BLACK
6
CONTINUOUS
10
7.67362
20
-2.77205
11
7.5752
21
-2.77205
0
LINE
8
BLACK
6
CONTINUOUS
10
7.5752
20
-2.77205
11
7.5752
21
-2.71299
0
LINE
8
BLACK
6
CONTINUOUS
10
7.5752
20
-2.71299
11
7.57818
21
-2.71299
0
LINE
8
BLACK
6
CONTINUOUS
10
7.57818
20
-2.71299
11
7.377
21
-2.51181
0
LINE
8
BLACK
6
CONTINUOUS
10
7.377
20
-2.51181
11
7.21811
21
-2.51181
0
LINE
8
BLACK
6
CONTINUOUS
10
7.21811
20
-2.51181
11
7.21811
21
-2.53346
0
LINE
8
BLACK
6
CONTINUOUS
10
7.21811
20
-2.53346
11
7.13937
21
-2.53346
0
LINE
8
BLACK
6
CONTINUOUS
10
7.13937
20
-2.53346
11
7.13937
21
-2.46654
0
LINE
8
BLACK
6
CONTINUOUS
10
7.13937
20
-2.46654
11
7.21811
21
-2.46654
0
LINE
8
BLACK
6
CONTINUOUS
10
7.21811
20
-2.46654
11
7.21811
21
-2.48819
0
LINE
8
BLACK
6
CONTINUOUS
10
7.15684
20
-2.05734
11
7.16209
21
-2.0593
0
LINE
8
BLACK
6
CONTINUOUS
10
7.16209
20
-2.0593
11
7.16658
21
-2.06266
0
LINE
8
BLACK
6
CONTINUOUS
10
7.16658
20
-2.06266
11
7.16993
21
-2.06714
0
LINE
8
BLACK
6
CONTINUOUS
10
7.16993
20
-2.06714
11
7.17189
21
-2.07239
0
LINE
8
BLACK
6
CONTINUOUS
10
7.17189
20
-2.07239
11
7.17234
21
-2.07657
0
LINE
8
BLACK
6
CONTINUOUS
10
7.17234
20
-2.07657
11
7.17234
21
-2.11594
0
LINE
8
BLACK
6
CONTINUOUS
10
7.17234
20
-2.11594
11
7.17189
21
-2.12013
0
LINE
8
BLACK
6
CONTINUOUS
10
7.17189
20
-2.12013
11
7.16993
21
-2.12538
0
LINE
8
BLACK
6
CONTINUOUS
10
7.16993
20
-2.12538
11
7.16658
21
-2.12986
0
LINE
8
BLACK
6
CONTINUOUS
10
7.16658
20
-2.12986
11
7.16209
21
-2.13322
0
LINE
8
BLACK
6
CONTINUOUS
10
7.16209
20
-2.13322
11
7.15684
21
-2.13518
0
LINE
8
BLACK
6
CONTINUOUS
10
7.15684
20
-2.13518
11
7.15266
21
-2.13563
0
LINE
8
BLACK
6
CONTINUOUS
10
7.15266
20
-2.13563
11
7.08376
21
-2.13563
0
LINE
8
BLACK
6
CONTINUOUS
10
7.08376
20
-2.13563
11
7.07958
21
-2.13518
0
LINE
8
BLACK
6
CONTINUOUS
10
7.07958
20
-2.13518
11
7.07433
21
-2.13322
0
LINE
8
BLACK
6
CONTINUOUS
10
7.07433
20
-2.13322
11
7.06984
21
-2.12986
0
LINE
8
BLACK
6
CONTINUOUS
10
7.06984
20
-2.12986
11
7.06648
21
-2.12538
0
LINE
8
BLACK
6
CONTINUOUS
10
7.06648
20
-2.12538
11
7.06452
21
-2.12013
0
LINE
8
BLACK
6
CONTINUOUS
10
7.06452
20
-2.12013
11
7.06407
21
-2.11594
0
LINE
8
BLACK
6
CONTINUOUS
10
7.06407
20
-2.11594
11
7.06407
21
-2.11181
0
LINE
8
BLACK
6
CONTINUOUS
10
7.06407
20
-2.11181
11
7.01181
21
-2.11181
0
LINE
8
BLACK
6
CONTINUOUS
10
7.01181
20
-2.11181
11
7.01181
21
-2.29511
0
LINE
8
BLACK
6
CONTINUOUS
10
7.01181
20
-2.29511
11
7.02961
21
-2.31291
0
LINE
8
BLACK
6
CONTINUOUS
10
7.02961
20
-2.31291
11
7.02986
21
-2.3132
0
LINE
8
BLACK
6
CONTINUOUS
10
7.02986
20
-2.3132
11
7.02999
21
-2.3133
0
LINE
8
BLACK
6
CONTINUOUS
10
7.02999
20
-2.3133
11
7.03013
21
-2.31354
0
LINE
8
BLACK
6
CONTINUOUS
10
7.03013
20
-2.31354
11
7.031
21
-2.31459
0
LINE
8
BLACK
6
CONTINUOUS
10
7.031
20
-2.31459
11
7.03155
21
-2.31583
0
LINE
8
BLACK
6
CONTINUOUS
10
7.03155
20
-2.31583
11
7.03227
21
-2.31699
0
LINE
8
BLACK
6
CONTINUOUS
10
7.03227
20
-2.31699
11
7.03242
21
-2.3178
0
LINE
8
BLACK
6
CONTINUOUS
10
7.03242
20
-2.3178
11
7.03276
21
-2.31856
0
LINE
8
BLACK
6
CONTINUOUS
10
7.03276
20
-2.31856
11
7.03282
21
-2.31992
0
LINE
8
BLACK
6
CONTINUOUS
10
7.03282
20
-2.31992
11
7.03307
21
-2.32126
0
LINE
8
BLACK
6
CONTINUOUS
10
7.03307
20
-2.32126
11
7.03307
21
-2.46654
0
LINE
8
BLACK
6
CONTINUOUS
10
7.03307
20
-2.46654
11
7.06063
21
-2.46654
0
LINE
8
BLACK
6
CONTINUOUS
10
7.06063
20
-2.46654
11
7.06063
21
-2.53346
0
LINE
8
BLACK
6
CONTINUOUS
10
7.06063
20
-2.53346
11
6.98189
21
-2.53346
0
LINE
8
BLACK
6
CONTINUOUS
10
6.98189
20
-2.53346
11
6.98189
21
-2.46654
0
LINE
8
BLACK
6
CONTINUOUS
10
6.98189
20
-2.46654
11
7.00945
21
-2.46654
0
LINE
8
BLACK
6
CONTINUOUS
10
7.00945
20
-2.46654
11
7.00945
21
-2.32615
0
LINE
8
BLACK
6
CONTINUOUS
10
7.00945
20
-2.32615
11
6.99165
21
-2.30835
0
LINE
8
BLACK
6
CONTINUOUS
10
6.99165
20
-2.30835
11
6.9914
21
-2.30806
0
LINE
8
BLACK
6
CONTINUOUS
10
6.9914
20
-2.30806
11
6.99127
21
-2.30796
0
LINE
8
BLACK
6
CONTINUOUS
10
6.99127
20
-2.30796
11
6.99113
21
-2.30772
0
LINE
8
BLACK
6
CONTINUOUS
10
6.99113
20
-2.30772
11
6.99026
21
-2.30667
0
LINE
8
BLACK
6
CONTINUOUS
10
6.99026
20
-2.30667
11
6.9897
21
-2.30543
0
LINE
8
BLACK
6
CONTINUOUS
10
6.9897
20
-2.30543
11
6.98899
21
-2.30427
0
LINE
8
BLACK
6
CONTINUOUS
10
6.98899
20
-2.30427
11
6.98884
21
-2.30346
0
LINE
8
BLACK
6
CONTINUOUS
10
6.98884
20
-2.30346
11
6.9885
21
-2.3027
0
LINE
8
BLACK
6
CONTINUOUS
10
6.9885
20
-2.3027
11
6.98844
21
-2.30134
0
LINE
8
BLACK
6
CONTINUOUS
10
6.98844
20
-2.30134
11
6.98819
21
-2.3
0
LINE
8
BLACK
6
CONTINUOUS
10
6.98819
20
-2.3
11
6.98819
21
-2.1
0
LINE
8
BLACK
6
CONTINUOUS
10
6.98819
20
-2.1
11
6.98826
21
-2.09918
0
LINE
8
BLACK
6
CONTINUOUS
10
6.98826
20
-2.09918
11
6.98824
21
-2.09891
0
LINE
8
BLACK
6
CONTINUOUS
10
6.98824
20
-2.09891
11
6.98831
21
-2.09865
0
LINE
8
BLACK
6
CONTINUOUS
10
6.98831
20
-2.09865
11
6.98839
21
-2.09783
0
LINE
8
BLACK
6
CONTINUOUS
10
6.98839
20
-2.09783
11
6.98898
21
-2.09631
0
LINE
8
BLACK
6
CONTINUOUS
10
6.98898
20
-2.09631
11
6.98943
21
-2.09474
0
LINE
8
BLACK
6
CONTINUOUS
10
6.98943
20
-2.09474
11
6.98976
21
-2.0943
0
LINE
8
BLACK
6
CONTINUOUS
10
6.98976
20
-2.0943
11
6.98996
21
-2.09378
0
LINE
8
BLACK
6
CONTINUOUS
10
6.98996
20
-2.09378
11
6.99106
21
-2.09258
0
LINE
8
BLACK
6
CONTINUOUS
10
6.99106
20
-2.09258
11
6.99204
21
-2.09127
0
LINE
8
BLACK
6
CONTINUOUS
10
6.99204
20
-2.09127
11
6.99251
21
-2.09098
0
LINE
8
BLACK
6
CONTINUOUS
10
6.99251
20
-2.09098
11
6.99288
21
-2.09057
0
LINE
8
BLACK
6
CONTINUOUS
10
6.99288
20
-2.09057
11
6.99434
21
-2.08985
0
LINE
8
BLACK
6
CONTINUOUS
10
6.99434
20
-2.08985
11
6.99573
21
-2.08899
0
LINE
8
BLACK
6
CONTINUOUS
10
6.99573
20
-2.08899
11
6.99627
21
-2.08889
0
LINE
8
BLACK
6
CONTINUOUS
10
6.99627
20
-2.08889
11
6.99677
21
-2.08864
0
LINE
8
BLACK
6
CONTINUOUS
10
6.99677
20
-2.08864
11
6.99839
21
-2.08849
0
LINE
8
BLACK
6
CONTINUOUS
10
6.99839
20
-2.08849
11
7
21
-2.08819
0
LINE
8
BLACK
6
CONTINUOUS
10
7
20
-2.08819
11
7.06407
21
-2.08819
0
LINE
8
BLACK
6
CONTINUOUS
10
7.06407
20
-2.08819
11
7.06407
21
-2.07657
0
LINE
8
BLACK
6
CONTINUOUS
10
7.06407
20
-2.07657
11
7.06452
21
-2.07239
0
LINE
8
BLACK
6
CONTINUOUS
10
7.06452
20
-2.07239
11
7.06648
21
-2.06714
0
LINE
8
BLACK
6
CONTINUOUS
10
7.06648
20
-2.06714
11
7.06984
21
-2.06266
0
LINE
8
BLACK
6
CONTINUOUS
10
7.06984
20
-2.06266
11
7.07433
21
-2.0593
0
LINE
8
BLACK
6
CONTINUOUS
10
7.07433
20
-2.0593
11
7.07958
21
-2.05734
0
LINE
8
BLACK
6
CONTINUOUS
10
7.07958
20
-2.05734
11
7.08376
21
-2.05689
0
LINE
8
BLACK
6
CONTINUOUS
10
7.08376
20
-2.05689
11
7.15266
21
-2.05689
0
LINE
8
BLACK
6
CONTINUOUS
10
7.15266
20
-2.05689
11
7.15684
21
-2.05734
0
LINE
8
BLACK
6
CONTINUOUS
10
8.0053
20
-1.49315
11
8.00547
21
-1.49312
0
LINE
8
BLACK
6
CONTINUOUS
10
8.00547
20
-1.49312
11
8.00573
21
-1.49319
0
LINE
8
BLACK
6
CONTINUOUS
10
8.00573
20
-1.49319
11
8.00709
21
-1.49331
0
LINE
8
BLACK
6
CONTINUOUS
10
8.00709
20
-1.49331
11
8.00836
21
-1.4938
0
LINE
8
BLACK
6
CONTINUOUS
10
8.00836
20
-1.4938
11
8.00969
21
-1.49412
0
LINE
8
BLACK
6
CONTINUOUS
10
8.00969
20
-1.49412
11
8.01037
21
-1.49458
0
LINE
8
BLACK
6
CONTINUOUS
10
8.01037
20
-1.49458
11
8.01114
21
-1.49488
0
LINE
8
BLACK
6
CONTINUOUS
10
8.01114
20
-1.49488
11
8.01215
21
-1.4958
0
LINE
8
BLACK
6
CONTINUOUS
10
8.01215
20
-1.4958
11
8.01327
21
-1.49657
0
LINE
8
BLACK
6
CONTINUOUS
10
8.01327
20
-1.49657
11
8.20343
21
-1.68673
0
LINE
8
BLACK
6
CONTINUOUS
10
8.20343
20
-1.68673
11
8.20368
21
-1.68702
0
LINE
8
BLACK
6
CONTINUOUS
10
8.20368
20
-1.68702
11
8.20381
21
-1.68712
0
LINE
8
BLACK
6
CONTINUOUS
10
8.20381
20
-1.68712
11
8.20395
21
-1.68735
0
LINE
8
BLACK
6
CONTINUOUS
10
8.20395
20
-1.68735
11
8.20482
21
-1.6884
0
LINE
8
BLACK
6
CONTINUOUS
10
8.20482
20
-1.6884
11
8.20537
21
-1.68965
0
LINE
8
BLACK
6
CONTINUOUS
10
8.20537
20
-1.68965
11
8.20609
21
-1.69081
0
LINE
8
BLACK
6
CONTINUOUS
10
8.20609
20
-1.69081
11
8.20624
21
-1.69162
0
LINE
8
BLACK
6
CONTINUOUS
10
8.20624
20
-1.69162
11
8.20658
21
-1.69237
0
LINE
8
BLACK
6
CONTINUOUS
10
8.20658
20
-1.69237
11
8.20664
21
-1.69374
0
LINE
8
BLACK
6
CONTINUOUS
10
8.20664
20
-1.69374
11
8.20689
21
-1.69508
0
LINE
8
BLACK
6
CONTINUOUS
10
8.20689
20
-1.69508
11
8.20689
21
-2.1
0
LINE
8
BLACK
6
CONTINUOUS
10
8.20689
20
-2.1
11
8.20685
21
-2.10038
0
LINE
8
BLACK
6
CONTINUOUS
10
8.20685
20
-2.10038
11
8.20688
21
-2.10055
0
LINE
8
BLACK
6
CONTINUOUS
10
8.20688
20
-2.10055
11
8.20681
21
-2.10081
0
LINE
8
BLACK
6
CONTINUOUS
10
8.20681
20
-2.10081
11
8.20669
21
-2.10217
0
LINE
8
BLACK
6
CONTINUOUS
10
8.20669
20
-2.10217
11
8.2062
21
-2.10344
0
LINE
8
BLACK
6
CONTINUOUS
10
8.2062
20
-2.10344
11
8.20588
21
-2.10477
0
LINE
8
BLACK
6
CONTINUOUS
10
8.20588
20
-2.10477
11
8.20542
21
-2.10545
0
LINE
8
BLACK
6
CONTINUOUS
10
8.20542
20
-2.10545
11
8.20512
21
-2.10622
0
LINE
8
BLACK
6
CONTINUOUS
10
8.20512
20
-2.10622
11
8.2042
21
-2.10723
0
LINE
8
BLACK
6
CONTINUOUS
10
8.2042
20
-2.10723
11
8.20343
21
-2.10835
0
LINE
8
BLACK
6
CONTINUOUS
10
8.20343
20
-2.10835
11
8.05866
21
-2.25312
0
LINE
8
BLACK
6
CONTINUOUS
10
8.05866
20
-2.25312
11
8.05866
21
-2.28307
0
LINE
8
BLACK
6
CONTINUOUS
10
8.05866
20
-2.28307
11
7.96024
21
-2.28307
0
LINE
8
BLACK
6
CONTINUOUS
10
7.96024
20
-2.28307
11
7.96024
21
-2.21614
0
LINE
8
BLACK
6
CONTINUOUS
10
7.96024
20
-2.21614
11
8.05866
21
-2.21614
0
LINE
8
BLACK
6
CONTINUOUS
10
8.05866
20
-2.21614
11
8.05866
21
-2.21971
0
LINE
8
BLACK
6
CONTINUOUS
10
8.05866
20
-2.21971
11
8.18327
21
-2.09511
0
LINE
8
BLACK
6
CONTINUOUS
10
8.18327
20
-2.09511
11
8.18327
21
-1.69997
0
LINE
8
BLACK
6
CONTINUOUS
10
8.18327
20
-1.69997
11
8.00003
21
-1.51673
0
LINE
8
BLACK
6
CONTINUOUS
10
8.00003
20
-1.51673
11
6.99997
21
-1.51673
0
LINE
8
BLACK
6
CONTINUOUS
10
6.99997
20
-1.51673
11
6.9167
21
-1.6
0
LINE
8
BLACK
6
CONTINUOUS
10
6.9167
20
-1.6
11
7.00115
21
-1.68445
0
LINE
8
BLACK
6
CONTINUOUS
10
7.00115
20
-1.68445
11
7.06407
21
-1.68445
0
LINE
8
BLACK
6
CONTINUOUS
10
7.06407
20
-1.68445
11
7.06407
21
-1.67657
0
LINE
8
BLACK
6
CONTINUOUS
10
7.06407
20
-1.67657
11
7.06452
21
-1.67239
0
LINE
8
BLACK
6
CONTINUOUS
10
7.06452
20
-1.67239
11
7.06648
21
-1.66714
0
LINE
8
BLACK
6
CONTINUOUS
10
7.06648
20
-1.66714
11
7.06984
21
-1.66266
0
LINE
8
BLACK
6
CONTINUOUS
10
7.06984
20
-1.66266
11
7.07433
21
-1.6593
0
LINE
8
BLACK
6
CONTINUOUS
10
7.07433
20
-1.6593
11
7.07958
21
-1.65734
0
LINE
8
BLACK
6
CONTINUOUS
10
7.07958
20
-1.65734
11
7.08376
21
-1.65689
0
LINE
8
BLACK
6
CONTINUOUS
10
7.08376
20
-1.65689
11
7.15266
21
-1.65689
0
LINE
8
BLACK
6
CONTINUOUS
10
7.15266
20
-1.65689
11
7.15684
21
-1.65734
0
LINE
8
BLACK
6
CONTINUOUS
10
7.15684
20
-1.65734
11
7.16209
21
-1.6593
0
LINE
8
BLACK
6
CONTINUOUS
10
7.16209
20
-1.6593
11
7.16658
21
-1.66266
0
LINE
8
BLACK
6
CONTINUOUS
10
7.16658
20
-1.66266
11
7.16993
21
-1.66714
0
LINE
8
BLACK
6
CONTINUOUS
10
7.16993
20
-1.66714
11
7.17189
21
-1.67239
0
LINE
8
BLACK
6
CONTINUOUS
10
7.17189
20
-1.67239
11
7.17234
21
-1.67657
0
LINE
8
BLACK
6
CONTINUOUS
10
7.17234
20
-1.67657
11
7.17234
21
-1.68445
0
LINE
8
BLACK
6
CONTINUOUS
10
7.17234
20
-1.68445
11
7.19626
21
-1.68445
0
LINE
8
BLACK
6
CONTINUOUS
10
7.19626
20
-1.68445
11
7.19843
21
-1.68465
0
LINE
8
BLACK
6
CONTINUOUS
10
7.19843
20
-1.68465
11
7.20248
21
-1.68622
0
LINE
8
BLACK
6
CONTINUOUS
10
7.20248
20
-1.68622
11
7.20464
21
-1.68819
0
LINE
8
BLACK
6
CONTINUOUS
10
7.20464
20
-1.68819
11
7.36654
21
-1.68819
0
LINE
8
BLACK
6
CONTINUOUS
10
7.36654
20
-1.68819
11
7.36654
21
-1.65079
0
LINE
8
BLACK
6
CONTINUOUS
10
7.36654
20
-1.65079
11
7.43346
21
-1.65079
0
LINE
8
BLACK
6
CONTINUOUS
10
7.43346
20
-1.65079
11
7.43346
21
-1.74921
0
LINE
8
BLACK
6
CONTINUOUS
10
7.43346
20
-1.74921
11
7.36654
21
-1.74921
0
LINE
8
BLACK
6
CONTINUOUS
10
7.36654
20
-1.74921
11
7.36654
21
-1.71181
0
LINE
8
BLACK
6
CONTINUOUS
10
7.36654
20
-1.71181
11
7.2
21
-1.71181
0
LINE
8
BLACK
6
CONTINUOUS
10
7.2
20
-1.71181
11
7.19783
21
-1.71161
0
LINE
8
BLACK
6
CONTINUOUS
10
7.19783
20
-1.71161
11
7.19378
21
-1.71004
0
LINE
8
BLACK
6
CONTINUOUS
10
7.19378
20
-1.71004
11
7.19162
21
-1.70807
0
LINE
8
BLACK
6
CONTINUOUS
10
7.19162
20
-1.70807
11
7.17234
21
-1.70807
0
LINE
8
BLACK
6
CONTINUOUS
10
7.17234
20
-1.70807
11
7.17234
21
-1.71594
0
LINE
8
BLACK
6
CONTINUOUS
10
7.17234
20
-1.71594
11
7.17189
21
-1.72013
0
LINE
8
BLACK
6
CONTINUOUS
10
7.17189
20
-1.72013
11
7.16993
21
-1.72538
0
LINE
8
BLACK
6
CONTINUOUS
10
7.16993
20
-1.72538
11
7.16658
21
-1.72986
0
LINE
8
BLACK
6
CONTINUOUS
10
7.16658
20
-1.72986
11
7.16209
21
-1.73322
0
LINE
8
BLACK
6
CONTINUOUS
10
7.16209
20
-1.73322
11
7.15684
21
-1.73518
0
LINE
8
BLACK
6
CONTINUOUS
10
7.15684
20
-1.73518
11
7.15266
21
-1.73563
0
LINE
8
BLACK
6
CONTINUOUS
10
7.15266
20
-1.73563
11
7.08376
21
-1.73563
0
LINE
8
BLACK
6
CONTINUOUS
10
7.08376
20
-1.73563
11
7.07958
21
-1.73518
0
LINE
8
BLACK
6
CONTINUOUS
10
7.07958
20
-1.73518
11
7.07433
21
-1.73322
0
LINE
8
BLACK
6
CONTINUOUS
10
7.07433
20
-1.73322
11
7.06984
21
-1.72986
0
LINE
8
BLACK
6
CONTINUOUS
10
7.06984
20
-1.72986
11
7.06648
21
-1.72538
0
LINE
8
BLACK
6
CONTINUOUS
10
7.06648
20
-1.72538
11
7.06452
21
-1.72013
0
LINE
8
BLACK
6
CONTINUOUS
10
7.06452
20
-1.72013
11
7.06407
21
-1.71594
0
LINE
8
BLACK
6
CONTINUOUS
10
7.06407
20
-1.71594
11
7.06407
21
-1.70807
0
LINE
8
BLACK
6
CONTINUOUS
10
7.06407
20
-1.70807
11
6.99626
21
-1.70807
0
LINE
8
BLACK
6
CONTINUOUS
10
6.99626
20
-1.70807
11
6.99588
21
-1.70804
0
LINE
8
BLACK
6
CONTINUOUS
10
6.99588
20
-1.70804
11
6.99571
21
-1.70806
0
LINE
8
BLACK
6
CONTINUOUS
10
6.99571
20
-1.70806
11
6.99545
21
-1.708
0
LINE
8
BLACK
6
CONTINUOUS
10
6.99545
20
-1.708
11
6.99409
21
-1.70787
0
LINE
8
BLACK
6
CONTINUOUS
10
6.99409
20
-1.70787
11
6.99282
21
-1.70738
0
LINE
8
BLACK
6
CONTINUOUS
10
6.99282
20
-1.70738
11
6.99149
21
-1.70706
0
LINE
8
BLACK
6
CONTINUOUS
10
6.99149
20
-1.70706
11
6.99081
21
-1.7066
0
LINE
8
BLACK
6
CONTINUOUS
10
6.99081
20
-1.7066
11
6.99004
21
-1.7063
0
LINE
8
BLACK
6
CONTINUOUS
10
6.99004
20
-1.7063
11
6.98903
21
-1.70538
0
LINE
8
BLACK
6
CONTINUOUS
10
6.98903
20
-1.70538
11
6.98791
21
-1.70461
0
LINE
8
BLACK
6
CONTINUOUS
10
6.98791
20
-1.70461
11
6.89165
21
-1.60835
0
LINE
8
BLACK
6
CONTINUOUS
10
6.89165
20
-1.60835
11
6.89112
21
-1.60772
0
LINE
8
BLACK
6
CONTINUOUS
10
6.89112
20
-1.60772
11
6.89091
21
-1.60755
0
LINE
8
BLACK
6
CONTINUOUS
10
6.89091
20
-1.60755
11
6.89078
21
-1.60731
0
LINE
8
BLACK
6
CONTINUOUS
10
6.89078
20
-1.60731
11
6.89026
21
-1.60667
0
LINE
8
BLACK
6
CONTINUOUS
10
6.89026
20
-1.60667
11
6.8896
21
-1.60518
0
LINE
8
BLACK
6
CONTINUOUS
10
6.8896
20
-1.60518
11
6.8888
21
-1.60375
0
LINE
8
BLACK
6
CONTINUOUS
10
6.8888
20
-1.60375
11
6.88873
21
-1.60321
0
LINE
8
BLACK
6
CONTINUOUS
10
6.88873
20
-1.60321
11
6.8885
21
-1.6027
0
LINE
8
BLACK
6
CONTINUOUS
10
6.8885
20
-1.6027
11
6.88843
21
-1.60107
0
LINE
8
BLACK
6
CONTINUOUS
10
6.88843
20
-1.60107
11
6.8882
21
-1.59945
0
LINE
8
BLACK
6
CONTINUOUS
10
6.8882
20
-1.59945
11
6.88833
21
-1.59892
0
LINE
8
BLACK
6
CONTINUOUS
10
6.88833
20
-1.59892
11
6.8883
21
-1.59837
0
LINE
8
BLACK
6
CONTINUOUS
10
6.8883
20
-1.59837
11
6.88882
21
-1.59682
0
LINE
8
BLACK
6
CONTINUOUS
10
6.88882
20
-1.59682
11
6.8892
21
-1.59523
0
LINE
8
BLACK
6
CONTINUOUS
10
6.8892
20
-1.59523
11
6.88951
21
-1.59477
0
LINE
8
BLACK
6
CONTINUOUS
10
6.88951
20
-1.59477
11
6.88968
21
-1.59425
0
LINE
8
BLACK
6
CONTINUOUS
10
6.88968
20
-1.59425
11
6.89073
21
-1.593
0
LINE
8
BLACK
6
CONTINUOUS
10
6.89073
20
-1.593
11
6.89165
21
-1.59165
0
LINE
8
BLACK
6
CONTINUOUS
10
6.89165
20
-1.59165
11
6.98673
21
-1.49657
0
LINE
8
BLACK
6
CONTINUOUS
10
6.98673
20
-1.49657
11
6.98702
21
-1.49632
0
LINE
8
BLACK
6
CONTINUOUS
10
6.98702
20
-1.49632
11
6.98712
21
-1.49619
0
LINE
8
BLACK
6
CONTINUOUS
10
6.98712
20
-1.49619
11
6.98735
21
-1.49605
0
LINE
8
BLACK
6
CONTINUOUS
10
6.98735
20
-1.49605
11
6.9884
21
-1.49518
0
LINE
8
BLACK
6
CONTINUOUS
10
6.9884
20
-1.49518
11
6.98965
21
-1.49463
0
LINE
8
BLACK
6
CONTINUOUS
10
6.98965
20
-1.49463
11
6.99081
21
-1.49391
0
LINE
8
BLACK
6
CONTINUOUS
10
6.99081
20
-1.49391
11
6.99162
21
-1.49376
0
LINE
8
BLACK
6
CONTINUOUS
10
6.99162
20
-1.49376
11
6.99237
21
-1.49342
0
LINE
8
BLACK
6
CONTINUOUS
10
6.99237
20
-1.49342
11
6.99374
21
-1.49336
0
LINE
8
BLACK
6
CONTINUOUS
10
6.99374
20
-1.49336
11
6.99508
21
-1.49311
0
LINE
8
BLACK
6
CONTINUOUS
10
6.99508
20
-1.49311
11
8.00492
21
-1.49311
0
LINE
8
BLACK
6
CONTINUOUS
10
8.00492
20
-1.49311
11
8.0053
21
-1.49315
0
LINE
8
BLACK
6
CONTINUOUS
10
8.05866
20
-2.18307
11
7.96024
21
-2.18307
0
LINE
8
BLACK
6
CONTINUOUS
10
7.96024
20
-2.18307
11
7.96024
21
-2.16142
0
LINE
8
BLACK
6
CONTINUOUS
10
7.96024
20
-2.16142
11
7.35529
21
-2.16142
0
LINE
8
BLACK
6
CONTINUOUS
10
7.35529
20
-2.16142
11
7.30835
21
-2.20835
0
LINE
8
BLACK
6
CONTINUOUS
10
7.30835
20
-2.20835
11
7.30806
21
-2.2086
0
LINE
8
BLACK
6
CONTINUOUS
10
7.30806
20
-2.2086
11
7.30796
21
-2.20873
0
LINE
8
BLACK
6
CONTINUOUS
10
7.30796
20
-2.20873
11
7.30772
21
-2.20887
0
LINE
8
BLACK
6
CONTINUOUS
10
7.30772
20
-2.20887
11
7.30667
21
-2.20974
0
LINE
8
BLACK
6
CONTINUOUS
10
7.30667
20
-2.20974
11
7.30543
21
-2.2103
0
LINE
8
BLACK
6
CONTINUOUS
10
7.30543
20
-2.2103
11
7.30427
21
-2.21101
0
LINE
8
BLACK
6
CONTINUOUS
10
7.30427
20
-2.21101
11
7.30346
21
-2.21116
0
LINE
8
BLACK
6
CONTINUOUS
10
7.30346
20
-2.21116
11
7.3027
21
-2.2115
0
LINE
8
BLACK
6
CONTINUOUS
10
7.3027
20
-2.2115
11
7.30134
21
-2.21156
0
LINE
8
BLACK
6
CONTINUOUS
10
7.30134
20
-2.21156
11
7.3
21
-2.21181
0
LINE
8
BLACK
6
CONTINUOUS
10
7.3
20
-2.21181
11
7.17234
21
-2.21181
0
LINE
8
BLACK
6
CONTINUOUS
10
7.17234
20
-2.21181
11
7.17234
21
-2.21594
0
LINE
8
BLACK
6
CONTINUOUS
10
7.17234
20
-2.21594
11
7.17189
21
-2.22013
0
LINE
8
BLACK
6
CONTINUOUS
10
7.17189
20
-2.22013
11
7.16993
21
-2.22538
0
LINE
8
BLACK
6
CONTINUOUS
10
7.16993
20
-2.22538
11
7.16658
21
-2.22986
0
LINE
8
BLACK
6
CONTINUOUS
10
7.16658
20
-2.22986
11
7.16209
21
-2.23322
0
LINE
8
BLACK
6
CONTINUOUS
10
7.16209
20
-2.23322
11
7.15684
21
-2.23518
0
LINE
8
BLACK
6
CONTINUOUS
10
7.15684
20
-2.23518
11
7.15266
21
-2.23563
0
LINE
8
BLACK
6
CONTINUOUS
10
7.15266
20
-2.23563
11
7.08376
21
-2.23563
0
LINE
8
BLACK
6
CONTINUOUS
10
7.08376
20
-2.23563
11
7.07958
21
-2.23518
0
LINE
8
BLACK
6
CONTINUOUS
10
7.07958
20
-2.23518
11
7.07433
21
-2.23322
0
LINE
8
BLACK
6
CONTINUOUS
10
7.07433
20
-2.23322
11
7.06984
21
-2.22986
0
LINE
8
BLACK
6
CONTINUOUS
10
7.06984
20
-2.22986
11
7.06648
21
-2.22538
0
LINE
8
BLACK
6
CONTINUOUS
10
7.06648
20
-2.22538
11
7.06452
21
-2.22013
0
LINE
8
BLACK
6
CONTINUOUS
10
7.06452
20
-2.22013
11
7.06407
21
-2.21594
0
LINE
8
BLACK
6
CONTINUOUS
10
7.06407
20
-2.21594
11
7.06407
21
-2.17657
0
LINE
8
BLACK
6
CONTINUOUS
10
7.06407
20
-2.17657
11
7.06452
21
-2.17239
0
LINE
8
BLACK
6
CONTINUOUS
10
7.06452
20
-2.17239
11
7.06648
21
-2.16714
0
LINE
8
BLACK
6
CONTINUOUS
10
7.06648
20
-2.16714
11
7.06984
21
-2.16266
0
LINE
8
BLACK
6
CONTINUOUS
10
7.06984
20
-2.16266
11
7.07433
21
-2.1593
0
LINE
8
BLACK
6
CONTINUOUS
10
7.07433
20
-2.1593
11
7.07958
21
-2.15734
0
LINE
8
BLACK
6
CONTINUOUS
10
7.07958
20
-2.15734
11
7.08376
21
-2.15689
0
LINE
8
BLACK
6
CONTINUOUS
10
7.08376
20
-2.15689
11
7.15266
21
-2.15689
0
LINE
8
BLACK
6
CONTINUOUS
10
7.15266
20
-2.15689
11
7.15684
21
-2.15734
0
LINE
8
BLACK
6
CONTINUOUS
10
7.15684
20
-2.15734
11
7.16209
21
-2.1593
0
LINE
8
BLACK
6
CONTINUOUS
10
7.16209
20
-2.1593
11
7.16658
21
-2.16266
0
LINE
8
BLACK
6
CONTINUOUS
10
7.16658
20
-2.16266
11
7.16993
21
-2.16714
0
LINE
8
BLACK
6
CONTINUOUS
10
7.16993
20
-2.16714
11
7.17189
21
-2.17239
0
LINE
8
BLACK
6
CONTINUOUS
10
7.17189
20
-2.17239
11
7.17234
21
-2.17657
0
LINE
8
BLACK
6
CONTINUOUS
10
7.17234
20
-2.17657
11
7.17234
21
-2.18819
0
LINE
8
BLACK
6
CONTINUOUS
10
7.17234
20
-2.18819
11
7.29511
21
-2.18819
0
LINE
8
BLACK
6
CONTINUOUS
10
7.29511
20
-2.18819
11
7.34204
21
-2.14125
0
LINE
8
BLACK
6
CONTINUOUS
10
7.34204
20
-2.14125
11
7.34234
21
-2.14101
0
LINE
8
BLACK
6
CONTINUOUS
10
7.34234
20
-2.14101
11
7.34244
21
-2.14088
0
LINE
8
BLACK
6
CONTINUOUS
10
7.34244
20
-2.14088
11
7.34267
21
-2.14073
0
LINE
8
BLACK
6
CONTINUOUS
10
7.34267
20
-2.14073
11
7.34372
21
-2.13986
0
LINE
8
BLACK
6
CONTINUOUS
10
7.34372
20
-2.13986
11
7.34497
21
-2.13931
0
LINE
8
BLACK
6
CONTINUOUS
10
7.34497
20
-2.13931
11
7.34613
21
-2.13859
0
LINE
8
BLACK
6
CONTINUOUS
10
7.34613
20
-2.13859
11
7.34694
21
-2.13844
0
LINE
8
BLACK
6
CONTINUOUS
10
7.34694
20
-2.13844
11
7.34769
21
-2.13811
0
LINE
8
BLACK
6
CONTINUOUS
10
7.34769
20
-2.13811
11
7.34905
21
-2.13805
0
LINE
8
BLACK
6
CONTINUOUS
10
7.34905
20
-2.13805
11
7.35039
21
-2.1378
0
LINE
8
BLACK
6
CONTINUOUS
10
7.35039
20
-2.1378
11
7.96024
21
-2.1378
0
LINE
8
BLACK
6
CONTINUOUS
10
7.96024
20
-2.1378
11
7.96024
21
-2.11614
0
LINE
8
BLACK
6
CONTINUOUS
10
7.96024
20
-2.11614
11
8.05866
21
-2.11614
0
LINE
8
BLACK
6
CONTINUOUS
10
8.05866
20
-2.11614
11
8.05866
21
-2.18307
0
LINE
8
BLACK
6
CONTINUOUS
10
7.15684
20
-1.95734
11
7.16209
21
-1.9593
0
LINE
8
BLACK
6
CONTINUOUS
10
7.16209
20
-1.9593
11
7.16658
21
-1.96266
0
LINE
8
BLACK
6
CONTINUOUS
10
7.16658
20
-1.96266
11
7.16993
21
-1.96714
0
LINE
8
BLACK
6
CONTINUOUS
10
7.16993
20
-1.96714
11
7.17189
21
-1.97239
0
LINE
8
BLACK
6
CONTINUOUS
10
7.17189
20
-1.97239
11
7.17234
21
-1.97657
0
LINE
8
BLACK
6
CONTINUOUS
10
7.17234
20
-1.97657
11
7.17234
21
-1.98819
0
LINE
8
BLACK
6
CONTINUOUS
10
7.17234
20
-1.98819
11
7.8
21
-1.98819
0
LINE
8
BLACK
6
CONTINUOUS
10
7.8
20
-1.98819
11
7.80038
21
-1.98822
0
LINE
8
BLACK
6
CONTINUOUS
10
7.80038
20
-1.98822
11
7.80055
21
-1.9882
0
LINE
8
BLACK
6
CONTINUOUS
10
7.80055
20
-1.9882
11
7.80081
21
-1.98826
0
LINE
8
BLACK
6
CONTINUOUS
10
7.80081
20
-1.98826
11
7.80217
21
-1.98839
0
LINE
8
BLACK
6
CONTINUOUS
10
7.80217
20
-1.98839
11
7.80344
21
-1.98888
0
LINE
8
BLACK
6
CONTINUOUS
10
7.80344
20
-1.98888
11
7.80477
21
-1.9892
0
LINE
8
BLACK
6
CONTINUOUS
10
7.80477
20
-1.9892
11
7.80545
21
-1.98966
0
LINE
8
BLACK
6
CONTINUOUS
10
7.80545
20
-1.98966
11
7.80622
21
-1.98996
0
LINE
8
BLACK
6
CONTINUOUS
10
7.80622
20
-1.98996
11
7.80723
21
-1.99088
0
LINE
8
BLACK
6
CONTINUOUS
10
7.80723
20
-1.99088
11
7.80835
21
-1.99165
0
LINE
8
BLACK
6
CONTINUOUS
10
7.80835
20
-1.99165
11
7.8545
21
-2.0378
0
LINE
8
BLACK
6
CONTINUOUS
10
7.8545
20
-2.0378
11
7.96024
21
-2.0378
0
LINE
8
BLACK
6
CONTINUOUS
10
7.96024
20
-2.0378
11
7.96024
21
-2.01614
0
LINE
8
BLACK
6
CONTINUOUS
10
7.96024
20
-2.01614
11
8.05866
21
-2.01614
0
LINE
8
BLACK
6
CONTINUOUS
10
8.05866
20
-2.01614
11
8.05866
21
-2.08307
0
LINE
8
BLACK
6
CONTINUOUS
10
8.05866
20
-2.08307
11
7.96024
21
-2.08307
0
LINE
8
BLACK
6
CONTINUOUS
10
7.96024
20
-2.08307
11
7.96024
21
-2.06142
0
LINE
8
BLACK
6
CONTINUOUS
10
7.96024
20
-2.06142
11
7.84961
21
-2.06142
0
LINE
8
BLACK
6
CONTINUOUS
10
7.84961
20
-2.06142
11
7.84922
21
-2.06138
0
LINE
8
BLACK
6
CONTINUOUS
10
7.84922
20
-2.06138
11
7.84906
21
-2.0614
0
LINE
8
BLACK
6
CONTINUOUS
10
7.84906
20
-2.0614
11
7.84879
21
-2.06134
0
LINE
8
BLACK
6
CONTINUOUS
10
7.84879
20
-2.06134
11
7.84744
21
-2.06122
0
LINE
8
BLACK
6
CONTINUOUS
10
7.84744
20
-2.06122
11
7.84616
21
-2.06072
0
LINE
8
BLACK
6
CONTINUOUS
10
7.84616
20
-2.06072
11
7.84484
21
-2.06041
0
LINE
8
BLACK
6
CONTINUOUS
10
7.84484
20
-2.06041
11
7.84416
21
-2.05995
0
LINE
8
BLACK
6
CONTINUOUS
10
7.84416
20
-2.05995
11
7.84339
21
-2.05965
0
LINE
8
BLACK
6
CONTINUOUS
10
7.84339
20
-2.05965
11
7.84238
21
-2.05873
0
LINE
8
BLACK
6
CONTINUOUS
10
7.84238
20
-2.05873
11
7.84125
21
-2.05796
0
LINE
8
BLACK
6
CONTINUOUS
10
7.84125
20
-2.05796
11
7.79511
21
-2.01181
0
LINE
8
BLACK
6
CONTINUOUS
10
7.79511
20
-2.01181
11
7.17234
21
-2.01181
0
LINE
8
BLACK
6
CONTINUOUS
10
7.17234
20
-2.01181
11
7.17234
21
-2.01594
0
LINE
8
BLACK
6
CONTINUOUS
10
7.17234
20
-2.01594
11
7.17189
21
-2.02013
0
LINE
8
BLACK
6
CONTINUOUS
10
7.17189
20
-2.02013
11
7.16993
21
-2.02538
0
LINE
8
BLACK
6
CONTINUOUS
10
7.16993
20
-2.02538
11
7.16658
21
-2.02986
0
LINE
8
BLACK
6
CONTINUOUS
10
7.16658
20
-2.02986
11
7.16209
21
-2.03322
0
LINE
8
BLACK
6
CONTINUOUS
10
7.16209
20
-2.03322
11
7.15684
21
-2.03518
0
LINE
8
BLACK
6
CONTINUOUS
10
7.15684
20
-2.03518
11
7.15266
21
-2.03563
0
LINE
8
BLACK
6
CONTINUOUS
10
7.15266
20
-2.03563
11
7.08376
21
-2.03563
0
LINE
8
BLACK
6
CONTINUOUS
10
7.08376
20
-2.03563
11
7.07958
21
-2.03518
0
LINE
8
BLACK
6
CONTINUOUS
10
7.07958
20
-2.03518
11
7.07433
21
-2.03322
0
LINE
8
BLACK
6
CONTINUOUS
10
7.07433
20
-2.03322
11
7.06984
21
-2.02986
0
LINE
8
BLACK
6
CONTINUOUS
10
7.06984
20
-2.02986
11
7.06648
21
-2.02538
0
LINE
8
BLACK
6
CONTINUOUS
10
7.06648
20
-2.02538
11
7.06452
21
-2.02013
0
LINE
8
BLACK
6
CONTINUOUS
10
7.06452
20
-2.02013
11
7.06407
21
-2.01594
0
LINE
8
BLACK
6
CONTINUOUS
10
7.06407
20
-2.01594
11
7.06407
21
-1.97657
0
LINE
8
BLACK
6
CONTINUOUS
10
7.06407
20
-1.97657
11
7.06452
21
-1.97239
0
LINE
8
BLACK
6
CONTINUOUS
10
7.06452
20
-1.97239
11
7.06648
21
-1.96714
0
LINE
8
BLACK
6
CONTINUOUS
10
7.06648
20
-1.96714
11
7.06984
21
-1.96266
0
LINE
8
BLACK
6
CONTINUOUS
10
7.06984
20
-1.96266
11
7.07433
21
-1.9593
0
LINE
8
BLACK
6
CONTINUOUS
10
7.07433
20
-1.9593
11
7.07958
21
-1.95734
0
LINE
8
BLACK
6
CONTINUOUS
10
7.07958
20
-1.95734
11
7.08376
21
-1.95689
0
LINE
8
BLACK
6
CONTINUOUS
10
7.08376
20
-1.95689
11
7.15266
21
-1.95689
0
LINE
8
BLACK
6
CONTINUOUS
10
7.15266
20
-1.95689
11
7.15684
21
-1.95734
0
LINE
8
BLACK
6
CONTINUOUS
10
7.73937
20
-1.88819
11
7.80079
21
-1.88819
0
LINE
8
BLACK
6
CONTINUOUS
10
7.80079
20
-1.88819
11
7.80117
21
-1.88822
0
LINE
8
BLACK
6
CONTINUOUS
10
7.80117
20
-1.88822
11
7.80133
21
-1.8882
0
LINE
8
BLACK
6
CONTINUOUS
10
7.80133
20
-1.8882
11
7.8016
21
-1.88826
0
LINE
8
BLACK
6
CONTINUOUS
10
7.8016
20
-1.88826
11
7.80296
21
-1.88839
0
LINE
8
BLACK
6
CONTINUOUS
10
7.80296
20
-1.88839
11
7.80423
21
-1.88888
0
LINE
8
BLACK
6
CONTINUOUS
10
7.80423
20
-1.88888
11
7.80556
21
-1.8892
0
LINE
8
BLACK
6
CONTINUOUS
10
7.80556
20
-1.8892
11
7.80624
21
-1.88966
0
LINE
8
BLACK
6
CONTINUOUS
10
7.80624
20
-1.88966
11
7.80701
21
-1.88996
0
LINE
8
BLACK
6
CONTINUOUS
10
7.80701
20
-1.88996
11
7.80801
21
-1.89088
0
LINE
8
BLACK
6
CONTINUOUS
10
7.80801
20
-1.89088
11
7.80914
21
-1.89165
0
LINE
8
BLACK
6
CONTINUOUS
10
7.80914
20
-1.89165
11
7.85529
21
-1.9378
0
LINE
8
BLACK
6
CONTINUOUS
10
7.85529
20
-1.9378
11
7.96024
21
-1.9378
0
LINE
8
BLACK
6
CONTINUOUS
10
7.96024
20
-1.9378
11
7.96024
21
-1.91614
0
LINE
8
BLACK
6
CONTINUOUS
10
7.96024
20
-1.91614
11
8.05866
21
-1.91614
0
LINE
8
BLACK
6
CONTINUOUS
10
8.05866
20
-1.91614
11
8.05866
21
-1.98307
0
LINE
8
BLACK
6
CONTINUOUS
10
8.05866
20
-1.98307
11
7.96024
21
-1.98307
0
LINE
8
BLACK
6
CONTINUOUS
10
7.96024
20
-1.98307
11
7.96024
21
-1.96142
0
LINE
8
BLACK
6
CONTINUOUS
10
7.96024
20
-1.96142
11
7.85039
21
-1.96142
0
LINE
8
BLACK
6
CONTINUOUS
10
7.85039
20
-1.96142
11
7.85001
21
-1.96138
0
LINE
8
BLACK
6
CONTINUOUS
10
7.85001
20
-1.96138
11
7.84985
21
-1.9614
0
LINE
8
BLACK
6
CONTINUOUS
10
7.84985
20
-1.9614
11
7.84958
21
-1.96134
0
LINE
8
BLACK
6
CONTINUOUS
10
7.84958
20
-1.96134
11
7.84822
21
-1.96122
0
LINE
8
BLACK
6
CONTINUOUS
10
7.84822
20
-1.96122
11
7.84695
21
-1.96072
0
LINE
8
BLACK
6
CONTINUOUS
10
7.84695
20
-1.96072
11
7.84562
21
-1.96041
0
LINE
8
BLACK
6
CONTINUOUS
10
7.84562
20
-1.96041
11
7.84494
21
-1.95995
0
LINE
8
BLACK
6
CONTINUOUS
10
7.84494
20
-1.95995
11
7.84418
21
-1.95965
0
LINE
8
BLACK
6
CONTINUOUS
10
7.84418
20
-1.95965
11
7.84317
21
-1.95873
0
LINE
8
BLACK
6
CONTINUOUS
10
7.84317
20
-1.95873
11
7.84204
21
-1.95796
0
LINE
8
BLACK
6
CONTINUOUS
10
7.84204
20
-1.95796
11
7.7959
21
-1.91181
0
LINE
8
BLACK
6
CONTINUOUS
10
7.7959
20
-1.91181
11
7.73937
21
-1.91181
0
LINE
8
BLACK
6
CONTINUOUS
10
7.73937
20
-1.91181
11
7.73937
21
-1.93346
0
LINE
8
BLACK
6
CONTINUOUS
10
7.73937
20
-1.93346
11
7.66063
21
-1.93346
0
LINE
8
BLACK
6
CONTINUOUS
10
7.66063
20
-1.93346
11
7.66063
21
-1.86654
0
LINE
8
BLACK
6
CONTINUOUS
10
7.66063
20
-1.86654
11
7.73937
21
-1.86654
0
LINE
8
BLACK
6
CONTINUOUS
10
7.73937
20
-1.86654
11
7.73937
21
-1.88819
0
LINE
8
BLACK
6
CONTINUOUS
10
7.15684
20
-1.85734
11
7.16209
21
-1.8593
0
LINE
8
BLACK
6
CONTINUOUS
10
7.16209
20
-1.8593
11
7.16658
21
-1.86266
0
LINE
8
BLACK
6
CONTINUOUS
10
7.16658
20
-1.86266
11
7.16993
21
-1.86714
0
LINE
8
BLACK
6
CONTINUOUS
10
7.16993
20
-1.86714
11
7.17189
21
-1.87239
0
LINE
8
BLACK
6
CONTINUOUS
10
7.17189
20
-1.87239
11
7.17234
21
-1.87657
0
LINE
8
BLACK
6
CONTINUOUS
10
7.17234
20
-1.87657
11
7.17234
21
-1.88819
0
LINE
8
BLACK
6
CONTINUOUS
10
7.17234
20
-1.88819
11
7.50315
21
-1.88819
0
LINE
8
BLACK
6
CONTINUOUS
10
7.50315
20
-1.88819
11
7.50315
21
-1.86654
0
LINE
8
BLACK
6
CONTINUOUS
10
7.50315
20
-1.86654
11
7.58189
21
-1.86654
0
LINE
8
BLACK
6
CONTINUOUS
10
7.58189
20
-1.86654
11
7.58189
21
-1.93346
0
LINE
8
BLACK
6
CONTINUOUS
10
7.58189
20
-1.93346
11
7.50315
21
-1.93346
0
LINE
8
BLACK
6
CONTINUOUS
10
7.50315
20
-1.93346
11
7.50315
21
-1.91181
0
LINE
8
BLACK
6
CONTINUOUS
10
7.50315
20
-1.91181
11
7.17234
21
-1.91181
0
LINE
8
BLACK
6
CONTINUOUS
10
7.17234
20
-1.91181
11
7.17234
21
-1.91594
0
LINE
8
BLACK
6
CONTINUOUS
10
7.17234
20
-1.91594
11
7.17189
21
-1.92013
0
LINE
8
BLACK
6
CONTINUOUS
10
7.17189
20
-1.92013
11
7.16993
21
-1.92538
0
LINE
8
BLACK
6
CONTINUOUS
10
7.16993
20
-1.92538
11
7.16658
21
-1.92986
0
LINE
8
BLACK
6
CONTINUOUS
10
7.16658
20
-1.92986
11
7.16209
21
-1.93322
0
LINE
8
BLACK
6
CONTINUOUS
10
7.16209
20
-1.93322
11
7.15684
21
-1.93518
0
LINE
8
BLACK
6
CONTINUOUS
10
7.15684
20
-1.93518
11
7.15266
21
-1.93563
0
LINE
8
BLACK
6
CONTINUOUS
10
7.15266
20
-1.93563
11
7.08376
21
-1.93563
0
LINE
8
BLACK
6
CONTINUOUS
10
7.08376
20
-1.93563
11
7.07958
21
-1.93518
0
LINE
8
BLACK
6
CONTINUOUS
10
7.07958
20
-1.93518
11
7.07433
21
-1.93322
0
LINE
8
BLACK
6
CONTINUOUS
10
7.07433
20
-1.93322
11
7.06984
21
-1.92986
0
LINE
8
BLACK
6
CONTINUOUS
10
7.06984
20
-1.92986
11
7.06648
21
-1.92538
0
LINE
8
BLACK
6
CONTINUOUS
10
7.06648
20
-1.92538
11
7.06452
21
-1.92013
0
LINE
8
BLACK
6
CONTINUOUS
10
7.06452
20
-1.92013
11
7.06407
21
-1.91594
0
LINE
8
BLACK
6
CONTINUOUS
10
7.06407
20
-1.91594
11
7.06407
21
-1.87657
0
LINE
8
BLACK
6
CONTINUOUS
10
7.06407
20
-1.87657
11
7.06452
21
-1.87239
0
LINE
8
BLACK
6
CONTINUOUS
10
7.06452
20
-1.87239
11
7.06648
21
-1.86714
0
LINE
8
BLACK
6
CONTINUOUS
10
7.06648
20
-1.86714
11
7.06984
21
-1.86266
0
LINE
8
BLACK
6
CONTINUOUS
10
7.06984
20
-1.86266
11
7.07433
21
-1.8593
0
LINE
8
BLACK
6
CONTINUOUS
10
7.07433
20
-1.8593
11
7.07958
21
-1.85734
0
LINE
8
BLACK
6
CONTINUOUS
10
7.07958
20
-1.85734
11
7.08376
21
-1.85689
0
LINE
8
BLACK
6
CONTINUOUS
10
7.08376
20
-1.85689
11
7.15266
21
-1.85689
0
LINE
8
BLACK
6
CONTINUOUS
10
7.15266
20
-1.85689
11
7.15684
21
-1.85734
0
LINE
8
BLACK
6
CONTINUOUS
10
8.05866
20
-1.78307
11
7.96024
21
-1.78307
0
LINE
8
BLACK
6
CONTINUOUS
10
7.96024
20
-1.78307
11
7.96024
21
-1.71614
0
LINE
8
BLACK
6
CONTINUOUS
10
7.96024
20
-1.71614
11
8.05866
21
-1.71614
0
LINE
8
BLACK
6
CONTINUOUS
10
8.05866
20
-1.71614
11
8.05866
21
-1.78307
0
LINE
8
BLACK
6
CONTINUOUS
10
7.15684
20
-1.55734
11
7.16209
21
-1.5593
0
LINE
8
BLACK
6
CONTINUOUS
10
7.16209
20
-1.5593
11
7.16658
21
-1.56266
0
LINE
8
BLACK
6
CONTINUOUS
10
7.16658
20
-1.56266
11
7.16993
21
-1.56714
0
LINE
8
BLACK
6
CONTINUOUS
10
7.16993
20
-1.56714
11
7.17189
21
-1.57239
0
LINE
8
BLACK
6
CONTINUOUS
10
7.17189
20
-1.57239
11
7.17234
21
-1.57657
0
LINE
8
BLACK
6
CONTINUOUS
10
7.17234
20
-1.57657
11
7.17234
21
-1.58445
0
LINE
8
BLACK
6
CONTINUOUS
10
7.17234
20
-1.58445
11
7.5
21
-1.58445
0
LINE
8
BLACK
6
CONTINUOUS
10
7.5
20
-1.58445
11
7.9561
21
-1.58445
0
LINE
8
BLACK
6
CONTINUOUS
10
7.9561
20
-1.58445
11
7.95648
21
-1.58448
0
LINE
8
BLACK
6
CONTINUOUS
10
7.95648
20
-1.58448
11
7.95665
21
-1.58446
0
LINE
8
BLACK
6
CONTINUOUS
10
7.95665
20
-1.58446
11
7.95691
21
-1.58452
0
LINE
8
BLACK
6
CONTINUOUS
10
7.95691
20
-1.58452
11
7.95827
21
-1.58465
0
LINE
8
BLACK
6
CONTINUOUS
10
7.95827
20
-1.58465
11
7.95954
21
-1.58514
0
LINE
8
BLACK
6
CONTINUOUS
10
7.95954
20
-1.58514
11
7.96087
21
-1.58546
0
LINE
8
BLACK
6
CONTINUOUS
10
7.96087
20
-1.58546
11
7.96155
21
-1.58592
0
LINE
8
BLACK
6
CONTINUOUS
10
7.96155
20
-1.58592
11
7.96232
21
-1.58622
0
LINE
8
BLACK
6
CONTINUOUS
10
7.96232
20
-1.58622
11
7.96333
21
-1.58714
0
LINE
8
BLACK
6
CONTINUOUS
10
7.96333
20
-1.58714
11
7.96445
21
-1.58791
0
LINE
8
BLACK
6
CONTINUOUS
10
7.96445
20
-1.58791
11
7.99269
21
-1.61614
0
LINE
8
BLACK
6
CONTINUOUS
10
7.99269
20
-1.61614
11
8.05866
21
-1.61614
0
LINE
8
BLACK
6
CONTINUOUS
10
8.05866
20
-1.61614
11
8.05866
21
-1.68307
0
LINE
8
BLACK
6
CONTINUOUS
10
8.05866
20
-1.68307
11
7.96024
21
-1.68307
0
LINE
8
BLACK
6
CONTINUOUS
10
7.96024
20
-1.68307
11
7.96024
21
-1.6171
0
LINE
8
BLACK
6
CONTINUOUS
10
7.96024
20
-1.6171
11
7.95121
21
-1.60807
0
LINE
8
BLACK
6
CONTINUOUS
10
7.95121
20
-1.60807
11
7.51181
21
-1.60807
0
LINE
8
BLACK
6
CONTINUOUS
10
7.51181
20
-1.60807
11
7.51181
21
-1.65079
0
LINE
8
BLACK
6
CONTINUOUS
10
7.51181
20
-1.65079
11
7.53346
21
-1.65079
0
LINE
8
BLACK
6
CONTINUOUS
10
7.53346
20
-1.65079
11
7.53346
21
-1.74921
0
LINE
8
BLACK
6
CONTINUOUS
10
7.53346
20
-1.74921
11
7.46654
21
-1.74921
0
LINE
8
BLACK
6
CONTINUOUS
10
7.46654
20
-1.74921
11
7.46654
21
-1.65079
0
LINE
8
BLACK
6
CONTINUOUS
10
7.46654
20
-1.65079
11
7.48819
21
-1.65079
0
LINE
8
BLACK
6
CONTINUOUS
10
7.48819
20
-1.65079
11
7.48819
21
-1.60807
0
LINE
8
BLACK
6
CONTINUOUS
10
7.48819
20
-1.60807
11
7.17234
21
-1.60807
0
LINE
8
BLACK
6
CONTINUOUS
10
7.17234
20
-1.60807
11
7.17234
21
-1.61594
0
LINE
8
BLACK
6
CONTINUOUS
10
7.17234
20
-1.61594
11
7.17189
21
-1.62013
0
LINE
8
BLACK
6
CONTINUOUS
10
7.17189
20
-1.62013
11
7.16993
21
-1.62538
0
LINE
8
BLACK
6
CONTINUOUS
10
7.16993
20
-1.62538
11
7.16658
21
-1.62986
0
LINE
8
BLACK
6
CONTINUOUS
10
7.16658
20
-1.62986
11
7.16209
21
-1.63322
0
LINE
8
BLACK
6
CONTINUOUS
10
7.16209
20
-1.63322
11
7.15684
21
-1.63518
0
LINE
8
BLACK
6
CONTINUOUS
10
7.15684
20
-1.63518
11
7.15266
21
-1.63563
0
LINE
8
BLACK
6
CONTINUOUS
10
7.15266
20
-1.63563
11
7.08376
21
-1.63563
0
LINE
8
BLACK
6
CONTINUOUS
10
7.08376
20
-1.63563
11
7.07958
21
-1.63518
0
LINE
8
BLACK
6
CONTINUOUS
10
7.07958
20
-1.63518
11
7.07433
21
-1.63322
0
LINE
8
BLACK
6
CONTINUOUS
10
7.07433
20
-1.63322
11
7.06984
21
-1.62986
0
LINE
8
BLACK
6
CONTINUOUS
10
7.06984
20
-1.62986
11
7.06648
21
-1.62538
0
LINE
8
BLACK
6
CONTINUOUS
10
7.06648
20
-1.62538
11
7.06452
21
-1.62013
0
LINE
8
BLACK
6
CONTINUOUS
10
7.06452
20
-1.62013
11
7.06407
21
-1.61594
0
LINE
8
BLACK
6
CONTINUOUS
10
7.06407
20
-1.61594
11
7.06407
21
-1.57657
0
LINE
8
BLACK
6
CONTINUOUS
10
7.06407
20
-1.57657
11
7.06452
21
-1.57239
0
LINE
8
BLACK
6
CONTINUOUS
10
7.06452
20
-1.57239
11
7.06648
21
-1.56714
0
LINE
8
BLACK
6
CONTINUOUS
10
7.06648
20
-1.56714
11
7.06984
21
-1.56266
0
LINE
8
BLACK
6
CONTINUOUS
10
7.06984
20
-1.56266
11
7.07433
21
-1.5593
0
LINE
8
BLACK
6
CONTINUOUS
10
7.07433
20
-1.5593
11
7.07958
21
-1.55734
0
LINE
8
BLACK
6
CONTINUOUS
10
7.07958
20
-1.55734
11
7.08376
21
-1.55689
0
LINE
8
BLACK
6
CONTINUOUS
10
7.08376
20
-1.55689
11
7.15266
21
-1.55689
0
LINE
8
BLACK
6
CONTINUOUS
10
7.15266
20
-1.55689
11
7.15684
21
-1.55734
  0
ENDSEC
  0
EOF
