  0
SECTION
  2
HEADER
  9
$ANGBASE
  50
0.0
  9
$ANGDIR
  70
1
  9
$MEASUREMENT
  70
0
  0
ENDSEC
  0
SECTION
  2
TABLES
  0
TABLE
  2
LTYPE
  70
4
  0
LTYPE
  5
40F
  2
CONTINUOUS
  70
0
  3
Solid line
  72
65
  73
0
  40
0.0
  0
LTYPE
  5
410
  2
DASHDOT
 70
0
  3
Dash Dot ____ _ ____ _
 72
65
 73
4
 40
2.0
 49
1.25
 49
-0.25
 49
0.25
 49
-0.25
  0
LTYPE
  5
411
  2
DASHED
 70
0
  3
Dashed __ __ __ __ __
 72
65
 73
2
 40
0.75
 49
0.5
 49
-0.25
  0
LTYPE
  5
43B
  2
DOTTED
 70
0
  3
Dotted .  .  .  .
 72
65
 73
2
 40
0.2
 49
0.0
 49
-0.2
  0
ENDTAB
  0
TABLE
  2
STYLE
  70
4
  0
STYLE
  2
KICAD
  70
0
  40
0
  41
1
  42
1
  50
0
  71
0
  3
isocp.shx
  0
STYLE
  2
KICADB
  70
0
  40
0
  41
1
  42
1
  50
0
  71
0
  3
isocp.shx
  0
STYLE
  2
KICADI
  70
0
  40
0
  41
1
  42
1
  50
15
  71
0
  3
isocp.shx
  0
STYLE
  2
KICADBI
  70
0
  40
0
  41
1
  42
1
  50
15
  71
0
  3
isocp.shx
  0
ENDTAB
  0
TABLE
  2
LAYER
  70
1
  0
LAYER
  2
BLACK
  70
0
  62
7
  6
CONTINUOUS
  0
ENDTAB
  0
ENDSEC
  0
SECTION
  2
ENTITIES
0
LINE
8
BLACK
6
CONTINUOUS
10
6.4
20
-1.39803
11
7.9
21
-1.39803
0
LINE
8
BLACK
6
CONTINUOUS
10
7.9
20
-1.39803
11
8.1
21
-1.39803
0
LINE
8
BLACK
6
CONTINUOUS
10
8.1
20
-1.39803
11
8.10139
21
-1.39861
0
LINE
8
BLACK
6
CONTINUOUS
10
8.10139
20
-1.39861
11
8.30139
21
-1.59861
0
LINE
8
BLACK
6
CONTINUOUS
10
8.30139
20
-1.59861
11
8.30197
21
-1.6
0
LINE
8
BLACK
6
CONTINUOUS
10
8.30197
20
-1.6
11
8.30197
21
-3.5
0
LINE
8
BLACK
6
CONTINUOUS
10
8.30197
20
-3.5
11
8.30139
21
-3.50139
0
LINE
8
BLACK
6
CONTINUOUS
10
8.30139
20
-3.50139
11
8.10139
21
-3.70139
0
LINE
8
BLACK
6
CONTINUOUS
10
8.10139
20
-3.70139
11
8.1
21
-3.70197
0
LINE
8
BLACK
6
CONTINUOUS
10
8.1
20
-3.70197
11
6.2
21
-3.70197
0
LINE
8
BLACK
6
CONTINUOUS
10
6.2
20
-3.70197
11
6.19902
21
-3.70156
0
LINE
8
BLACK
6
CONTINUOUS
10
6.19902
20
-3.70156
11
6.19861
21
-3.70139
0
LINE
8
BLACK
6
CONTINUOUS
10
6.19861
20
-3.70139
11
6.09861
21
-3.60139
0
LINE
8
BLACK
6
CONTINUOUS
10
6.09861
20
-3.60139
11
6.09861
21
-3.60139
0
LINE
8
BLACK
6
CONTINUOUS
10
6.09861
20
-3.60139
11
5.99861
21
-3.50139
0
LINE
8
BLACK
6
CONTINUOUS
10
5.99861
20
-3.50139
11
5.99803
21
-3.5
0
LINE
8
BLACK
6
CONTINUOUS
10
5.99803
20
-3.5
11
5.99803
21
-1.6
0
LINE
8
BLACK
6
CONTINUOUS
10
5.99803
20
-1.6
11
5.99808
21
-1.59989
0
LINE
8
BLACK
6
CONTINUOUS
10
5.99808
20
-1.59989
11
5.99804
21
-1.59978
0
LINE
8
BLACK
6
CONTINUOUS
10
5.99804
20
-1.59978
11
5.99836
21
-1.59921
0
LINE
8
BLACK
6
CONTINUOUS
10
5.99836
20
-1.59921
11
5.99861
21
-1.59861
0
LINE
8
BLACK
6
CONTINUOUS
10
5.99861
20
-1.59861
11
5.99871
21
-1.59856
0
LINE
8
BLACK
6
CONTINUOUS
10
5.99871
20
-1.59856
11
5.99877
21
-1.59846
0
LINE
8
BLACK
6
CONTINUOUS
10
5.99877
20
-1.59846
11
6.24877
21
-1.39846
0
LINE
8
BLACK
6
CONTINUOUS
10
6.24877
20
-1.39846
11
6.2494
21
-1.39828
0
LINE
8
BLACK
6
CONTINUOUS
10
6.2494
20
-1.39828
11
6.25
21
-1.39803
0
LINE
8
BLACK
6
CONTINUOUS
10
6.25
20
-1.39803
11
6.4
21
-1.39803
0
LINE
8
BLACK
6
CONTINUOUS
10
7.9
20
-1.40197
11
6.4
21
-1.40197
0
LINE
8
BLACK
6
CONTINUOUS
10
6.4
20
-1.40197
11
6.25069
21
-1.40197
0
LINE
8
BLACK
6
CONTINUOUS
10
6.25069
20
-1.40197
11
6.00197
21
-1.60095
0
LINE
8
BLACK
6
CONTINUOUS
10
6.00197
20
-1.60095
11
6.00197
21
-3.49918
0
LINE
8
BLACK
6
CONTINUOUS
10
6.00197
20
-3.49918
11
6.10139
21
-3.59861
0
LINE
8
BLACK
6
CONTINUOUS
10
6.10139
20
-3.59861
11
6.10139
21
-3.59861
0
LINE
8
BLACK
6
CONTINUOUS
10
6.10139
20
-3.59861
11
6.20082
21
-3.69803
0
LINE
8
BLACK
6
CONTINUOUS
10
6.20082
20
-3.69803
11
8.09918
21
-3.69803
0
LINE
8
BLACK
6
CONTINUOUS
10
8.09918
20
-3.69803
11
8.29803
21
-3.49918
0
LINE
8
BLACK
6
CONTINUOUS
10
8.29803
20
-3.49918
11
8.29803
21
-1.60082
0
LINE
8
BLACK
6
CONTINUOUS
10
8.29803
20
-1.60082
11
8.09918
21
-1.40197
0
LINE
8
BLACK
6
CONTINUOUS
10
8.09918
20
-1.40197
11
7.9
21
-1.40197
  0
ENDSEC
  0
EOF
