999
"DXF R12 Output" (www.mydxf.blogspot.com)
 0 
SECTION
 2 
HEADER
 9 
$ACADVER
 1 
AC1009
 9 
$EXTMIN
 10 
 0 
 20 
 0 
 9 
$EXTMAX
 10 
 8.5 
 20 
 11 
 0 
ENDSEC
 0 
SECTION
 2 
ENTITIES
0
LINE
8
Layer 1
10
70.956300
20
1.242930
11
71.094700
21
1.242930
0
LINE
8
Layer 1
10
71.094700
20
1.242930
11
18.610800
21
1.242930
0
LINE
8
Layer 1
10
18.610800
20
1.242930
11
18.672650
21
1.970149
0
LINE
8
Layer 1
10
18.672650
20
1.970149
11
19.193433
21
2.726792
0
LINE
8
Layer 1
10
19.193433
20
2.726792
11
20.118509
21
3.507104
0
LINE
8
Layer 1
10
20.118509
20
3.507104
11
21.393244
21
4.305325
0
LINE
8
Layer 1
10
21.393244
20
4.305325
11
24.773138
21
5.932472
0
LINE
8
Layer 1
10
24.773138
20
5.932472
11
28.896020
21
7.562176
0
LINE
8
Layer 1
10
28.896020
20
7.562176
11
37.622360
21
10.645029
0
LINE
8
Layer 1
10
37.622360
20
10.645029
11
41.351628
21
12.006064
0
LINE
8
Layer 1
10
41.351628
20
12.006064
11
44.075500
21
13.185430
0
LINE
8
Layer 1
10
44.075500
20
13.185430
11
47.458714
21
14.996911
0
LINE
8
Layer 1
10
47.458714
20
14.996911
11
50.470360
21
16.769641
0
LINE
8
Layer 1
10
50.470360
20
16.769641
11
53.132178
21
18.559056
0
LINE
8
Layer 1
10
53.132178
20
18.559056
11
55.465909
21
20.420593
0
LINE
8
Layer 1
10
55.465909
20
20.420593
11
57.493292
21
22.409687
0
LINE
8
Layer 1
10
57.493292
20
22.409687
11
59.236067
21
24.581775
0
LINE
8
Layer 1
10
59.236067
20
24.581775
11
60.715973
21
26.992292
0
LINE
8
Layer 1
10
60.715973
20
26.992292
11
61.954750
21
29.696675
0
LINE
8
Layer 1
10
61.954750
20
29.696675
11
62.974138
21
32.750360
0
LINE
8
Layer 1
10
62.974138
20
32.750360
11
63.795877
21
36.208782
0
LINE
8
Layer 1
10
63.795877
20
36.208782
11
64.441706
21
40.127378
0
LINE
8
Layer 1
10
64.441706
20
40.127378
11
64.933366
21
44.561584
0
LINE
8
Layer 1
10
64.933366
20
44.561584
11
65.292595
21
49.566837
0
LINE
8
Layer 1
10
65.292595
20
49.566837
11
65.541134
21
55.198571
0
LINE
8
Layer 1
10
65.541134
20
55.198571
11
65.793100
21
68.563230
0
LINE
8
Layer 1
10
65.793100
20
68.563230
11
65.798260
21
82.694499
0
LINE
8
Layer 1
10
65.798260
20
82.694499
11
65.485557
21
94.127964
0
LINE
8
Layer 1
10
65.485557
20
94.127964
11
65.185931
21
98.934954
0
LINE
8
Layer 1
10
65.185931
20
98.934954
11
64.777950
21
103.189812
0
LINE
8
Layer 1
10
64.777950
20
103.189812
11
64.251982
21
106.933313
0
LINE
8
Layer 1
10
64.251982
20
106.933313
11
63.598397
21
110.206230
0
LINE
8
Layer 1
10
63.598397
20
110.206230
11
62.807565
21
113.049336
0
LINE
8
Layer 1
10
62.807565
20
113.049336
11
61.869857
21
115.503404
0
LINE
8
Layer 1
10
61.869857
20
115.503404
11
60.775641
21
117.609208
0
LINE
8
Layer 1
10
60.775641
20
117.609208
11
59.515289
21
119.407521
0
LINE
8
Layer 1
10
59.515289
20
119.407521
11
58.079168
21
120.939116
0
LINE
8
Layer 1
10
58.079168
20
120.939116
11
56.457650
21
122.244767
0
LINE
8
Layer 1
10
56.457650
20
122.244767
11
54.641104
21
123.365247
0
LINE
8
Layer 1
10
54.641104
20
123.365247
11
52.619900
21
124.341330
0
LINE
8
Layer 1
10
52.619900
20
124.341330
11
45.740332
21
127.553193
0
LINE
8
Layer 1
10
45.740332
20
127.553193
11
39.344696
21
131.043282
0
LINE
8
Layer 1
10
39.344696
20
131.043282
11
33.435474
21
134.807544
0
LINE
8
Layer 1
10
33.435474
20
134.807544
11
28.015152
21
138.841930
0
LINE
8
Layer 1
10
28.015152
20
138.841930
11
23.086211
21
143.142388
0
LINE
8
Layer 1
10
23.086211
20
143.142388
11
18.651135
21
147.704866
0
LINE
8
Layer 1
10
18.651135
20
147.704866
11
14.712408
21
152.525314
0
LINE
8
Layer 1
10
14.712408
20
152.525314
11
11.272513
21
157.599680
0
LINE
8
Layer 1
10
11.272513
20
157.599680
11
8.333932
21
162.923913
0
LINE
8
Layer 1
10
8.333932
20
162.923913
11
5.899151
21
168.493963
0
LINE
8
Layer 1
10
5.899151
20
168.493963
11
3.970651
21
174.305777
0
LINE
8
Layer 1
10
3.970651
20
174.305777
11
2.550917
21
180.355305
0
LINE
8
Layer 1
10
2.550917
20
180.355305
11
1.642432
21
186.638495
0
LINE
8
Layer 1
10
1.642432
20
186.638495
11
1.247678
21
193.151297
0
LINE
8
Layer 1
10
1.247678
20
193.151297
11
1.369140
21
199.889659
0
LINE
8
Layer 1
10
1.369140
20
199.889659
11
2.009300
21
206.849530
0
LINE
8
Layer 1
10
2.009300
20
206.849530
11
3.246181
21
213.673422
0
LINE
8
Layer 1
10
3.246181
20
213.673422
11
5.469985
21
223.340553
0
LINE
8
Layer 1
10
5.469985
20
223.340553
11
8.377758
21
234.778395
0
LINE
8
Layer 1
10
8.377758
20
234.778395
11
11.666548
21
246.914418
0
LINE
8
Layer 1
10
11.666548
20
246.914418
11
15.033400
21
258.676092
0
LINE
8
Layer 1
10
15.033400
20
258.676092
11
18.175362
21
268.990888
0
LINE
8
Layer 1
10
18.175362
20
268.990888
11
20.789479
21
276.786277
0
LINE
8
Layer 1
10
20.789479
20
276.786277
11
21.803924
21
279.404029
0
LINE
8
Layer 1
10
21.803924
20
279.404029
11
22.572800
21
280.989730
0
LINE
8
Layer 1
10
22.572800
20
280.989730
11
71.026000
21
280.990000
0
LINE
8
Layer 1
10
71.026000
20
280.990000
11
119.479000
21
280.990000
0
LINE
8
Layer 1
10
119.479000
20
280.990000
11
120.247888
21
279.404244
0
LINE
8
Layer 1
10
120.247888
20
279.404244
11
121.262343
21
276.786426
0
LINE
8
Layer 1
10
121.262343
20
276.786426
11
123.876476
21
268.990884
0
LINE
8
Layer 1
10
123.876476
20
268.990884
11
127.018447
21
258.675935
0
LINE
8
Layer 1
10
127.018447
20
258.675935
11
130.385301
21
246.914144
0
LINE
8
Layer 1
10
130.385301
20
246.914144
11
133.674087
21
234.778072
0
LINE
8
Layer 1
10
133.674087
20
234.778072
11
136.581850
21
223.340282
0
LINE
8
Layer 1
10
136.581850
20
223.340282
11
138.805639
21
213.673337
0
LINE
8
Layer 1
10
138.805639
20
213.673337
11
140.042500
21
206.849800
0
LINE
8
Layer 1
10
140.042500
20
206.849800
11
140.682576
21
199.889921
0
LINE
8
Layer 1
10
140.682576
20
199.889921
11
140.803964
21
193.151538
0
LINE
8
Layer 1
10
140.803964
20
193.151538
11
140.409147
21
186.638705
0
LINE
8
Layer 1
10
140.409147
20
186.638705
11
139.500610
21
180.355477
0
LINE
8
Layer 1
10
139.500610
20
180.355477
11
138.080835
21
174.305906
0
LINE
8
Layer 1
10
138.080835
20
174.305906
11
136.152306
21
168.494048
0
LINE
8
Layer 1
10
136.152306
20
168.494048
11
133.717507
21
162.923957
0
LINE
8
Layer 1
10
133.717507
20
162.923957
11
130.778920
21
157.599688
0
LINE
8
Layer 1
10
130.778920
20
157.599688
11
127.339030
21
152.525293
0
LINE
8
Layer 1
10
127.339030
20
152.525293
11
123.400319
21
147.704828
0
LINE
8
Layer 1
10
123.400319
20
147.704828
11
118.965271
21
143.142347
0
LINE
8
Layer 1
10
118.965271
20
143.142347
11
114.036370
21
138.841905
0
LINE
8
Layer 1
10
114.036370
20
138.841905
11
108.616099
21
134.807554
0
LINE
8
Layer 1
10
108.616099
20
134.807554
11
102.706941
21
131.043351
0
LINE
8
Layer 1
10
102.706941
20
131.043351
11
96.311380
21
127.553348
0
LINE
8
Layer 1
10
96.311380
20
127.553348
11
89.431900
21
124.341600
0
LINE
8
Layer 1
10
89.431900
20
124.341600
11
87.410718
21
123.365646
0
LINE
8
Layer 1
10
87.410718
20
123.365646
11
85.594191
21
122.245293
0
LINE
8
Layer 1
10
85.594191
20
122.245293
11
83.972688
21
120.939762
0
LINE
8
Layer 1
10
83.972688
20
120.939762
11
82.536580
21
119.408279
0
LINE
8
Layer 1
10
82.536580
20
119.408279
11
81.276235
21
117.610065
0
LINE
8
Layer 1
10
81.276235
20
117.610065
11
80.182025
21
115.504346
0
LINE
8
Layer 1
10
80.182025
20
115.504346
11
79.244319
21
113.050344
0
LINE
8
Layer 1
10
79.244319
20
113.050344
11
78.453487
21
110.207284
0
LINE
8
Layer 1
10
78.453487
20
110.207284
11
77.799900
21
106.934388
0
LINE
8
Layer 1
10
77.799900
20
106.934388
11
77.273926
21
103.190880
0
LINE
8
Layer 1
10
77.273926
20
103.190880
11
76.865937
21
98.935983
0
LINE
8
Layer 1
10
76.865937
20
98.935983
11
76.566302
21
94.128922
0
LINE
8
Layer 1
10
76.566302
20
94.128922
11
76.253573
21
82.695199
0
LINE
8
Layer 1
10
76.253573
20
82.695199
11
76.258700
21
68.563500
0
LINE
8
Layer 1
10
76.258700
20
68.563500
11
76.510707
21
55.198926
0
LINE
8
Layer 1
10
76.510707
20
55.198926
11
76.759260
21
49.567216
0
LINE
8
Layer 1
10
76.759260
20
49.567216
11
77.118498
21
44.561978
0
LINE
8
Layer 1
10
77.118498
20
44.561978
11
77.610162
21
40.127777
0
LINE
8
Layer 1
10
77.610162
20
40.127777
11
78.255992
21
36.209179
0
LINE
8
Layer 1
10
78.255992
20
36.209179
11
79.077730
21
32.750748
0
LINE
8
Layer 1
10
79.077730
20
32.750748
11
80.097114
21
29.697050
0
LINE
8
Layer 1
10
80.097114
20
29.697050
11
81.335885
21
26.992651
0
LINE
8
Layer 1
10
81.335885
20
26.992651
11
82.815783
21
24.582115
0
LINE
8
Layer 1
10
82.815783
20
24.582115
11
84.558549
21
22.410009
0
LINE
8
Layer 1
10
84.558549
20
22.410009
11
86.585923
21
20.420897
0
LINE
8
Layer 1
10
86.585923
20
20.420897
11
88.919645
21
18.559345
0
LINE
8
Layer 1
10
88.919645
20
18.559345
11
91.581455
21
16.769918
0
LINE
8
Layer 1
10
91.581455
20
16.769918
11
94.593093
21
14.997181
0
LINE
8
Layer 1
10
94.593093
20
14.997181
11
97.976300
21
13.185700
0
LINE
8
Layer 1
10
97.976300
20
13.185700
11
100.700016
21
12.006344
0
LINE
8
Layer 1
10
100.700016
20
12.006344
11
104.429205
21
10.645333
0
LINE
8
Layer 1
10
104.429205
20
10.645333
11
113.155551
21
7.562536
0
LINE
8
Layer 1
10
113.155551
20
7.562536
11
117.278486
21
5.932848
0
LINE
8
Layer 1
10
117.278486
20
5.932848
11
120.658447
21
4.305697
0
LINE
8
Layer 1
10
120.658447
20
4.305697
11
121.933215
21
3.507463
0
LINE
8
Layer 1
10
121.933215
20
3.507463
11
122.858322
21
2.727131
0
LINE
8
Layer 1
10
122.858322
20
2.727131
11
123.379130
21
1.970458
0
LINE
8
Layer 1
10
123.379130
20
1.970458
11
123.441000
21
1.243200
0
LINE
8
Layer 1
10
123.441000
20
1.243200
11
70.957300
21
1.242930
0
LINE
8
Layer 1
10
70.957300
20
1.242930
11
70.956300
21
1.242930
0
LINE
8
Layer 1
10
1.476630
20
201.348000
11
1.244931
21
194.891870
0
LINE
8
Layer 1
10
1.244931
20
194.891870
11
1.480103
21
188.638447
0
LINE
8
Layer 1
10
1.480103
20
188.638447
11
2.180051
21
182.591242
0
LINE
8
Layer 1
10
2.180051
20
182.591242
11
3.342680
21
176.753766
0
LINE
8
Layer 1
10
3.342680
20
176.753766
11
4.965897
21
171.129530
0
LINE
8
Layer 1
10
4.965897
20
171.129530
11
7.047607
21
165.722045
0
LINE
8
Layer 1
10
7.047607
20
165.722045
11
9.585715
21
160.534823
0
LINE
8
Layer 1
10
9.585715
20
160.534823
11
12.578127
21
155.571375
0
LINE
8
Layer 1
10
12.578127
20
155.571375
11
16.022749
21
150.835212
0
LINE
8
Layer 1
10
16.022749
20
150.835212
11
19.917486
21
146.329846
0
LINE
8
Layer 1
10
19.917486
20
146.329846
11
24.260243
21
142.058787
0
LINE
8
Layer 1
10
24.260243
20
142.058787
11
29.048926
21
138.025547
0
LINE
8
Layer 1
10
29.048926
20
138.025547
11
34.281441
21
134.233637
0
LINE
8
Layer 1
10
34.281441
20
134.233637
11
39.955693
21
130.686568
0
LINE
8
Layer 1
10
39.955693
20
130.686568
11
46.069587
21
127.387852
0
LINE
8
Layer 1
10
46.069587
20
127.387852
11
52.621030
21
124.341000
0
LINE
8
Layer 1
10
52.621030
20
124.341000
11
54.642237
21
123.364953
0
LINE
8
Layer 1
10
54.642237
20
123.364953
11
56.458766
21
122.244592
0
LINE
8
Layer 1
10
56.458766
20
122.244592
11
58.080251
21
120.939134
0
LINE
8
Layer 1
10
58.080251
20
120.939134
11
59.516325
21
119.407795
0
LINE
8
Layer 1
10
59.516325
20
119.407795
11
60.776621
21
117.609791
0
LINE
8
Layer 1
10
60.776621
20
117.609791
11
61.870771
21
115.504339
0
LINE
8
Layer 1
10
61.870771
20
115.504339
11
62.808409
21
113.050655
0
LINE
8
Layer 1
10
62.808409
20
113.050655
11
63.599167
21
110.207956
0
LINE
8
Layer 1
10
63.599167
20
110.207956
11
64.252679
21
106.935459
0
LINE
8
Layer 1
10
64.252679
20
106.935459
11
64.778578
21
103.192379
0
LINE
8
Layer 1
10
64.778578
20
103.192379
11
65.186496
21
98.937934
0
LINE
8
Layer 1
10
65.186496
20
98.937934
11
65.486066
21
94.131340
0
LINE
8
Layer 1
10
65.486066
20
94.131340
11
65.798695
21
82.698569
0
LINE
8
Layer 1
10
65.798695
20
82.698569
11
65.793530
21
68.567800
0
LINE
8
Layer 1
10
65.793530
20
68.567800
11
65.541618
21
55.203226
0
LINE
8
Layer 1
10
65.541618
20
55.203226
11
65.293157
21
49.571516
0
LINE
8
Layer 1
10
65.293157
20
49.571516
11
64.934033
21
44.566278
0
LINE
8
Layer 1
10
64.934033
20
44.566278
11
64.442501
21
40.132077
0
LINE
8
Layer 1
10
64.442501
20
40.132077
11
63.796816
21
36.213479
0
LINE
8
Layer 1
10
63.796816
20
36.213479
11
62.975232
21
32.755048
0
LINE
8
Layer 1
10
62.975232
20
32.755048
11
61.956005
21
29.701350
0
LINE
8
Layer 1
10
61.956005
20
29.701350
11
60.717390
21
26.996951
0
LINE
8
Layer 1
10
60.717390
20
26.996951
11
59.237642
21
24.586415
0
LINE
8
Layer 1
10
59.237642
20
24.586415
11
57.495015
21
22.414309
0
LINE
8
Layer 1
10
57.495015
20
22.414309
11
55.467764
21
20.425197
0
LINE
8
Layer 1
10
55.467764
20
20.425197
11
53.134146
21
18.563645
0
LINE
8
Layer 1
10
53.134146
20
18.563645
11
50.472414
21
16.774218
0
LINE
8
Layer 1
10
50.472414
20
16.774218
11
47.460824
21
15.001481
0
LINE
8
Layer 1
10
47.460824
20
15.001481
11
44.077630
21
13.190000
0
LINE
8
Layer 1
10
44.077630
20
13.190000
11
41.353663
21
12.010677
0
LINE
8
Layer 1
10
41.353663
20
12.010677
11
37.624124
21
10.649754
0
LINE
8
Layer 1
10
37.624124
20
10.649754
11
28.896941
21
7.567243
0
LINE
8
Layer 1
10
28.896941
20
7.567243
11
24.773603
21
5.937721
0
LINE
8
Layer 1
10
24.773603
20
5.937721
11
21.393303
21
4.310735
0
LINE
8
Layer 1
10
21.393303
20
4.310735
11
20.118403
21
3.512578
0
LINE
8
Layer 1
10
20.118403
20
3.512578
11
19.193195
21
2.732317
0
LINE
8
Layer 1
10
19.193195
20
2.732317
11
18.672322
21
1.975706
0
LINE
8
Layer 1
10
18.672322
20
1.975706
11
18.610430
21
1.248500
0
LINE
8
Layer 1
10
18.610430
20
1.248500
11
71.096800
21
1.248240
0
LINE
8
Layer 1
10
71.096800
20
1.248240
11
123.445000
21
1.248240
0
LINE
8
Layer 1
10
123.445000
20
1.248240
11
123.383113
21
1.975489
0
LINE
8
Layer 1
10
123.383113
20
1.975489
11
122.862251
21
2.732132
0
LINE
8
Layer 1
10
122.862251
20
2.732132
11
121.937058
21
3.512415
0
LINE
8
Layer 1
10
121.937058
20
3.512415
11
120.662176
21
4.310586
0
LINE
8
Layer 1
10
120.662176
20
4.310586
11
117.281917
21
5.937578
0
LINE
8
Layer 1
10
117.281917
20
5.937578
11
113.158615
21
7.567084
0
LINE
8
Layer 1
10
113.158615
20
7.567084
11
104.431446
21
10.649535
0
LINE
8
Layer 1
10
104.431446
20
10.649535
11
100.701862
21
12.010430
0
LINE
8
Layer 1
10
100.701862
20
12.010430
11
97.977800
21
13.189740
0
LINE
8
Layer 1
10
97.977800
20
13.189740
11
94.594607
21
15.001229
0
LINE
8
Layer 1
10
94.594607
20
15.001229
11
91.583017
21
16.773980
0
LINE
8
Layer 1
10
91.583017
20
16.773980
11
88.921287
21
18.563426
0
LINE
8
Layer 1
10
88.921287
20
18.563426
11
86.587670
21
20.425002
0
LINE
8
Layer 1
10
86.587670
20
20.425002
11
84.560422
21
22.414138
0
LINE
8
Layer 1
10
84.560422
20
22.414138
11
82.817797
21
24.586269
0
LINE
8
Layer 1
10
82.817797
20
24.586269
11
81.338051
21
26.996828
0
LINE
8
Layer 1
10
81.338051
20
26.996828
11
80.099437
21
29.701248
0
LINE
8
Layer 1
10
80.099437
20
29.701248
11
79.080212
21
32.754960
0
LINE
8
Layer 1
10
79.080212
20
32.754960
11
78.258629
21
36.213400
0
LINE
8
Layer 1
10
78.258629
20
36.213400
11
77.612944
21
40.131998
0
LINE
8
Layer 1
10
77.612944
20
40.131998
11
77.121411
21
44.566190
0
LINE
8
Layer 1
10
77.121411
20
44.566190
11
76.762285
21
49.571407
0
LINE
8
Layer 1
10
76.762285
20
49.571407
11
76.513822
21
55.203082
0
LINE
8
Layer 1
10
76.513822
20
55.203082
11
76.261900
21
68.567540
0
LINE
8
Layer 1
10
76.261900
20
68.567540
11
76.256750
21
82.699415
0
LINE
8
Layer 1
10
76.256750
20
82.699415
11
76.569402
21
94.132901
0
LINE
8
Layer 1
10
76.569402
20
94.132901
11
76.868983
21
98.939719
0
LINE
8
Layer 1
10
76.868983
20
98.939719
11
77.276912
21
103.194303
0
LINE
8
Layer 1
10
77.276912
20
103.194303
11
77.802821
21
106.937444
0
LINE
8
Layer 1
10
77.802821
20
106.937444
11
78.456341
21
110.209928
0
LINE
8
Layer 1
10
78.456341
20
110.209928
11
79.247105
21
113.052543
0
LINE
8
Layer 1
10
79.247105
20
113.052543
11
80.184746
21
115.506078
0
LINE
8
Layer 1
10
80.184746
20
115.506078
11
81.278895
21
117.611321
0
LINE
8
Layer 1
10
81.278895
20
117.611321
11
82.539185
21
119.409060
0
LINE
8
Layer 1
10
82.539185
20
119.409060
11
83.975248
21
120.940084
0
LINE
8
Layer 1
10
83.975248
20
120.940084
11
85.596717
21
122.245179
0
LINE
8
Layer 1
10
85.596717
20
122.245179
11
87.413223
21
123.365135
0
LINE
8
Layer 1
10
87.413223
20
123.365135
11
89.434400
21
124.340740
0
LINE
8
Layer 1
10
89.434400
20
124.340740
11
95.987937
21
127.388427
0
LINE
8
Layer 1
10
95.987937
20
127.388427
11
102.103582
21
130.687823
0
LINE
8
Layer 1
10
102.103582
20
130.687823
11
107.779251
21
134.235434
0
LINE
8
Layer 1
10
107.779251
20
134.235434
11
113.012858
21
138.027768
0
LINE
8
Layer 1
10
113.012858
20
138.027768
11
117.802318
21
142.061331
0
LINE
8
Layer 1
10
117.802318
20
142.061331
11
122.145545
21
146.332630
0
LINE
8
Layer 1
10
122.145545
20
146.332630
11
126.040455
21
150.838173
0
LINE
8
Layer 1
10
126.040455
20
150.838173
11
129.484962
21
155.574465
0
LINE
8
Layer 1
10
129.484962
20
155.574465
11
132.476982
21
160.538014
0
LINE
8
Layer 1
10
132.476982
20
160.538014
11
135.014428
21
165.725328
0
LINE
8
Layer 1
10
135.014428
20
165.725328
11
137.095216
21
171.132912
0
LINE
8
Layer 1
10
137.095216
20
171.132912
11
138.717261
21
176.757274
0
LINE
8
Layer 1
10
138.717261
20
176.757274
11
139.878477
21
182.594921
0
LINE
8
Layer 1
10
139.878477
20
182.594921
11
140.576779
21
188.642360
0
LINE
8
Layer 1
10
140.576779
20
188.642360
11
140.810082
21
194.896097
0
LINE
8
Layer 1
10
140.810082
20
194.896097
11
140.576300
21
201.352640
0
LINE
8
Layer 1
10
140.576300
20
201.352640
11
1.471690
21
201.353000
0
LINE
8
Layer 1
10
1.471690
20
201.353000
11
1.476630
21
201.348000
 0 
ENDSEC
 0 
EOF