999
"DXF R12 Output" (www.mydxf.blogspot.com)
 0 
SECTION
 2 
HEADER
 9 
$ACADVER
 1 
AC1009
 9 
$EXTMIN
 10 
 0 
 20 
 0 
 9 
$EXTMAX
 10 
 8.5 
 20 
 11 
 0 
ENDSEC
 0 
SECTION
 2 
ENTITIES
0
LINE
8
Layer 1
10
613.128000
20
620.290000
11
607.778530
21
619.914829
0
LINE
8
Layer 1
10
607.778530
20
619.914829
11
602.452619
21
619.299466
0
LINE
8
Layer 1
10
602.452619
20
619.299466
11
597.200292
21
618.455072
0
LINE
8
Layer 1
10
597.200292
20
618.455072
11
592.071575
21
617.392811
0
LINE
8
Layer 1
10
592.071575
20
617.392811
11
587.116492
21
616.123844
0
LINE
8
Layer 1
10
587.116492
20
616.123844
11
582.385069
21
614.659333
0
LINE
8
Layer 1
10
582.385069
20
614.659333
11
577.927330
21
613.010441
0
LINE
8
Layer 1
10
577.927330
20
613.010441
11
573.793300
21
611.188330
0
LINE
8
Layer 1
10
573.793300
20
611.188330
11
569.888197
21
609.150476
0
LINE
8
Layer 1
10
569.888197
20
609.150476
11
566.217808
21
606.915787
0
LINE
8
Layer 1
10
566.217808
20
606.915787
11
562.784513
21
604.488345
0
LINE
8
Layer 1
10
562.784513
20
604.488345
11
559.590686
21
601.872232
0
LINE
8
Layer 1
10
559.590686
20
601.872232
11
556.638706
21
599.071530
0
LINE
8
Layer 1
10
556.638706
20
599.071530
11
553.930949
21
596.090322
0
LINE
8
Layer 1
10
553.930949
20
596.090322
11
551.469792
21
592.932690
0
LINE
8
Layer 1
10
551.469792
20
592.932690
11
549.257613
21
589.602717
0
LINE
8
Layer 1
10
549.257613
20
589.602717
11
547.296787
21
586.104486
0
LINE
8
Layer 1
10
547.296787
20
586.104486
11
545.589694
21
582.442077
0
LINE
8
Layer 1
10
545.589694
20
582.442077
11
544.138708
21
578.619574
0
LINE
8
Layer 1
10
544.138708
20
578.619574
11
542.946208
21
574.641060
0
LINE
8
Layer 1
10
542.946208
20
574.641060
11
542.014570
21
570.510616
0
LINE
8
Layer 1
10
542.014570
20
570.510616
11
541.346171
21
566.232324
0
LINE
8
Layer 1
10
541.346171
20
566.232324
11
540.943389
21
561.810268
0
LINE
8
Layer 1
10
540.943389
20
561.810268
11
540.808600
21
557.248530
0
LINE
8
Layer 1
10
540.808600
20
557.248530
11
540.883806
21
553.924722
0
LINE
8
Layer 1
10
540.883806
20
553.924722
11
541.109288
21
550.700290
0
LINE
8
Layer 1
10
541.109288
20
550.700290
11
541.484838
21
547.575387
0
LINE
8
Layer 1
10
541.484838
20
547.575387
11
542.010251
21
544.550169
0
LINE
8
Layer 1
10
542.010251
20
544.550169
11
542.685318
21
541.624791
0
LINE
8
Layer 1
10
542.685318
20
541.624791
11
543.509834
21
538.799407
0
LINE
8
Layer 1
10
543.509834
20
538.799407
11
544.483592
21
536.074173
0
LINE
8
Layer 1
10
544.483592
20
536.074173
11
545.606385
21
533.449242
0
LINE
8
Layer 1
10
545.606385
20
533.449242
11
546.878007
21
530.924771
0
LINE
8
Layer 1
10
546.878007
20
530.924771
11
548.298250
21
528.500914
0
LINE
8
Layer 1
10
548.298250
20
528.500914
11
549.866909
21
526.177825
0
LINE
8
Layer 1
10
549.866909
20
526.177825
11
551.583777
21
523.955660
0
LINE
8
Layer 1
10
551.583777
20
523.955660
11
553.448646
21
521.834573
0
LINE
8
Layer 1
10
553.448646
20
521.834573
11
555.461311
21
519.814719
0
LINE
8
Layer 1
10
555.461311
20
519.814719
11
557.621565
21
517.896253
0
LINE
8
Layer 1
10
557.621565
20
517.896253
11
559.929200
21
516.079330
0
LINE
8
Layer 1
10
559.929200
20
516.079330
11
563.680088
21
513.489236
0
LINE
8
Layer 1
10
563.680088
20
513.489236
11
567.711270
21
511.094683
0
LINE
8
Layer 1
10
567.711270
20
511.094683
11
572.104602
21
508.863013
0
LINE
8
Layer 1
10
572.104602
20
508.863013
11
576.941938
21
506.761566
0
LINE
8
Layer 1
10
576.941938
20
506.761566
11
582.305131
21
504.757684
0
LINE
8
Layer 1
10
582.305131
20
504.757684
11
588.276036
21
502.818706
0
LINE
8
Layer 1
10
588.276036
20
502.818706
11
594.936508
21
500.911975
0
LINE
8
Layer 1
10
594.936508
20
500.911975
11
602.368400
21
499.004830
0
LINE
8
Layer 1
10
602.368400
20
499.004830
11
614.109852
21
496.040945
0
LINE
8
Layer 1
10
614.109852
20
496.040945
11
621.951988
21
493.761667
0
LINE
8
Layer 1
10
621.951988
20
493.761667
11
624.796327
21
492.753700
0
LINE
8
Layer 1
10
624.796327
20
492.753700
11
627.128455
21
491.766816
0
LINE
8
Layer 1
10
627.128455
20
491.766816
11
629.102577
21
490.750994
0
LINE
8
Layer 1
10
629.102577
20
490.750994
11
630.872900
21
489.656210
0
LINE
8
Layer 1
10
630.872900
20
489.656210
11
632.369725
21
488.563563
0
LINE
8
Layer 1
10
632.369725
20
488.563563
11
633.666459
21
487.417173
0
LINE
8
Layer 1
10
633.666459
20
487.417173
11
634.774678
21
486.199677
0
LINE
8
Layer 1
10
634.774678
20
486.199677
11
635.705958
21
484.893712
0
LINE
8
Layer 1
10
635.705958
20
484.893712
11
636.471872
21
483.481916
0
LINE
8
Layer 1
10
636.471872
20
483.481916
11
637.083997
21
481.946925
0
LINE
8
Layer 1
10
637.083997
20
481.946925
11
637.553908
21
480.271378
0
LINE
8
Layer 1
10
637.553908
20
480.271378
11
637.893180
21
478.437910
0
LINE
8
Layer 1
10
637.893180
20
478.437910
11
638.073497
21
476.331923
0
LINE
8
Layer 1
10
638.073497
20
476.331923
11
638.032638
21
474.303243
0
LINE
8
Layer 1
10
638.032638
20
474.303243
11
637.771017
21
472.356418
0
LINE
8
Layer 1
10
637.771017
20
472.356418
11
637.289047
21
470.495997
0
LINE
8
Layer 1
10
637.289047
20
470.495997
11
636.587143
21
468.726528
0
LINE
8
Layer 1
10
636.587143
20
468.726528
11
635.665716
21
467.052558
0
LINE
8
Layer 1
10
635.665716
20
467.052558
11
634.525181
21
465.478636
0
LINE
8
Layer 1
10
634.525181
20
465.478636
11
633.165950
21
464.009310
0
LINE
8
Layer 1
10
633.165950
20
464.009310
11
630.620092
21
461.933019
0
LINE
8
Layer 1
10
630.620092
20
461.933019
11
627.721592
21
460.251122
0
LINE
8
Layer 1
10
627.721592
20
460.251122
11
624.435312
21
458.957833
0
LINE
8
Layer 1
10
624.435312
20
458.957833
11
620.726113
21
458.047362
0
LINE
8
Layer 1
10
620.726113
20
458.047362
11
616.558855
21
457.513924
0
LINE
8
Layer 1
10
616.558855
20
457.513924
11
611.898402
21
457.351729
0
LINE
8
Layer 1
10
611.898402
20
457.351729
11
606.709613
21
457.554990
0
LINE
8
Layer 1
10
606.709613
20
457.554990
11
600.957350
21
458.117920
0
LINE
8
Layer 1
10
600.957350
20
458.117920
11
597.564614
21
458.618424
0
LINE
8
Layer 1
10
597.564614
20
458.618424
11
593.950290
21
459.317365
0
LINE
8
Layer 1
10
593.950290
20
459.317365
11
590.514571
21
460.122138
0
LINE
8
Layer 1
10
590.514571
20
460.122138
11
587.657650
21
460.940140
0
LINE
8
Layer 1
10
587.657650
20
460.940140
11
585.964320
21
461.504585
0
LINE
8
Layer 1
10
585.964320
20
461.504585
11
585.964320
21
474.345685
0
LINE
8
Layer 1
10
585.964320
20
474.345685
11
585.964320
21
487.186785
0
LINE
8
Layer 1
10
585.964320
20
487.186785
11
564.092120
21
487.186785
0
LINE
8
Layer 1
10
564.092120
20
487.186785
11
542.219920
21
487.186785
0
LINE
8
Layer 1
10
542.219920
20
487.186785
11
542.219920
21
463.797585
0
LINE
8
Layer 1
10
542.219920
20
463.797585
11
542.219920
21
440.373085
0
LINE
8
Layer 1
10
542.219920
20
440.373085
11
543.736870
21
439.773362
0
LINE
8
Layer 1
10
543.736870
20
439.773362
11
552.487084
21
436.448637
0
LINE
8
Layer 1
10
552.487084
20
436.448637
11
561.317911
21
433.614634
0
LINE
8
Layer 1
10
561.317911
20
433.614634
11
570.253742
21
431.265979
0
LINE
8
Layer 1
10
570.253742
20
431.265979
11
579.318970
21
429.397296
0
LINE
8
Layer 1
10
579.318970
20
429.397296
11
588.537985
21
428.003208
0
LINE
8
Layer 1
10
588.537985
20
428.003208
11
597.935179
21
427.078340
0
LINE
8
Layer 1
10
597.935179
20
427.078340
11
607.534944
21
426.617317
0
LINE
8
Layer 1
10
607.534944
20
426.617317
11
617.361670
21
426.614762
0
LINE
8
Layer 1
10
617.361670
20
426.614762
11
623.639462
21
426.824775
0
LINE
8
Layer 1
10
623.639462
20
426.824775
11
628.584410
21
427.130699
0
LINE
8
Layer 1
10
628.584410
20
427.130699
11
633.033263
21
427.601987
0
LINE
8
Layer 1
10
633.033263
20
427.601987
11
637.822770
21
428.308092
0
LINE
8
Layer 1
10
637.822770
20
428.308092
11
643.272482
21
429.336420
0
LINE
8
Layer 1
10
643.272482
20
429.336420
11
648.454974
21
430.594813
0
LINE
8
Layer 1
10
648.454974
20
430.594813
11
653.368437
21
432.081823
0
LINE
8
Layer 1
10
653.368437
20
432.081823
11
658.011064
21
433.796003
0
LINE
8
Layer 1
10
658.011064
20
433.796003
11
662.381044
21
435.735906
0
LINE
8
Layer 1
10
662.381044
20
435.735906
11
666.476569
21
437.900085
0
LINE
8
Layer 1
10
666.476569
20
437.900085
11
670.295831
21
440.287092
0
LINE
8
Layer 1
10
670.295831
20
440.287092
11
673.837020
21
442.895482
0
LINE
8
Layer 1
10
673.837020
20
442.895482
11
677.098328
21
445.723806
0
LINE
8
Layer 1
10
677.098328
20
445.723806
11
680.077946
21
448.770618
0
LINE
8
Layer 1
10
680.077946
20
448.770618
11
682.774065
21
452.034471
0
LINE
8
Layer 1
10
682.774065
20
452.034471
11
685.184876
21
455.513916
0
LINE
8
Layer 1
10
685.184876
20
455.513916
11
687.308571
21
459.207509
0
LINE
8
Layer 1
10
687.308571
20
459.207509
11
689.143341
21
463.113800
0
LINE
8
Layer 1
10
689.143341
20
463.113800
11
690.687377
21
467.231343
0
LINE
8
Layer 1
10
690.687377
20
467.231343
11
691.938870
21
471.558692
0
LINE
8
Layer 1
10
691.938870
20
471.558692
11
692.913418
21
475.946918
0
LINE
8
Layer 1
10
692.913418
20
475.946918
11
693.544008
21
480.153246
0
LINE
8
Layer 1
10
693.544008
20
480.153246
11
693.883556
21
484.630772
0
LINE
8
Layer 1
10
693.883556
20
484.630772
11
693.984980
21
489.832592
0
LINE
8
Layer 1
10
693.984980
20
489.832592
11
693.843869
21
496.279612
0
LINE
8
Layer 1
10
693.843869
20
496.279612
11
693.279424
21
500.980392
0
LINE
8
Layer 1
10
693.279424
20
500.980392
11
692.536214
21
504.500107
0
LINE
8
Layer 1
10
692.536214
20
504.500107
11
691.600146
21
507.865619
0
LINE
8
Layer 1
10
691.600146
20
507.865619
11
690.466881
21
511.081478
0
LINE
8
Layer 1
10
690.466881
20
511.081478
11
689.132078
21
514.152229
0
LINE
8
Layer 1
10
689.132078
20
514.152229
11
687.591396
21
517.082422
0
LINE
8
Layer 1
10
687.591396
20
517.082422
11
685.840493
21
519.876602
0
LINE
8
Layer 1
10
685.840493
20
519.876602
11
683.875031
21
522.539318
0
LINE
8
Layer 1
10
683.875031
20
522.539318
11
681.690666
21
525.075117
0
LINE
8
Layer 1
10
681.690666
20
525.075117
11
679.283061
21
527.488546
0
LINE
8
Layer 1
10
679.283061
20
527.488546
11
676.647872
21
529.784154
0
LINE
8
Layer 1
10
676.647872
20
529.784154
11
673.780760
21
531.966486
0
LINE
8
Layer 1
10
673.780760
20
531.966486
11
670.677384
21
534.040092
0
LINE
8
Layer 1
10
670.677384
20
534.040092
11
667.333403
21
536.009518
0
LINE
8
Layer 1
10
667.333403
20
536.009518
11
663.744476
21
537.879312
0
LINE
8
Layer 1
10
663.744476
20
537.879312
11
659.906264
21
539.654020
0
LINE
8
Layer 1
10
659.906264
20
539.654020
11
655.814424
21
541.338192
0
LINE
8
Layer 1
10
655.814424
20
541.338192
11
651.136259
21
543.074520
0
LINE
8
Layer 1
10
651.136259
20
543.074520
11
645.958696
21
544.724859
0
LINE
8
Layer 1
10
645.958696
20
544.724859
11
629.144424
21
549.275692
0
LINE
8
Layer 1
10
629.144424
20
549.275692
11
616.556327
21
552.668425
0
LINE
8
Layer 1
10
616.556327
20
552.668425
11
612.054623
21
554.016491
0
LINE
8
Layer 1
10
612.054623
20
554.016491
11
608.502524
21
555.224409
0
LINE
8
Layer 1
10
608.502524
20
555.224409
11
605.716063
21
556.361219
0
LINE
8
Layer 1
10
605.716063
20
556.361219
11
603.511271
21
557.495960
0
LINE
8
Layer 1
10
603.511271
20
557.495960
11
601.704181
21
558.697671
0
LINE
8
Layer 1
10
601.704181
20
558.697671
11
600.110824
21
560.035392
0
LINE
8
Layer 1
10
600.110824
20
560.035392
11
598.279135
21
562.054493
0
LINE
8
Layer 1
10
598.279135
20
562.054493
11
597.019608
21
564.202581
0
LINE
8
Layer 1
10
597.019608
20
564.202581
11
596.256173
21
566.648326
0
LINE
8
Layer 1
10
596.256173
20
566.648326
11
595.912764
21
569.560402
0
LINE
8
Layer 1
10
595.912764
20
569.560402
11
595.999305
21
572.831867
0
LINE
8
Layer 1
10
595.999305
20
572.831867
11
596.578633
21
575.795754
0
LINE
8
Layer 1
10
596.578633
20
575.795754
11
597.654057
21
578.455370
0
LINE
8
Layer 1
10
597.654057
20
578.455370
11
599.228882
21
580.814021
0
LINE
8
Layer 1
10
599.228882
20
580.814021
11
601.306419
21
582.875013
0
LINE
8
Layer 1
10
601.306419
20
582.875013
11
603.889972
21
584.641653
0
LINE
8
Layer 1
10
603.889972
20
584.641653
11
606.982852
21
586.117247
0
LINE
8
Layer 1
10
606.982852
20
586.117247
11
610.588364
21
587.305102
0
LINE
8
Layer 1
10
610.588364
20
587.305102
11
612.681330
21
587.820489
0
LINE
8
Layer 1
10
612.681330
20
587.820489
11
614.711454
21
588.094443
0
LINE
8
Layer 1
10
614.711454
20
588.094443
11
622.300564
21
588.222325
0
LINE
8
Layer 1
10
622.300564
20
588.222325
11
628.203534
21
588.091687
0
LINE
8
Layer 1
10
628.203534
20
588.091687
11
633.038245
21
587.706388
0
LINE
8
Layer 1
10
633.038245
20
587.706388
11
637.337166
21
586.996975
0
LINE
8
Layer 1
10
637.337166
20
586.996975
11
641.632764
21
585.893995
0
LINE
8
Layer 1
10
641.632764
20
585.893995
11
644.172764
21
585.153161
0
LINE
8
Layer 1
10
644.172764
20
585.153161
11
644.172764
21
573.758461
0
LINE
8
Layer 1
10
644.172764
20
573.758461
11
644.172764
21
562.328461
0
LINE
8
Layer 1
10
644.172764
20
562.328461
11
665.868564
21
562.328461
0
LINE
8
Layer 1
10
665.868564
20
562.328461
11
687.564364
21
562.328461
0
LINE
8
Layer 1
10
687.564364
20
562.328461
11
687.564364
21
585.047361
0
LINE
8
Layer 1
10
687.564364
20
585.047361
11
687.564364
21
607.730961
0
LINE
8
Layer 1
10
687.564364
20
607.730961
11
683.260474
21
609.424291
0
LINE
8
Layer 1
10
683.260474
20
609.424291
11
675.220303
21
612.277178
0
LINE
8
Layer 1
10
675.220303
20
612.277178
11
666.875035
21
614.718724
0
LINE
8
Layer 1
10
666.875035
20
614.718724
11
658.273452
21
616.741072
0
LINE
8
Layer 1
10
658.273452
20
616.741072
11
649.464336
21
618.336367
0
LINE
8
Layer 1
10
649.464336
20
618.336367
11
640.496469
21
619.496753
0
LINE
8
Layer 1
10
640.496469
20
619.496753
11
631.418632
21
620.214373
0
LINE
8
Layer 1
10
631.418632
20
620.214373
11
622.279606
21
620.481371
0
LINE
8
Layer 1
10
622.279606
20
620.481371
11
613.128174
21
620.289891
0
LINE
8
Layer 1
10
613.128174
20
620.289891
11
613.128000
21
620.290000
0
LINE
8
Layer 1
10
703.439000
20
589.316000
11
703.439000
21
561.975700
0
LINE
8
Layer 1
10
703.439000
20
561.975700
11
716.809300
21
561.975700
0
LINE
8
Layer 1
10
716.809300
20
561.975700
11
728.204062
21
562.068304
0
LINE
8
Layer 1
10
728.204062
20
562.068304
11
729.945911
21
562.258473
0
LINE
8
Layer 1
10
729.945911
20
562.258473
11
730.267824
21
562.411229
0
LINE
8
Layer 1
10
730.267824
20
562.411229
11
730.391300
21
562.610700
0
LINE
8
Layer 1
10
730.391300
20
562.610700
11
731.837690
21
570.618760
0
LINE
8
Layer 1
10
731.837690
20
570.618760
11
733.128635
21
577.044829
0
LINE
8
Layer 1
10
733.128635
20
577.044829
11
733.830746
21
579.405826
0
LINE
8
Layer 1
10
733.830746
20
579.405826
11
734.624634
21
581.307935
0
LINE
8
Layer 1
10
734.624634
20
581.307935
11
735.550814
21
582.833010
0
LINE
8
Layer 1
10
735.550814
20
582.833010
11
736.649800
21
584.062904
0
LINE
8
Layer 1
10
736.649800
20
584.062904
11
737.962107
21
585.079469
0
LINE
8
Layer 1
10
737.962107
20
585.079469
11
739.528250
21
585.964560
0
LINE
8
Layer 1
10
739.528250
20
585.964560
11
742.020297
21
586.983758
0
LINE
8
Layer 1
10
742.020297
20
586.983758
11
744.859602
21
587.662305
0
LINE
8
Layer 1
10
744.859602
20
587.662305
11
748.472807
21
588.082882
0
LINE
8
Layer 1
10
748.472807
20
588.082882
11
753.286550
21
588.328170
0
LINE
8
Layer 1
10
753.286550
20
588.328170
11
759.883500
21
588.539837
0
LINE
8
Layer 1
10
759.883500
20
588.539837
11
759.883500
21
528.779237
0
LINE
8
Layer 1
10
759.883500
20
528.779237
11
759.786486
21
485.189125
0
LINE
8
Layer 1
10
759.786486
20
485.189125
11
759.530722
21
465.914237
0
LINE
8
Layer 1
10
759.530722
20
465.914237
11
759.202749
21
463.726462
0
LINE
8
Layer 1
10
759.202749
20
463.726462
11
758.706103
21
462.091006
0
LINE
8
Layer 1
10
758.706103
20
462.091006
11
757.977947
21
460.859040
0
LINE
8
Layer 1
10
757.977947
20
460.859040
11
756.955442
21
459.881737
0
LINE
8
Layer 1
10
756.955442
20
459.881737
11
756.221222
21
459.466672
0
LINE
8
Layer 1
10
756.221222
20
459.466672
11
754.971063
21
459.233507
0
LINE
8
Layer 1
10
754.971063
20
459.233507
11
748.382932
21
459.035070
0
LINE
8
Layer 1
10
748.382932
20
459.035070
11
740.833482
21
458.929237
0
LINE
8
Layer 1
10
740.833482
20
458.929237
11
740.833482
21
444.641737
0
LINE
8
Layer 1
10
740.833482
20
444.641737
11
740.833482
21
430.389537
0
LINE
8
Layer 1
10
740.833482
20
430.389537
11
788.105782
21
430.389537
0
LINE
8
Layer 1
10
788.105782
20
430.389537
11
835.378082
21
430.389537
0
LINE
8
Layer 1
10
835.378082
20
430.389537
11
835.378082
21
444.641737
0
LINE
8
Layer 1
10
835.378082
20
444.641737
11
835.378082
21
458.929237
0
LINE
8
Layer 1
10
835.378082
20
458.929237
11
827.828632
21
459.035070
0
LINE
8
Layer 1
10
827.828632
20
459.035070
11
822.816427
21
459.155786
0
LINE
8
Layer 1
10
822.816427
20
459.155786
11
821.191513
21
459.293659
0
LINE
8
Layer 1
10
821.191513
20
459.293659
11
820.010192
21
459.524550
0
LINE
8
Layer 1
10
820.010192
20
459.524550
11
819.164563
21
459.879465
0
LINE
8
Layer 1
10
819.164563
20
459.879465
11
818.546727
21
460.389409
0
LINE
8
Layer 1
10
818.546727
20
460.389409
11
817.562832
21
461.998410
0
LINE
8
Layer 1
10
817.562832
20
461.998410
11
817.329737
21
462.606607
0
LINE
8
Layer 1
10
817.329737
20
462.606607
11
817.153279
21
463.880811
0
LINE
8
Layer 1
10
817.153279
20
463.880811
11
816.932241
21
471.316165
0
LINE
8
Layer 1
10
816.932241
20
471.316165
11
816.751443
21
525.957110
0
LINE
8
Layer 1
10
816.751443
20
525.957110
11
816.680887
21
588.539910
0
LINE
8
Layer 1
10
816.680887
20
588.539910
11
824.159777
21
588.363521
0
LINE
8
Layer 1
10
824.159777
20
588.363521
11
831.156913
21
587.977118
0
LINE
8
Layer 1
10
831.156913
20
587.977118
11
833.849742
21
587.619999
0
LINE
8
Layer 1
10
833.849742
20
587.619999
11
836.110140
21
587.124387
0
LINE
8
Layer 1
10
836.110140
20
587.124387
11
838.016655
21
586.468370
0
LINE
8
Layer 1
10
838.016655
20
586.468370
11
839.647835
21
585.630039
0
LINE
8
Layer 1
10
839.647835
20
585.630039
11
841.082227
21
584.587483
0
LINE
8
Layer 1
10
841.082227
20
584.587483
11
842.398377
21
583.318791
0
LINE
8
Layer 1
10
842.398377
20
583.318791
11
843.893273
21
581.344339
0
LINE
8
Layer 1
10
843.893273
20
581.344339
11
844.477010
21
580.226888
0
LINE
8
Layer 1
10
844.477010
20
580.226888
11
844.991295
21
578.900251
0
LINE
8
Layer 1
10
844.991295
20
578.900251
11
845.930568
21
575.252308
0
LINE
8
Layer 1
10
845.930568
20
575.252308
11
846.949217
21
569.666291
0
LINE
8
Layer 1
10
846.949217
20
569.666291
11
848.254497
21
561.975731
0
LINE
8
Layer 1
10
848.254497
20
561.975731
11
861.730597
21
561.975731
0
LINE
8
Layer 1
10
861.730597
20
561.975731
11
875.241997
21
561.975731
0
LINE
8
Layer 1
10
875.241997
20
561.975731
11
875.241997
21
589.316031
0
LINE
8
Layer 1
10
875.241997
20
589.316031
11
875.241997
21
616.656331
0
LINE
8
Layer 1
10
875.241997
20
616.656331
11
789.340597
21
616.656331
0
LINE
8
Layer 1
10
789.340597
20
616.656331
11
703.439197
21
616.656331
0
LINE
8
Layer 1
10
703.439197
20
616.656331
11
703.439197
21
589.316031
0
LINE
8
Layer 1
10
703.439197
20
589.316031
11
703.439000
21
589.316000
0
LINE
8
Layer 1
10
884.414000
20
602.404000
11
884.414000
21
588.151800
0
LINE
8
Layer 1
10
884.414000
20
588.151800
11
890.693450
21
588.010689
0
LINE
8
Layer 1
10
890.693450
20
588.010689
11
895.096009
21
587.829339
0
LINE
8
Layer 1
10
895.096009
20
587.829339
11
896.575265
21
587.661563
0
LINE
8
Layer 1
10
896.575265
20
587.661563
11
897.682864
21
587.406557
0
LINE
8
Layer 1
10
897.682864
20
587.406557
11
898.501075
21
587.037449
0
LINE
8
Layer 1
10
898.501075
20
587.037449
11
899.112167
21
586.527368
0
LINE
8
Layer 1
10
899.112167
20
586.527368
11
899.598409
21
585.849442
0
LINE
8
Layer 1
10
899.598409
20
585.849442
11
900.042070
21
584.976799
0
LINE
8
Layer 1
10
900.042070
20
584.976799
11
900.818182
21
583.318739
0
LINE
8
Layer 1
10
900.818182
20
583.318739
11
900.818182
21
523.346439
0
LINE
8
Layer 1
10
900.818182
20
523.346439
11
900.729987
21
470.963301
0
LINE
8
Layer 1
10
900.729987
20
470.963301
11
900.520526
21
463.830016
0
LINE
8
Layer 1
10
900.520526
20
463.830016
11
900.345515
21
462.598535
0
LINE
8
Layer 1
10
900.345515
20
462.598535
11
900.112626
21
461.998339
0
LINE
8
Layer 1
10
900.112626
20
461.998339
11
899.140281
21
460.419108
0
LINE
8
Layer 1
10
899.140281
20
460.419108
11
898.544968
21
459.910405
0
LINE
8
Layer 1
10
898.544968
20
459.910405
11
897.757832
21
459.550943
0
LINE
8
Layer 1
10
897.757832
20
459.550943
11
896.689576
21
459.312197
0
LINE
8
Layer 1
10
896.689576
20
459.312197
11
895.250903
21
459.165641
0
LINE
8
Layer 1
10
895.250903
20
459.165641
11
890.905116
21
459.034999
0
LINE
8
Layer 1
10
890.905116
20
459.034999
11
884.413996
21
458.893888
0
LINE
8
Layer 1
10
884.413996
20
458.893888
11
884.413996
21
444.641688
0
LINE
8
Layer 1
10
884.413996
20
444.641688
11
884.413996
21
430.389488
0
LINE
8
Layer 1
10
884.413996
20
430.389488
11
966.611296
21
430.389488
0
LINE
8
Layer 1
10
966.611296
20
430.389488
11
1048.808596
21
430.389488
0
LINE
8
Layer 1
10
1048.808596
20
430.389488
11
1048.808596
21
456.847788
0
LINE
8
Layer 1
10
1048.808596
20
456.847788
11
1048.808596
21
483.306088
0
LINE
8
Layer 1
10
1048.808596
20
483.306088
11
1035.120796
21
483.306088
0
LINE
8
Layer 1
10
1035.120796
20
483.306088
11
1021.468296
21
483.306088
0
LINE
8
Layer 1
10
1021.468296
20
483.306088
11
1019.175236
21
477.414698
0
LINE
8
Layer 1
10
1019.175236
20
477.414698
11
1017.231580
21
472.575511
0
LINE
8
Layer 1
10
1017.231580
20
472.575511
11
1015.459490
21
468.698334
0
LINE
8
Layer 1
10
1015.459490
20
468.698334
11
1013.756027
21
465.670304
0
LINE
8
Layer 1
10
1013.756027
20
465.670304
11
1012.018251
21
463.378560
0
LINE
8
Layer 1
10
1012.018251
20
463.378560
11
1010.143224
21
461.710240
0
LINE
8
Layer 1
10
1010.143224
20
461.710240
11
1008.028005
21
460.552481
0
LINE
8
Layer 1
10
1008.028005
20
460.552481
11
1005.569655
21
459.792421
0
LINE
8
Layer 1
10
1005.569655
20
459.792421
11
1002.665236
21
459.317198
0
LINE
8
Layer 1
10
1002.665236
20
459.317198
11
994.630725
21
459.074663
0
LINE
8
Layer 1
10
994.630725
20
459.074663
11
979.558236
21
458.964420
0
LINE
8
Layer 1
10
979.558236
20
458.964420
11
959.555736
21
458.964420
0
LINE
8
Layer 1
10
959.555736
20
458.964420
11
959.626292
21
484.646620
0
LINE
8
Layer 1
10
959.626292
20
484.646620
11
959.732125
21
510.293620
0
LINE
8
Layer 1
10
959.732125
20
510.293620
11
968.551575
21
510.258342
0
LINE
8
Layer 1
10
968.551575
20
510.258342
11
975.532168
21
510.148099
0
LINE
8
Layer 1
10
975.532168
20
510.148099
11
977.664824
21
510.005334
0
LINE
8
Layer 1
10
977.664824
20
510.005334
11
978.887975
21
509.799731
0
LINE
8
Layer 1
10
978.887975
20
509.799731
11
980.404645
21
509.186091
0
LINE
8
Layer 1
10
980.404645
20
509.186091
11
981.681536
21
508.250816
0
LINE
8
Layer 1
10
981.681536
20
508.250816
11
982.730224
21
506.963314
0
LINE
8
Layer 1
10
982.730224
20
506.963314
11
983.562283
21
505.292990
0
LINE
8
Layer 1
10
983.562283
20
505.292990
11
984.189291
21
503.209253
0
LINE
8
Layer 1
10
984.189291
20
503.209253
11
984.622821
21
500.681509
0
LINE
8
Layer 1
10
984.622821
20
500.681509
11
984.874450
21
497.679166
0
LINE
8
Layer 1
10
984.874450
20
497.679166
11
984.955755
21
494.171631
0
LINE
8
Layer 1
10
984.955755
20
494.171631
11
984.955755
21
490.361631
0
LINE
8
Layer 1
10
984.955755
20
490.361631
11
997.479355
21
490.361631
0
LINE
8
Layer 1
10
997.479355
20
490.361631
11
1010.002955
21
490.361631
0
LINE
8
Layer 1
10
1010.002955
20
490.361631
11
1010.002955
21
523.699131
0
LINE
8
Layer 1
10
1010.002955
20
523.699131
11
1010.002955
21
557.036631
0
LINE
8
Layer 1
10
1010.002955
20
557.036631
11
997.514655
21
557.036631
0
LINE
8
Layer 1
10
997.514655
20
557.036631
11
985.061555
21
557.036631
0
LINE
8
Layer 1
10
985.061555
20
557.036631
11
984.849888
21
551.498021
0
LINE
8
Layer 1
10
984.849888
20
551.498021
11
984.599084
21
547.454302
0
LINE
8
Layer 1
10
984.599084
20
547.454302
11
984.166380
21
544.574750
0
LINE
8
Layer 1
10
984.166380
20
544.574750
11
983.475707
21
542.528634
0
LINE
8
Layer 1
10
983.475707
20
542.528634
11
982.450998
21
540.985221
0
LINE
8
Layer 1
10
982.450998
20
540.985221
11
981.771486
21
540.299234
0
LINE
8
Layer 1
10
981.771486
20
540.299234
11
981.010120
21
539.763728
0
LINE
8
Layer 1
10
981.010120
20
539.763728
11
980.058585
21
539.360513
0
LINE
8
Layer 1
10
980.058585
20
539.360513
11
978.808568
21
539.071400
0
LINE
8
Layer 1
10
978.808568
20
539.071400
11
974.979830
21
538.762718
0
LINE
8
Layer 1
10
974.979830
20
538.762718
11
968.657398
21
538.692161
0
LINE
8
Layer 1
10
968.657398
20
538.692161
11
959.555728
21
538.692161
0
LINE
8
Layer 1
10
959.555728
20
538.692161
11
959.626283
21
563.316061
0
LINE
8
Layer 1
10
959.626283
20
563.316061
11
959.732116
21
587.904661
0
LINE
8
Layer 1
10
959.732116
20
587.904661
11
978.958516
21
587.904661
0
LINE
8
Layer 1
10
978.958516
20
587.904661
11
991.013588
21
587.839618
0
LINE
8
Layer 1
10
991.013588
20
587.839618
11
998.193716
21
587.622439
0
LINE
8
Layer 1
10
998.193716
20
587.622439
11
1002.344369
21
587.140676
0
LINE
8
Layer 1
10
1002.344369
20
587.140676
11
1005.311016
21
586.281881
0
LINE
8
Layer 1
10
1005.311016
20
586.281881
11
1006.400769
21
585.811694
0
LINE
8
Layer 1
10
1006.400769
20
585.811694
11
1007.414455
21
585.192678
0
LINE
8
Layer 1
10
1007.414455
20
585.192678
11
1009.650186
21
583.177431
0
LINE
8
Layer 1
10
1009.650186
20
583.177431
11
1011.500067
21
581.076196
0
LINE
8
Layer 1
10
1011.500067
20
581.076196
11
1013.098592
21
578.538400
0
LINE
8
Layer 1
10
1013.098592
20
578.538400
11
1014.789722
21
574.942269
0
LINE
8
Layer 1
10
1014.789722
20
574.942269
11
1016.917416
21
569.666031
0
LINE
8
Layer 1
10
1016.917416
20
569.666031
11
1019.316306
21
563.386581
0
LINE
8
Layer 1
10
1019.316306
20
563.386581
11
1032.827706
21
563.386581
0
LINE
8
Layer 1
10
1032.827706
20
563.386581
11
1046.339106
21
563.386581
0
LINE
8
Layer 1
10
1046.339106
20
563.386581
11
1046.339106
21
590.021281
0
LINE
8
Layer 1
10
1046.339106
20
590.021281
11
1046.339106
21
616.655981
0
LINE
8
Layer 1
10
1046.339106
20
616.655981
11
965.376506
21
616.655981
0
LINE
8
Layer 1
10
965.376506
20
616.655981
11
884.413906
21
616.655981
0
LINE
8
Layer 1
10
884.413906
20
616.655981
11
884.413906
21
602.403781
0
LINE
8
Layer 1
10
884.413906
20
602.403781
11
884.414000
21
602.404000
0
LINE
8
Layer 1
10
1059.390000
20
602.404000
11
1059.390000
21
588.151800
0
LINE
8
Layer 1
10
1059.390000
20
588.151800
11
1066.727780
21
588.045967
0
LINE
8
Layer 1
10
1066.727780
20
588.045967
11
1071.693681
21
587.885563
0
LINE
8
Layer 1
10
1071.693681
20
587.885563
11
1073.357457
21
587.725366
0
LINE
8
Layer 1
10
1073.357457
20
587.725366
11
1074.599139
21
587.477112
0
LINE
8
Layer 1
10
1074.599139
20
587.477112
11
1075.511745
21
587.114756
0
LINE
8
Layer 1
10
1075.511745
20
587.114756
11
1076.188292
21
586.612253
0
LINE
8
Layer 1
10
1076.188292
20
586.612253
11
1076.721798
21
585.943558
0
LINE
8
Layer 1
10
1076.721798
20
585.943558
11
1077.205280
21
585.082627
0
LINE
8
Layer 1
10
1077.205280
20
585.082627
11
1077.438169
21
584.470434
0
LINE
8
Layer 1
10
1077.438169
20
584.470434
11
1077.613180
21
583.227786
0
LINE
8
Layer 1
10
1077.613180
20
583.227786
11
1077.822641
21
576.064734
0
LINE
8
Layer 1
10
1077.822641
20
576.064734
11
1077.910836
21
523.522827
0
LINE
8
Layer 1
10
1077.910836
20
523.522827
11
1077.822641
21
470.985377
0
LINE
8
Layer 1
10
1077.822641
20
470.985377
11
1077.613180
21
463.832802
0
LINE
8
Layer 1
10
1077.613180
20
463.832802
11
1077.438169
21
462.598896
0
LINE
8
Layer 1
10
1077.438169
20
462.598896
11
1077.205280
21
461.998327
0
LINE
8
Layer 1
10
1077.205280
20
461.998327
11
1076.221363
21
460.389328
0
LINE
8
Layer 1
10
1076.221363
20
460.389328
11
1075.603521
21
459.879385
0
LINE
8
Layer 1
10
1075.603521
20
459.879385
11
1074.757890
21
459.524471
0
LINE
8
Layer 1
10
1074.757890
20
459.524471
11
1073.576570
21
459.293580
0
LINE
8
Layer 1
10
1073.576570
20
459.293580
11
1071.951662
21
459.155707
0
LINE
8
Layer 1
10
1071.951662
20
459.155707
11
1066.939480
21
459.034987
0
LINE
8
Layer 1
10
1066.939480
20
459.034987
11
1059.390030
21
458.929154
0
LINE
8
Layer 1
10
1059.390030
20
458.929154
11
1059.390030
21
444.641654
0
LINE
8
Layer 1
10
1059.390030
20
444.641654
11
1059.390030
21
430.389454
0
LINE
8
Layer 1
10
1059.390030
20
430.389454
11
1095.197030
21
430.389454
0
LINE
8
Layer 1
10
1095.197030
20
430.389454
11
1131.004030
21
430.389454
0
LINE
8
Layer 1
10
1131.004030
20
430.389454
11
1131.004030
21
444.676954
0
LINE
8
Layer 1
10
1131.004030
20
444.676954
11
1131.004030
21
458.964454
0
LINE
8
Layer 1
10
1131.004030
20
458.964454
11
1124.407080
21
458.964454
0
LINE
8
Layer 1
10
1124.407080
20
458.964454
11
1119.943888
21
459.025088
0
LINE
8
Layer 1
10
1119.943888
20
459.025088
11
1117.144260
21
459.264316
0
LINE
8
Layer 1
10
1117.144260
20
459.264316
11
1115.462492
21
459.768128
0
LINE
8
Layer 1
10
1115.462492
20
459.768128
11
1114.352880
21
460.622514
0
LINE
8
Layer 1
10
1114.352880
20
460.622514
11
1113.705201
21
461.310432
0
LINE
8
Layer 1
10
1113.705201
20
461.310432
11
1113.226194
21
462.296007
0
LINE
8
Layer 1
10
1113.226194
20
462.296007
11
1112.889402
21
464.382911
0
LINE
8
Layer 1
10
1112.889402
20
464.382911
11
1112.668365
21
468.374816
0
LINE
8
Layer 1
10
1112.668365
20
468.374816
11
1112.467723
21
485.288325
0
LINE
8
Layer 1
10
1112.467723
20
485.288325
11
1112.412600
21
519.465914
0
LINE
8
Layer 1
10
1112.412600
20
519.465914
11
1112.456697
21
559.418026
0
LINE
8
Layer 1
10
1112.456697
20
559.418026
11
1112.541585
21
570.365175
0
LINE
8
Layer 1
10
1112.541585
20
570.365175
11
1112.596844
21
573.147433
0
LINE
8
Layer 1
10
1112.596844
20
573.147433
11
1112.659545
21
573.970114
0
LINE
8
Layer 1
10
1112.659545
20
573.970114
11
1132.944245
21
502.356214
0
LINE
8
Layer 1
10
1132.944245
20
502.356214
11
1153.087845
21
431.024514
0
LINE
8
Layer 1
10
1153.087845
20
431.024514
11
1153.230885
21
430.825043
0
LINE
8
Layer 1
10
1153.230885
20
430.825043
11
1153.643470
21
430.672287
0
LINE
8
Layer 1
10
1153.643470
20
430.672287
11
1155.971802
21
430.482118
0
LINE
8
Layer 1
10
1155.971802
20
430.482118
11
1171.502845
21
430.389514
0
LINE
8
Layer 1
10
1171.502845
20
430.389514
11
1189.741445
21
430.389514
0
LINE
8
Layer 1
10
1189.741445
20
430.389514
11
1209.144245
21
495.230114
0
LINE
8
Layer 1
10
1209.144245
20
495.230114
11
1230.804845
21
567.796514
0
LINE
8
Layer 1
10
1230.804845
20
567.796514
11
1233.133175
21
575.557634
0
LINE
8
Layer 1
10
1233.133175
20
575.557634
11
1233.239008
21
520.524234
0
LINE
8
Layer 1
10
1233.239008
20
520.524234
11
1233.230189
21
477.639684
0
LINE
8
Layer 1
10
1233.230189
20
477.639684
11
1233.129867
21
467.476912
0
LINE
8
Layer 1
10
1233.129867
20
467.476912
11
1232.956786
21
463.621134
0
LINE
8
Layer 1
10
1232.956786
20
463.621134
11
1232.451322
21
462.065604
0
LINE
8
Layer 1
10
1232.451322
20
462.065604
11
1231.691196
21
460.807730
0
LINE
8
Layer 1
10
1231.691196
20
460.807730
11
1230.699561
21
459.880586
0
LINE
8
Layer 1
10
1230.699561
20
459.880586
11
1229.499566
21
459.317244
0
LINE
8
Layer 1
10
1229.499566
20
459.317244
11
1226.950746
21
459.074709
0
LINE
8
Layer 1
10
1226.950746
20
459.074709
11
1222.655676
21
458.964466
0
LINE
8
Layer 1
10
1222.655676
20
458.964466
11
1217.081786
21
458.964466
0
LINE
8
Layer 1
10
1217.081786
20
458.964466
11
1217.081786
21
444.676966
0
LINE
8
Layer 1
10
1217.081786
20
444.676966
11
1217.081786
21
430.389466
0
LINE
8
Layer 1
10
1217.081786
20
430.389466
11
1262.590186
21
430.389466
0
LINE
8
Layer 1
10
1262.590186
20
430.389466
11
1308.098586
21
430.389466
0
LINE
8
Layer 1
10
1308.098586
20
430.389466
11
1308.098586
21
444.641666
0
LINE
8
Layer 1
10
1308.098586
20
444.641666
11
1308.098586
21
458.893866
0
LINE
8
Layer 1
10
1308.098586
20
458.893866
11
1301.607466
21
459.034977
0
LINE
8
Layer 1
10
1301.607466
20
459.034977
11
1297.261683
21
459.165615
0
LINE
8
Layer 1
10
1297.261683
20
459.165615
11
1295.823010
21
459.312170
0
LINE
8
Layer 1
10
1295.823010
20
459.312170
11
1294.754754
21
459.550915
0
LINE
8
Layer 1
10
1294.754754
20
459.550915
11
1293.967617
21
459.910377
0
LINE
8
Layer 1
10
1293.967617
20
459.910377
11
1293.372303
21
460.419081
0
LINE
8
Layer 1
10
1293.372303
20
460.419081
11
1292.399956
21
461.998317
0
LINE
8
Layer 1
10
1292.399956
20
461.998317
11
1292.167067
21
462.598865
0
LINE
8
Layer 1
10
1292.167067
20
462.598865
11
1291.992056
21
463.832761
0
LINE
8
Layer 1
10
1291.992056
20
463.832761
11
1291.782595
21
470.985337
0
LINE
8
Layer 1
10
1291.782595
20
470.985337
11
1291.694400
21
523.522817
0
LINE
8
Layer 1
10
1291.694400
20
523.522817
11
1291.694400
21
583.671417
0
LINE
8
Layer 1
10
1291.694400
20
583.671417
11
1292.505789
21
585.153087
0
LINE
8
Layer 1
10
1292.505789
20
585.153087
11
1292.975493
21
585.967508
0
LINE
8
Layer 1
10
1292.975493
20
585.967508
11
1293.485299
21
586.601682
0
LINE
8
Layer 1
10
1293.485299
20
586.601682
11
1294.114994
21
587.080412
0
LINE
8
Layer 1
10
1294.114994
20
587.080412
11
1294.944368
21
587.428505
0
LINE
8
Layer 1
10
1294.944368
20
587.428505
11
1297.521302
21
587.831993
0
LINE
8
Layer 1
10
1297.521302
20
587.831993
11
1301.854409
21
588.010587
0
LINE
8
Layer 1
10
1301.854409
20
588.010587
11
1308.098579
21
588.151698
0
LINE
8
Layer 1
10
1308.098579
20
588.151698
11
1308.098579
21
602.403898
0
LINE
8
Layer 1
10
1308.098579
20
602.403898
11
1308.098579
21
616.656098
0
LINE
8
Layer 1
10
1308.098579
20
616.656098
11
1259.697479
21
616.585542
0
LINE
8
Layer 1
10
1259.697479
20
616.585542
11
1211.261079
21
616.479709
0
LINE
8
Layer 1
10
1211.261079
20
616.479709
11
1198.067179
21
571.959109
0
LINE
8
Layer 1
10
1198.067179
20
571.959109
11
1188.678880
21
540.566284
0
LINE
8
Layer 1
10
1188.678880
20
540.566284
11
1184.661579
21
527.614909
0
LINE
8
Layer 1
10
1184.661579
20
527.614909
11
1180.719289
21
540.773522
0
LINE
8
Layer 1
10
1180.719289
20
540.773522
11
1171.538279
21
572.135509
0
LINE
8
Layer 1
10
1171.538279
20
572.135509
11
1158.661879
21
616.479709
0
LINE
8
Layer 1
10
1158.661879
20
616.479709
11
1109.025979
21
616.585542
0
LINE
8
Layer 1
10
1109.025979
20
616.585542
11
1059.390079
21
616.656098
0
LINE
8
Layer 1
10
1059.390079
20
616.656098
11
1059.390079
21
602.403898
0
LINE
8
Layer 1
10
1059.390079
20
602.403898
11
1059.390000
21
602.404000
0
LINE
8
Layer 1
10
300.532000
20
554.179000
11
299.985194
21
553.341151
0
LINE
8
Layer 1
10
299.985194
20
553.341151
11
299.967555
21
552.238720
0
LINE
8
Layer 1
10
299.967555
20
552.238720
11
300.054096
21
551.469773
0
LINE
8
Layer 1
10
300.054096
20
551.469773
11
299.924767
21
551.223587
0
LINE
8
Layer 1
10
299.924767
20
551.223587
11
299.575090
21
551.034865
0
LINE
8
Layer 1
10
299.575090
20
551.034865
11
297.898844
21
550.725634
0
LINE
8
Layer 1
10
297.898844
20
550.725634
11
294.393665
21
550.333720
0
LINE
8
Layer 1
10
294.393665
20
550.333720
11
290.641537
21
549.800143
0
LINE
8
Layer 1
10
290.641537
20
549.800143
11
286.390013
21
549.028440
0
LINE
8
Layer 1
10
286.390013
20
549.028440
11
277.460365
21
546.982330
0
LINE
8
Layer 1
10
277.460365
20
546.982330
11
269.822034
21
544.734057
0
LINE
8
Layer 1
10
269.822034
20
544.734057
11
262.523528
21
542.093041
0
LINE
8
Layer 1
10
262.523528
20
542.093041
11
255.573940
21
539.063416
0
LINE
8
Layer 1
10
255.573940
20
539.063416
11
248.982365
21
535.649320
0
LINE
8
Layer 1
10
248.982365
20
535.649320
11
242.757896
21
531.854887
0
LINE
8
Layer 1
10
242.757896
20
531.854887
11
236.909628
21
527.684254
0
LINE
8
Layer 1
10
236.909628
20
527.684254
11
231.446653
21
523.141557
0
LINE
8
Layer 1
10
231.446653
20
523.141557
11
226.378065
21
518.230930
0
LINE
8
Layer 1
10
226.378065
20
518.230930
11
223.362365
21
514.876227
0
LINE
8
Layer 1
10
223.362365
20
514.876227
11
220.164765
21
510.972505
0
LINE
8
Layer 1
10
220.164765
20
510.972505
11
217.304515
21
507.187846
0
LINE
8
Layer 1
10
217.304515
20
507.187846
11
215.300865
21
504.190330
0
LINE
8
Layer 1
10
215.300865
20
504.190330
11
214.467428
21
503.074670
0
LINE
8
Layer 1
10
214.467428
20
503.074670
11
214.135045
21
502.875680
0
LINE
8
Layer 1
10
214.135045
20
502.875680
11
213.819195
21
502.885050
0
LINE
8
Layer 1
10
213.819195
20
502.885050
11
210.926415
21
503.308384
0
LINE
8
Layer 1
10
210.926415
20
503.308384
11
209.330645
21
503.341250
0
LINE
8
Layer 1
10
209.330645
20
503.341250
11
207.810943
21
503.181053
0
LINE
8
Layer 1
10
207.810943
20
503.181053
11
206.387153
21
502.836474
0
LINE
8
Layer 1
10
206.387153
20
502.836474
11
205.079118
21
502.316196
0
LINE
8
Layer 1
10
205.079118
20
502.316196
11
203.906681
21
501.628899
0
LINE
8
Layer 1
10
203.906681
20
501.628899
11
202.889688
21
500.783265
0
LINE
8
Layer 1
10
202.889688
20
500.783265
11
202.047981
21
499.787976
0
LINE
8
Layer 1
10
202.047981
20
499.787976
11
201.401405
21
498.651714
0
LINE
8
Layer 1
10
201.401405
20
498.651714
11
200.974145
21
497.397974
0
LINE
8
Layer 1
10
200.974145
20
497.397974
11
200.748215
21
495.957372
0
LINE
8
Layer 1
10
200.748215
20
495.957372
11
200.719897
21
494.358020
0
LINE
8
Layer 1
10
200.719897
20
494.358020
11
200.885468
21
492.628029
0
LINE
8
Layer 1
10
200.885468
20
492.628029
11
201.241208
21
490.795511
0
LINE
8
Layer 1
10
201.241208
20
490.795511
11
201.783396
21
488.888579
0
LINE
8
Layer 1
10
201.783396
20
488.888579
11
202.508312
21
486.935342
0
LINE
8
Layer 1
10
202.508312
20
486.935342
11
203.412235
21
484.963914
0
LINE
8
Layer 1
10
203.412235
20
484.963914
11
204.646955
21
482.565024
0
LINE
8
Layer 1
10
204.646955
20
482.565024
11
203.588625
21
479.284184
0
LINE
8
Layer 1
10
203.588625
20
479.284184
11
201.957028
21
473.655168
0
LINE
8
Layer 1
10
201.957028
20
473.655168
11
200.563554
21
467.748334
0
LINE
8
Layer 1
10
200.563554
20
467.748334
11
199.421432
21
461.603375
0
LINE
8
Layer 1
10
199.421432
20
461.603375
11
198.543895
21
455.259984
0
LINE
8
Layer 1
10
198.543895
20
455.259984
11
198.177888
21
449.470567
0
LINE
8
Layer 1
10
198.177888
20
449.470567
11
198.129381
21
442.255705
0
LINE
8
Layer 1
10
198.129381
20
442.255705
11
198.385145
21
434.954858
0
LINE
8
Layer 1
10
198.385145
20
434.954858
11
198.931951
21
428.907484
0
LINE
8
Layer 1
10
198.931951
20
428.907484
11
200.192244
21
421.284937
0
LINE
8
Layer 1
10
200.192244
20
421.284937
11
201.888738
21
413.891832
0
LINE
8
Layer 1
10
201.888738
20
413.891832
11
204.010323
21
406.742636
0
LINE
8
Layer 1
10
204.010323
20
406.742636
11
206.545888
21
399.851821
0
LINE
8
Layer 1
10
206.545888
20
399.851821
11
209.484323
21
393.233857
0
LINE
8
Layer 1
10
209.484323
20
393.233857
11
212.814517
21
386.903211
0
LINE
8
Layer 1
10
212.814517
20
386.903211
11
216.525360
21
380.874356
0
LINE
8
Layer 1
10
216.525360
20
380.874356
11
220.605742
21
375.161759
0
LINE
8
Layer 1
10
220.605742
20
375.161759
11
225.044553
21
369.779891
0
LINE
8
Layer 1
10
225.044553
20
369.779891
11
229.830681
21
364.743222
0
LINE
8
Layer 1
10
229.830681
20
364.743222
11
234.953017
21
360.066222
0
LINE
8
Layer 1
10
234.953017
20
360.066222
11
240.400451
21
355.763359
0
LINE
8
Layer 1
10
240.400451
20
355.763359
11
246.161871
21
351.849104
0
LINE
8
Layer 1
10
246.161871
20
351.849104
11
252.226168
21
348.337927
0
LINE
8
Layer 1
10
252.226168
20
348.337927
11
258.582232
21
345.244297
0
LINE
8
Layer 1
10
258.582232
20
345.244297
11
265.218951
21
342.582684
0
LINE
8
Layer 1
10
265.218951
20
342.582684
11
267.807457
21
341.541987
0
LINE
8
Layer 1
10
267.807457
20
341.541987
11
268.887841
21
340.924624
0
LINE
8
Layer 1
10
268.887841
20
340.924624
11
268.576956
21
340.440657
0
LINE
8
Layer 1
10
268.576956
20
340.440657
11
267.697217
21
339.910388
0
LINE
8
Layer 1
10
267.697217
20
339.910388
11
266.486747
21
339.446265
0
LINE
8
Layer 1
10
266.486747
20
339.446265
11
265.183671
21
339.160734
0
LINE
8
Layer 1
10
265.183671
20
339.160734
11
263.636960
21
339.030647
0
LINE
8
Layer 1
10
263.636960
20
339.030647
11
262.573112
21
339.178373
0
LINE
8
Layer 1
10
262.573112
20
339.178373
11
261.959057
21
339.617143
0
LINE
8
Layer 1
10
261.959057
20
339.617143
11
261.761721
21
340.360184
0
LINE
8
Layer 1
10
261.761721
20
340.360184
11
261.607381
21
341.220079
0
LINE
8
Layer 1
10
261.607381
20
341.220079
11
261.267832
21
341.947684
0
LINE
8
Layer 1
10
261.267832
20
341.947684
11
260.988366
21
342.273453
0
LINE
8
Layer 1
10
260.988366
20
342.273453
11
260.804811
21
342.331330
0
LINE
8
Layer 1
10
260.804811
20
342.331330
11
260.526998
21
341.524350
0
LINE
8
Layer 1
10
260.526998
20
341.524350
11
260.482901
21
340.450031
0
LINE
8
Layer 1
10
260.482901
20
340.450031
11
260.809221
21
339.438550
0
LINE
8
Layer 1
10
260.809221
20
339.438550
11
261.479499
21
338.552747
0
LINE
8
Layer 1
10
261.479499
20
338.552747
11
262.467278
21
337.855460
0
LINE
8
Layer 1
10
262.467278
20
337.855460
11
263.914219
21
337.429370
0
LINE
8
Layer 1
10
263.914219
20
337.429370
11
265.734883
21
337.410078
0
LINE
8
Layer 1
10
265.734883
20
337.410078
11
267.800287
21
337.781046
0
LINE
8
Layer 1
10
267.800287
20
337.781046
11
269.981448
21
338.525738
0
LINE
8
Layer 1
10
269.981448
20
338.525738
11
271.750850
21
339.200980
0
LINE
8
Layer 1
10
271.750850
20
339.200980
11
273.288741
21
339.429735
0
LINE
8
Layer 1
10
273.288741
20
339.429735
11
275.130902
21
339.215311
0
LINE
8
Layer 1
10
275.130902
20
339.215311
11
277.813118
21
338.561016
0
LINE
8
Layer 1
10
277.813118
20
338.561016
11
283.059810
21
337.360742
0
LINE
8
Layer 1
10
283.059810
20
337.360742
11
288.585551
21
336.459780
0
LINE
8
Layer 1
10
288.585551
20
336.459780
11
294.348584
21
335.859781
0
LINE
8
Layer 1
10
294.348584
20
335.859781
11
300.307155
21
335.562401
0
LINE
8
Layer 1
10
300.307155
20
335.562401
11
306.419510
21
335.569291
0
LINE
8
Layer 1
10
306.419510
20
335.569291
11
312.643891
21
335.882107
0
LINE
8
Layer 1
10
312.643891
20
335.882107
11
318.938546
21
336.502500
0
LINE
8
Layer 1
10
318.938546
20
336.502500
11
325.261718
21
337.432126
0
LINE
8
Layer 1
10
325.261718
20
337.432126
11
331.661883
21
338.781503
0
LINE
8
Layer 1
10
331.661883
20
338.781503
11
339.156762
21
340.712963
0
LINE
8
Layer 1
10
339.156762
20
340.712963
11
345.745444
21
342.670880
0
LINE
8
Layer 1
10
345.745444
20
342.670880
11
348.074676
21
343.486126
0
LINE
8
Layer 1
10
348.074676
20
343.486126
11
349.427018
21
344.099626
0
LINE
8
Layer 1
10
349.427018
20
344.099626
11
350.705838
21
344.492092
0
LINE
8
Layer 1
10
350.705838
20
344.492092
11
352.778408
21
344.805182
0
LINE
8
Layer 1
10
352.778408
20
344.805182
11
358.075044
21
345.605547
0
LINE
8
Layer 1
10
358.075044
20
345.605547
11
363.718954
21
346.868934
0
LINE
8
Layer 1
10
363.718954
20
346.868934
11
368.311141
21
348.238155
0
LINE
8
Layer 1
10
368.311141
20
348.238155
11
369.775652
21
348.850832
0
LINE
8
Layer 1
10
369.775652
20
348.850832
11
370.452608
21
349.356022
0
LINE
8
Layer 1
10
370.452608
20
349.356022
11
370.699553
21
350.132134
0
LINE
8
Layer 1
10
370.699553
20
350.132134
11
367.524553
21
349.567689
0
LINE
8
Layer 1
10
367.524553
20
349.567689
11
361.236280
21
348.421161
0
LINE
8
Layer 1
10
361.236280
20
348.421161
11
358.604763
21
348.059564
0
LINE
8
Layer 1
10
358.604763
20
348.059564
11
357.435053
21
348.015469
0
LINE
8
Layer 1
10
357.435053
20
348.015469
11
357.845157
21
348.390295
0
LINE
8
Layer 1
10
357.845157
20
348.390295
11
359.022553
21
349.109079
0
LINE
8
Layer 1
10
359.022553
20
349.109079
11
363.895084
21
352.147928
0
LINE
8
Layer 1
10
363.895084
20
352.147928
11
368.739923
21
355.620032
0
LINE
8
Layer 1
10
368.739923
20
355.620032
11
373.502911
21
359.472474
0
LINE
8
Layer 1
10
373.502911
20
359.472474
11
378.129890
21
363.652338
0
LINE
8
Layer 1
10
378.129890
20
363.652338
11
382.566702
21
368.106706
0
LINE
8
Layer 1
10
382.566702
20
368.106706
11
386.759189
21
372.782663
0
LINE
8
Layer 1
10
386.759189
20
372.782663
11
390.653192
21
377.627293
0
LINE
8
Layer 1
10
390.653192
20
377.627293
11
394.194553
21
382.587679
0
LINE
8
Layer 1
10
394.194553
20
382.587679
11
398.272035
21
389.118348
0
LINE
8
Layer 1
10
398.272035
20
389.118348
11
401.903855
21
395.820169
0
LINE
8
Layer 1
10
401.903855
20
395.820169
11
405.087532
21
402.685702
0
LINE
8
Layer 1
10
405.087532
20
402.685702
11
407.820590
21
409.707504
0
LINE
8
Layer 1
10
407.820590
20
409.707504
11
410.100550
21
416.878134
0
LINE
8
Layer 1
10
410.100550
20
416.878134
11
411.924933
21
424.190151
0
LINE
8
Layer 1
10
411.924933
20
424.190151
11
413.291260
21
431.636113
0
LINE
8
Layer 1
10
413.291260
20
431.636113
11
414.197053
21
439.208579
0
LINE
8
Layer 1
10
414.197053
20
439.208579
11
414.426359
21
444.562544
0
LINE
8
Layer 1
10
414.426359
20
444.562544
11
414.391081
21
451.057531
0
LINE
8
Layer 1
10
414.391081
20
451.057531
11
414.117678
21
457.440067
0
LINE
8
Layer 1
10
414.117678
20
457.440067
11
413.632608
21
462.456679
0
LINE
8
Layer 1
10
413.632608
20
462.456679
11
413.209274
21
466.196129
0
LINE
8
Layer 1
10
413.209274
20
466.196129
11
415.184834
21
467.289739
0
LINE
8
Layer 1
10
415.184834
20
467.289739
11
417.078261
21
468.606455
0
LINE
8
Layer 1
10
417.078261
20
468.606455
11
417.760184
21
469.342483
0
LINE
8
Layer 1
10
417.760184
20
469.342483
11
418.267234
21
470.124089
0
LINE
8
Layer 1
10
418.267234
20
470.124089
11
418.600651
21
470.946622
0
LINE
8
Layer 1
10
418.600651
20
470.946622
11
418.761675
21
471.805433
0
LINE
8
Layer 1
10
418.761675
20
471.805433
11
418.751546
21
472.695868
0
LINE
8
Layer 1
10
418.751546
20
472.695868
11
418.571505
21
473.613279
0
LINE
8
Layer 1
10
418.571505
20
473.613279
11
417.706648
21
475.510420
0
LINE
8
Layer 1
10
417.706648
20
475.510420
11
416.177024
21
477.459649
0
LINE
8
Layer 1
10
416.177024
20
477.459649
11
413.992555
21
479.423758
0
LINE
8
Layer 1
10
413.992555
20
479.423758
11
411.163164
21
481.365539
0
LINE
8
Layer 1
10
411.163164
20
481.365539
11
408.764274
21
482.811929
0
LINE
8
Layer 1
10
408.764274
20
482.811929
11
407.070944
21
486.939429
0
LINE
8
Layer 1
10
407.070944
20
486.939429
11
403.721415
21
494.502594
0
LINE
8
Layer 1
10
403.721415
20
494.502594
11
399.953103
21
501.744535
0
LINE
8
Layer 1
10
399.953103
20
501.744535
11
395.820162
21
508.592079
0
LINE
8
Layer 1
10
395.820162
20
508.592079
11
391.376746
21
514.972054
0
LINE
8
Layer 1
10
391.376746
20
514.972054
11
386.677012
21
520.811288
0
LINE
8
Layer 1
10
386.677012
20
520.811288
11
381.775114
21
526.036610
0
LINE
8
Layer 1
10
381.775114
20
526.036610
11
379.265276
21
528.396188
0
LINE
8
Layer 1
10
379.265276
20
528.396188
11
376.725206
21
530.574848
0
LINE
8
Layer 1
10
376.725206
20
530.574848
11
374.161672
21
532.563443
0
LINE
8
Layer 1
10
374.161672
20
532.563443
11
371.581444
21
534.352829
0
LINE
8
Layer 1
10
371.581444
20
534.352829
11
368.963169
21
535.905602
0
LINE
8
Layer 1
10
368.963169
20
535.905602
11
365.663588
21
537.673351
0
LINE
8
Layer 1
10
365.663588
20
537.673351
11
362.721184
21
539.130214
0
LINE
8
Layer 1
10
362.721184
20
539.130214
11
361.174444
21
539.750329
0
LINE
8
Layer 1
10
361.174444
20
539.750329
11
360.967187
21
539.618037
0
LINE
8
Layer 1
10
360.967187
20
539.618037
11
360.892222
21
539.326995
0
LINE
8
Layer 1
10
360.892222
20
539.326995
11
361.765349
21
538.564112
0
LINE
8
Layer 1
10
361.765349
20
538.564112
11
363.855562
21
537.351435
0
LINE
8
Layer 1
10
363.855562
20
537.351435
11
366.832822
21
535.709691
0
LINE
8
Layer 1
10
366.832822
20
535.709691
11
369.781142
21
533.845014
0
LINE
8
Layer 1
10
369.781142
20
533.845014
11
372.694734
21
531.764329
0
LINE
8
Layer 1
10
372.694734
20
531.764329
11
375.567812
21
529.474560
0
LINE
8
Layer 1
10
375.567812
20
529.474560
11
378.394586
21
526.982633
0
LINE
8
Layer 1
10
378.394586
20
526.982633
11
381.169270
21
524.295471
0
LINE
8
Layer 1
10
381.169270
20
524.295471
11
383.886074
21
521.420001
0
LINE
8
Layer 1
10
383.886074
20
521.420001
11
386.539212
21
518.363146
0
LINE
8
Layer 1
10
386.539212
20
518.363146
11
389.122895
21
515.131831
0
LINE
8
Layer 1
10
389.122895
20
515.131831
11
391.631335
21
511.732982
0
LINE
8
Layer 1
10
391.631335
20
511.732982
11
394.058745
21
508.173522
0
LINE
8
Layer 1
10
394.058745
20
508.173522
11
396.399337
21
504.460377
0
LINE
8
Layer 1
10
396.399337
20
504.460377
11
398.647322
21
500.600470
0
LINE
8
Layer 1
10
398.647322
20
500.600470
11
400.796914
21
496.600728
0
LINE
8
Layer 1
10
400.796914
20
496.600728
11
402.842323
21
492.468075
0
LINE
8
Layer 1
10
402.842323
20
492.468075
11
404.777762
21
488.209435
0
LINE
8
Layer 1
10
404.777762
20
488.209435
11
406.400542
21
484.223045
0
LINE
8
Layer 1
10
406.400542
20
484.223045
11
405.446939
21
484.544403
0
LINE
8
Layer 1
10
405.446939
20
484.544403
11
403.137344
21
485.656204
0
LINE
8
Layer 1
10
403.137344
20
485.656204
11
397.757482
21
488.597495
0
LINE
8
Layer 1
10
397.757482
20
488.597495
11
395.005812
21
490.043885
0
LINE
8
Layer 1
10
395.005812
20
490.043885
11
394.066541
21
491.380031
0
LINE
8
Layer 1
10
394.066541
20
491.380031
11
392.359972
21
494.594725
0
LINE
8
Layer 1
10
392.359972
20
494.594725
11
390.187561
21
498.706995
0
LINE
8
Layer 1
10
390.187561
20
498.706995
11
387.713775
21
502.813895
0
LINE
8
Layer 1
10
387.713775
20
502.813895
11
384.971272
21
506.873669
0
LINE
8
Layer 1
10
384.971272
20
506.873669
11
381.992711
21
510.844562
0
LINE
8
Layer 1
10
381.992711
20
510.844562
11
378.810751
21
514.684820
0
LINE
8
Layer 1
10
378.810751
20
514.684820
11
375.458052
21
518.352686
0
LINE
8
Layer 1
10
375.458052
20
518.352686
11
371.967273
21
521.806406
0
LINE
8
Layer 1
10
371.967273
20
521.806406
11
368.371072
21
525.004225
0
LINE
8
Layer 1
10
368.371072
20
525.004225
11
367.568502
21
525.758287
0
LINE
8
Layer 1
10
367.568502
20
525.758287
11
367.242182
21
526.274225
0
LINE
8
Layer 1
10
367.242182
20
526.274225
11
367.775759
21
526.918045
0
LINE
8
Layer 1
10
367.775759
20
526.918045
11
369.076632
21
527.932285
0
LINE
8
Layer 1
10
369.076632
20
527.932285
11
370.518611
21
529.122911
0
LINE
8
Layer 1
10
370.518611
20
529.122911
11
370.550032
21
529.430491
0
LINE
8
Layer 1
10
370.550032
20
529.430491
11
370.240802
21
529.731455
0
LINE
8
Layer 1
10
370.240802
20
529.731455
11
369.626748
21
530.099667
0
LINE
8
Layer 1
10
369.626748
20
530.099667
11
369.111913
21
530.190066
0
LINE
8
Layer 1
10
369.111913
20
530.190066
11
368.623535
21
529.989423
0
LINE
8
Layer 1
10
368.623535
20
529.989423
11
368.088852
21
529.484510
0
LINE
8
Layer 1
10
368.088852
20
529.484510
11
367.160604
21
528.589886
0
LINE
8
Layer 1
10
367.160604
20
528.589886
11
366.779163
21
528.424728
0
LINE
8
Layer 1
10
366.779163
20
528.424728
11
366.404337
21
528.465864
0
LINE
8
Layer 1
10
366.404337
20
528.465864
11
365.529007
21
529.221582
0
LINE
8
Layer 1
10
365.529007
20
529.221582
11
364.243572
21
530.966180
0
LINE
8
Layer 1
10
364.243572
20
530.966180
11
360.433572
21
535.975630
0
LINE
8
Layer 1
10
360.433572
20
535.975630
11
357.871521
21
539.119765
0
LINE
8
Layer 1
10
357.871521
20
539.119765
11
357.773612
21
539.336324
0
LINE
8
Layer 1
10
357.773612
20
539.336324
11
357.839000
21
539.413562
0
LINE
8
Layer 1
10
357.839000
20
539.413562
11
358.352182
21
539.327020
0
LINE
8
Layer 1
10
358.352182
20
539.327020
11
358.846072
21
539.283474
0
LINE
8
Layer 1
10
358.846072
20
539.283474
11
359.101836
21
539.454902
0
LINE
8
Layer 1
10
359.101836
20
539.454902
11
359.106246
21
539.818155
0
LINE
8
Layer 1
10
359.106246
20
539.818155
11
358.846071
21
540.350080
0
LINE
8
Layer 1
10
358.846071
20
540.350080
11
357.889161
21
540.976262
0
LINE
8
Layer 1
10
357.889161
20
540.976262
11
355.953291
21
541.867030
0
LINE
8
Layer 1
10
355.953291
20
541.867030
11
353.461797
21
543.137032
0
LINE
8
Layer 1
10
353.461797
20
543.137032
11
351.367181
21
544.830370
0
LINE
8
Layer 1
10
351.367181
20
544.830370
11
349.755219
21
546.292882
0
LINE
8
Layer 1
10
349.755219
20
546.292882
11
348.089099
21
547.561092
0
LINE
8
Layer 1
10
348.089099
20
547.561092
11
346.360968
21
548.639131
0
LINE
8
Layer 1
10
346.360968
20
548.639131
11
344.562968
21
549.531136
0
LINE
8
Layer 1
10
344.562968
20
549.531136
11
342.687246
21
550.241240
0
LINE
8
Layer 1
10
342.687246
20
550.241240
11
340.725944
21
550.773577
0
LINE
8
Layer 1
10
340.725944
20
550.773577
11
338.671207
21
551.132283
0
LINE
8
Layer 1
10
338.671207
20
551.132283
11
336.515181
21
551.321490
0
LINE
8
Layer 1
10
336.515181
20
551.321490
11
333.509952
21
551.275739
0
LINE
8
Layer 1
10
333.509952
20
551.275739
11
330.544412
21
550.981940
0
LINE
8
Layer 1
10
330.544412
20
550.981940
11
328.280019
21
550.522777
0
LINE
8
Layer 1
10
328.280019
20
550.522777
11
327.617458
21
550.257021
0
LINE
8
Layer 1
10
327.617458
20
550.257021
11
327.378231
21
549.980930
0
LINE
8
Layer 1
10
327.378231
20
549.980930
11
327.723292
21
549.727922
0
LINE
8
Layer 1
10
327.723292
20
549.727922
11
328.577676
21
549.570825
0
LINE
8
Layer 1
10
328.577676
20
549.570825
11
329.670185
21
549.539406
0
LINE
8
Layer 1
10
329.670185
20
549.539406
11
330.729621
21
549.663430
0
LINE
8
Layer 1
10
330.729621
20
549.663430
11
332.558003
21
549.883365
0
LINE
8
Layer 1
10
332.558003
20
549.883365
11
334.905631
21
549.914784
0
LINE
8
Layer 1
10
334.905631
20
549.914784
11
337.352476
21
549.767609
0
LINE
8
Layer 1
10
337.352476
20
549.767609
11
339.478511
21
549.451763
0
LINE
8
Layer 1
10
339.478511
20
549.451763
11
341.947405
21
548.737939
0
LINE
8
Layer 1
10
341.947405
20
548.737939
11
344.465910
21
547.683464
0
LINE
8
Layer 1
10
344.465910
20
547.683464
11
346.766133
21
546.410708
0
LINE
8
Layer 1
10
346.766133
20
546.410708
11
348.580181
21
545.042043
0
LINE
8
Layer 1
10
348.580181
20
545.042043
11
350.132401
21
543.630933
0
LINE
8
Layer 1
10
350.132401
20
543.630933
11
348.192121
21
544.371767
0
LINE
8
Layer 1
10
348.192121
20
544.371767
11
344.876011
21
545.606487
0
LINE
8
Layer 1
10
344.876011
20
545.606487
11
343.464901
21
546.135654
0
LINE
8
Layer 1
10
343.464901
20
546.135654
11
344.241013
21
545.288987
0
LINE
8
Layer 1
10
344.241013
20
545.288987
11
345.912297
21
544.248290
0
LINE
8
Layer 1
10
345.912297
20
544.248290
11
348.827123
21
542.890097
0
LINE
8
Layer 1
10
348.827123
20
542.890097
11
350.917884
21
541.999885
0
LINE
8
Layer 1
10
350.917884
20
541.999885
11
352.376952
21
541.218813
0
LINE
8
Layer 1
10
352.376952
20
541.218813
11
353.604507
21
540.285605
0
LINE
8
Layer 1
10
353.604507
20
540.285605
11
355.000733
21
538.938987
0
LINE
8
Layer 1
10
355.000733
20
538.938987
11
358.102424
21
535.551217
0
LINE
8
Layer 1
10
358.102424
20
535.551217
11
361.108202
21
531.918708
0
LINE
8
Layer 1
10
361.108202
20
531.918708
11
363.300385
21
528.947664
0
LINE
8
Layer 1
10
363.300385
20
528.947664
11
363.867104
21
527.993379
0
LINE
8
Layer 1
10
363.867104
20
527.993379
11
363.961293
21
527.544287
0
LINE
8
Layer 1
10
363.961293
20
527.544287
11
362.656013
21
527.923523
0
LINE
8
Layer 1
10
362.656013
20
527.923523
11
359.763233
21
529.096507
0
LINE
8
Layer 1
10
359.763233
20
529.096507
11
352.072673
21
532.165677
0
LINE
8
Layer 1
10
352.072673
20
532.165677
11
349.338644
21
533.228422
0
LINE
8
Layer 1
10
349.338644
20
533.228422
11
347.980453
21
533.894287
0
LINE
8
Layer 1
10
347.980453
20
533.894287
11
347.477744
21
535.437689
0
LINE
8
Layer 1
10
347.477744
20
535.437689
11
346.816283
21
538.621517
0
LINE
8
Layer 1
10
346.816283
20
538.621517
11
346.053400
21
541.977317
0
LINE
8
Layer 1
10
346.053400
20
541.977317
11
345.759601
21
542.704370
0
LINE
8
Layer 1
10
345.759601
20
542.704370
11
345.475723
21
542.925407
0
LINE
8
Layer 1
10
345.475723
20
542.925407
11
345.208384
21
542.854851
0
LINE
8
Layer 1
10
345.208384
20
542.854851
11
345.083258
21
542.599087
0
LINE
8
Layer 1
10
345.083258
20
542.599087
11
345.193501
21
541.267347
0
LINE
8
Layer 1
10
345.193501
20
541.267347
11
345.700620
21
536.804704
0
LINE
8
Layer 1
10
345.700620
20
536.804704
11
345.757946
21
534.458727
0
LINE
8
Layer 1
10
345.757946
20
534.458727
11
341.559886
21
535.764007
0
LINE
8
Layer 1
10
341.559886
20
535.764007
11
337.573496
21
537.104567
0
LINE
8
Layer 1
10
337.573496
20
537.104567
11
335.915436
21
535.340677
0
LINE
8
Layer 1
10
335.915436
20
535.340677
11
333.128486
21
532.200957
0
LINE
8
Layer 1
10
333.128486
20
532.200957
11
332.034876
21
530.825127
0
LINE
8
Layer 1
10
332.034876
20
530.825127
11
329.353766
21
531.812905
0
LINE
8
Layer 1
10
329.353766
20
531.812905
11
327.152761
21
532.688785
0
LINE
8
Layer 1
10
327.152761
20
532.688785
11
326.571296
21
533.045077
0
LINE
8
Layer 1
10
326.571296
20
533.045077
11
326.324283
21
533.395995
0
LINE
8
Layer 1
10
326.324283
20
533.395995
11
326.403038
21
533.778332
0
LINE
8
Layer 1
10
326.403038
20
533.778332
11
326.798880
21
534.228882
0
LINE
8
Layer 1
10
326.798880
20
534.228882
11
328.507099
21
535.481795
0
LINE
8
Layer 1
10
328.507099
20
535.481795
11
331.277508
21
537.194975
0
LINE
8
Layer 1
10
331.277508
20
537.194975
11
334.795364
21
539.133050
0
LINE
8
Layer 1
10
334.795364
20
539.133050
11
338.379362
21
540.938832
0
LINE
8
Layer 1
10
338.379362
20
540.938832
11
341.348199
21
542.255135
0
LINE
8
Layer 1
10
341.348199
20
542.255135
11
343.535419
21
543.066524
0
LINE
8
Layer 1
10
343.535419
20
543.066524
11
342.300699
21
544.548194
0
LINE
8
Layer 1
10
342.300699
20
544.548194
11
341.532303
21
545.426282
0
LINE
8
Layer 1
10
341.532303
20
545.426282
11
340.651459
21
545.990176
0
LINE
8
Layer 1
10
340.651459
20
545.990176
11
339.175303
21
546.468079
0
LINE
8
Layer 1
10
339.175303
20
546.468079
11
336.620969
21
547.088194
0
LINE
8
Layer 1
10
336.620969
20
547.088194
11
329.050027
21
548.750662
0
LINE
8
Layer 1
10
329.050027
20
548.750662
11
322.381981
21
549.883961
0
LINE
8
Layer 1
10
322.381981
20
549.883961
11
315.998355
21
550.580697
0
LINE
8
Layer 1
10
315.998355
20
550.580697
11
309.280669
21
550.933474
0
LINE
8
Layer 1
10
309.280669
20
550.933474
11
302.877749
21
551.220107
0
LINE
8
Layer 1
10
302.877749
20
551.220107
11
302.007932
21
551.484140
0
LINE
8
Layer 1
10
302.007932
20
551.484140
11
301.766499
21
551.956534
0
LINE
8
Layer 1
10
301.766499
20
551.956534
11
301.691534
21
552.644451
0
LINE
8
Layer 1
10
301.691534
20
552.644451
11
301.801777
21
553.120704
0
LINE
8
Layer 1
10
301.801777
20
553.120704
11
302.296217
21
553.421116
0
LINE
8
Layer 1
10
302.296217
20
553.421116
11
303.164381
21
553.486711
0
LINE
8
Layer 1
10
303.164381
20
553.486711
11
304.197910
21
553.334024
0
LINE
8
Layer 1
10
304.197910
20
553.334024
11
305.188447
21
552.979593
0
LINE
8
Layer 1
10
305.188447
20
552.979593
11
305.931484
21
552.685795
0
LINE
8
Layer 1
10
305.931484
20
552.685795
11
306.502544
21
552.640044
0
LINE
8
Layer 1
10
306.502544
20
552.640044
11
306.795793
21
552.825804
0
LINE
8
Layer 1
10
306.795793
20
552.825804
11
306.705397
21
553.226538
0
LINE
8
Layer 1
10
306.705397
20
553.226538
11
306.043387
21
553.744129
0
LINE
8
Layer 1
10
306.043387
20
553.744129
11
304.875361
21
554.298099
0
LINE
8
Layer 1
10
304.875361
20
554.298099
11
303.555200
21
554.739621
0
LINE
8
Layer 1
10
303.555200
20
554.739621
11
302.436787
21
554.919868
0
LINE
8
Layer 1
10
302.436787
20
554.919868
11
301.391682
21
554.721430
0
LINE
8
Layer 1
10
301.391682
20
554.721430
11
300.531787
21
554.179034
0
LINE
8
Layer 1
10
300.531787
20
554.179034
11
300.532000
21
554.179000
0
LINE
8
Layer 1
10
316.971500
20
548.993160
11
317.327034
21
548.831102
0
LINE
8
Layer 1
10
317.327034
20
548.831102
11
317.064105
21
548.702118
0
LINE
8
Layer 1
10
317.064105
20
548.702118
11
314.325670
21
548.463993
0
LINE
8
Layer 1
10
314.325670
20
548.463993
11
310.864036
21
548.142083
0
LINE
8
Layer 1
10
310.864036
20
548.142083
11
307.799280
21
547.687881
0
LINE
8
Layer 1
10
307.799280
20
547.687881
11
305.779073
21
547.313606
0
LINE
8
Layer 1
10
305.779073
20
547.313606
11
304.760978
21
547.233679
0
LINE
8
Layer 1
10
304.760978
20
547.233679
11
304.291893
21
547.504326
0
LINE
8
Layer 1
10
304.291893
20
547.504326
11
303.918720
21
548.181770
0
LINE
8
Layer 1
10
303.918720
20
548.181770
11
303.574762
21
549.090172
0
LINE
8
Layer 1
10
303.574762
20
549.090172
11
303.700439
21
549.283096
0
LINE
8
Layer 1
10
303.700439
20
549.283096
11
304.024553
21
549.416490
0
LINE
8
Layer 1
10
304.024553
20
549.416490
11
306.265796
21
549.519016
0
LINE
8
Layer 1
10
306.265796
20
549.519016
11
310.392199
21
549.442948
0
LINE
8
Layer 1
10
310.392199
20
549.442948
11
314.571530
21
549.247818
0
LINE
8
Layer 1
10
314.571530
20
549.247818
11
316.971553
21
548.993156
0
LINE
8
Layer 1
10
316.971553
20
548.993156
11
316.971500
21
548.993160
0
LINE
8
Layer 1
10
302.119500
20
548.040659
11
302.683945
21
546.841209
0
LINE
8
Layer 1
10
302.683945
20
546.841209
11
302.106271
21
546.435514
0
LINE
8
Layer 1
10
302.106271
20
546.435514
11
300.708385
21
545.923986
0
LINE
8
Layer 1
10
300.708385
20
545.923986
11
295.181900
21
543.969927
0
LINE
8
Layer 1
10
295.181900
20
543.969927
11
288.934426
21
541.218812
0
LINE
8
Layer 1
10
288.934426
20
541.218812
11
282.779557
21
538.050984
0
LINE
8
Layer 1
10
282.779557
20
538.050984
11
277.530885
21
534.846786
0
LINE
8
Layer 1
10
277.530885
20
534.846786
11
273.509210
21
531.941882
0
LINE
8
Layer 1
10
273.509210
20
531.941882
11
269.540444
21
528.699631
0
LINE
8
Layer 1
10
269.540444
20
528.699631
11
265.307098
21
524.835608
0
LINE
8
Layer 1
10
265.307098
20
524.835608
11
260.491685
21
520.065386
0
LINE
8
Layer 1
10
260.491685
20
520.065386
11
254.106405
21
513.574266
0
LINE
8
Layer 1
10
254.106405
20
513.574266
11
252.448345
21
515.796766
0
LINE
8
Layer 1
10
252.448345
20
515.796766
11
249.696676
21
519.906629
0
LINE
8
Layer 1
10
249.696676
20
519.906629
11
247.262505
21
524.333996
0
LINE
8
Layer 1
10
247.262505
20
524.333996
11
246.239445
21
525.992056
0
LINE
8
Layer 1
10
246.239445
20
525.992056
11
245.943993
21
525.758341
0
LINE
8
Layer 1
10
245.943993
20
525.758341
11
245.569167
21
525.180667
0
LINE
8
Layer 1
10
245.569167
20
525.180667
11
245.447349
21
524.408689
0
LINE
8
Layer 1
10
245.447349
20
524.408689
11
245.659567
21
523.264640
0
LINE
8
Layer 1
10
245.659567
20
523.264640
11
246.159520
21
521.839470
0
LINE
8
Layer 1
10
246.159520
20
521.839470
11
246.900905
21
520.224130
0
LINE
8
Layer 1
10
246.900905
20
520.224130
11
248.922764
21
516.786738
0
LINE
8
Layer 1
10
248.922764
20
516.786738
11
250.110634
21
515.146588
0
LINE
8
Layer 1
10
250.110634
20
515.146588
11
251.354727
21
513.680067
0
LINE
8
Layer 1
10
251.354727
20
513.680067
11
252.906947
21
512.022007
0
LINE
8
Layer 1
10
252.906947
20
512.022007
11
251.107777
21
509.764227
0
LINE
8
Layer 1
10
251.107777
20
509.764227
11
248.353695
21
506.033118
0
LINE
8
Layer 1
10
248.353695
20
506.033118
11
245.690976
21
502.041146
0
LINE
8
Layer 1
10
245.690976
20
502.041146
11
243.144841
21
497.835026
0
LINE
8
Layer 1
10
243.144841
20
497.835026
11
240.740507
21
493.461472
0
LINE
8
Layer 1
10
240.740507
20
493.461472
11
238.503195
21
488.967200
0
LINE
8
Layer 1
10
238.503195
20
488.967200
11
236.458123
21
484.398925
0
LINE
8
Layer 1
10
236.458123
20
484.398925
11
234.630510
21
479.803362
0
LINE
8
Layer 1
10
234.630510
20
479.803362
11
233.045577
21
475.227227
0
LINE
8
Layer 1
10
233.045577
20
475.227227
11
231.852745
21
471.248002
0
LINE
8
Layer 1
10
231.852745
20
471.248002
11
230.646685
21
466.703230
0
LINE
8
Layer 1
10
230.646685
20
466.703230
11
229.652293
21
462.522256
0
LINE
8
Layer 1
10
229.652293
20
462.522256
11
229.094467
21
459.634427
0
LINE
8
Layer 1
10
229.094467
20
459.634427
11
228.847523
21
458.351195
0
LINE
8
Layer 1
10
228.847523
20
458.351195
11
228.600578
21
457.729427
0
LINE
8
Layer 1
10
228.600578
20
457.729427
11
228.051360
21
457.946055
0
LINE
8
Layer 1
10
228.051360
20
457.946055
11
226.945277
21
458.774532
0
LINE
8
Layer 1
10
226.945277
20
458.774532
11
223.613177
21
461.751099
0
LINE
8
Layer 1
10
223.613177
20
461.751099
11
219.705602
21
465.627255
0
LINE
8
Layer 1
10
219.705602
20
465.627255
11
216.323878
21
469.371127
0
LINE
8
Layer 1
10
216.323878
20
469.371127
11
213.325268
21
472.898907
0
LINE
8
Layer 1
10
213.325268
20
472.898907
11
211.854073
21
474.826507
0
LINE
8
Layer 1
10
211.854073
20
474.826507
11
209.890093
21
477.736373
0
LINE
8
Layer 1
10
209.890093
20
477.736373
11
208.170853
21
480.494104
0
LINE
8
Layer 1
10
208.170853
20
480.494104
11
207.433878
21
481.965297
0
LINE
8
Layer 1
10
207.433878
20
481.965297
11
208.046278
21
484.299148
0
LINE
8
Layer 1
10
208.046278
20
484.299148
11
209.607872
21
488.306492
0
LINE
8
Layer 1
10
209.607872
20
488.306492
11
211.705248
21
492.988514
0
LINE
8
Layer 1
10
211.705248
20
492.988514
11
213.924998
21
497.346397
0
LINE
8
Layer 1
10
213.924998
20
497.346397
11
215.724168
21
500.662507
0
LINE
8
Layer 1
10
215.724168
20
500.662507
11
217.064728
21
500.486118
0
LINE
8
Layer 1
10
217.064728
20
500.486118
11
218.713965
21
499.992229
0
LINE
8
Layer 1
10
218.713965
20
499.992229
11
220.839448
21
499.075008
0
LINE
8
Layer 1
10
220.839448
20
499.075008
11
222.942886
21
498.157783
0
LINE
8
Layer 1
10
222.942886
20
498.157783
11
223.493551
21
498.112584
0
LINE
8
Layer 1
10
223.493551
20
498.112584
11
223.908618
21
498.298896
0
LINE
8
Layer 1
10
223.908618
20
498.298896
11
224.166036
21
498.564031
0
LINE
8
Layer 1
10
224.166036
20
498.564031
11
224.089417
21
498.832473
0
LINE
8
Layer 1
10
224.089417
20
498.832473
11
222.603338
21
499.710006
0
LINE
8
Layer 1
10
222.603338
20
499.710006
11
218.652228
21
501.438616
0
LINE
8
Layer 1
10
218.652228
20
501.438616
11
216.606118
21
502.214728
0
LINE
8
Layer 1
10
216.606118
20
502.214728
11
217.911398
21
504.296118
0
LINE
8
Layer 1
10
217.911398
20
504.296118
11
220.427858
21
508.106148
0
LINE
8
Layer 1
10
220.427858
20
508.106148
11
223.183372
21
511.780734
0
LINE
8
Layer 1
10
223.183372
20
511.780734
11
226.170602
21
515.315069
0
LINE
8
Layer 1
10
226.170602
20
515.315069
11
229.382209
21
518.704349
0
LINE
8
Layer 1
10
229.382209
20
518.704349
11
232.810856
21
521.943767
0
LINE
8
Layer 1
10
232.810856
20
521.943767
11
236.449206
21
525.028518
0
LINE
8
Layer 1
10
236.449206
20
525.028518
11
240.289920
21
527.953795
0
LINE
8
Layer 1
10
240.289920
20
527.953795
11
244.325661
21
530.714793
0
LINE
8
Layer 1
10
244.325661
20
530.714793
11
248.549090
21
533.306706
0
LINE
8
Layer 1
10
248.549090
20
533.306706
11
252.952870
21
535.724727
0
LINE
8
Layer 1
10
252.952870
20
535.724727
11
257.529663
21
537.964052
0
LINE
8
Layer 1
10
257.529663
20
537.964052
11
262.272131
21
540.019874
0
LINE
8
Layer 1
10
262.272131
20
540.019874
11
267.172936
21
541.887388
0
LINE
8
Layer 1
10
267.172936
20
541.887388
11
272.224741
21
543.561787
0
LINE
8
Layer 1
10
272.224741
20
543.561787
11
277.420208
21
545.038265
0
LINE
8
Layer 1
10
277.420208
20
545.038265
11
282.751998
21
546.312018
0
LINE
8
Layer 1
10
282.751998
20
546.312018
11
292.281427
21
548.009762
0
LINE
8
Layer 1
10
292.281427
20
548.009762
11
296.776587
21
548.628777
0
LINE
8
Layer 1
10
296.776587
20
548.628777
11
299.720598
21
548.887298
0
LINE
8
Layer 1
10
299.720598
20
548.887298
11
301.316917
21
548.755006
0
LINE
8
Layer 1
10
301.316917
20
548.755006
11
301.754583
21
548.490423
0
LINE
8
Layer 1
10
301.754583
20
548.490423
11
302.119488
21
548.040631
0
LINE
8
Layer 1
10
302.119488
20
548.040631
11
302.119500
21
548.040659
0
LINE
8
Layer 1
10
327.202000
20
546.453159
11
332.513517
21
545.953758
0
LINE
8
Layer 1
10
332.513517
20
545.953758
11
336.700560
21
545.341908
0
LINE
8
Layer 1
10
336.700560
20
545.341908
11
339.445623
21
544.677142
0
LINE
8
Layer 1
10
339.445623
20
544.677142
11
340.178191
21
544.343518
0
LINE
8
Layer 1
10
340.178191
20
544.343518
11
340.431200
21
544.018989
0
LINE
8
Layer 1
10
340.431200
20
544.018989
11
338.495329
21
542.832772
0
LINE
8
Layer 1
10
338.495329
20
542.832772
11
333.834250
21
540.455929
0
LINE
8
Layer 1
10
333.834250
20
540.455929
11
328.546990
21
537.818915
0
LINE
8
Layer 1
10
328.546990
20
537.818915
11
325.191190
21
535.975649
0
LINE
8
Layer 1
10
325.191190
20
535.975649
11
323.502264
21
535.137801
0
LINE
8
Layer 1
10
323.502264
20
535.137801
11
322.894273
21
534.973539
0
LINE
8
Layer 1
10
322.894273
20
534.973539
11
322.474800
21
534.987871
0
LINE
8
Layer 1
10
322.474800
20
534.987871
11
320.149223
21
536.202751
0
LINE
8
Layer 1
10
320.149223
20
536.202751
11
316.014556
21
538.674403
0
LINE
8
Layer 1
10
316.014556
20
538.674403
11
311.635137
21
541.437096
0
LINE
8
Layer 1
10
311.635137
20
541.437096
11
308.575300
21
543.525101
0
LINE
8
Layer 1
10
308.575300
20
543.525101
11
307.055598
21
544.715727
0
LINE
8
Layer 1
10
307.055598
20
544.715727
11
306.757735
21
545.085317
0
LINE
8
Layer 1
10
306.757735
20
545.085317
11
306.815820
21
545.350727
0
LINE
8
Layer 1
10
306.815820
20
545.350727
11
307.265819
21
545.546684
0
LINE
8
Layer 1
10
307.265819
20
545.546684
11
308.143699
21
545.707915
0
LINE
8
Layer 1
10
308.143699
20
545.707915
11
311.326970
21
546.065101
0
LINE
8
Layer 1
10
311.326970
20
546.065101
11
315.881112
21
546.512688
0
LINE
8
Layer 1
10
315.881112
20
546.512688
11
319.555515
21
546.708921
0
LINE
8
Layer 1
10
319.555515
20
546.708921
11
323.084396
21
546.680258
0
LINE
8
Layer 1
10
323.084396
20
546.680258
11
327.201970
21
546.453157
0
LINE
8
Layer 1
10
327.201970
20
546.453157
11
327.202000
21
546.453159
0
LINE
8
Layer 1
10
308.152000
20
541.972879
11
311.427320
21
539.420202
0
LINE
8
Layer 1
10
311.427320
20
539.420202
11
315.172276
21
536.817914
0
LINE
8
Layer 1
10
315.172276
20
536.817914
11
318.599744
21
534.685261
0
LINE
8
Layer 1
10
318.599744
20
534.685261
11
320.922600
21
533.541489
0
LINE
8
Layer 1
10
320.922600
20
533.541489
11
315.101760
21
527.544259
0
LINE
8
Layer 1
10
315.101760
20
527.544259
11
310.803373
21
523.036417
0
LINE
8
Layer 1
10
310.803373
20
523.036417
11
306.696807
21
518.363205
0
LINE
8
Layer 1
10
306.696807
20
518.363205
11
302.868068
21
513.623845
0
LINE
8
Layer 1
10
302.868068
20
513.623845
11
299.403160
21
508.917559
0
LINE
8
Layer 1
10
299.403160
20
508.917559
11
296.386909
21
504.798875
0
LINE
8
Layer 1
10
296.386909
20
504.798875
11
296.083464
21
504.556753
0
LINE
8
Layer 1
10
296.083464
20
504.556753
11
295.851126
21
504.522163
0
LINE
8
Layer 1
10
295.851126
20
504.522163
11
295.381490
21
504.860609
0
LINE
8
Layer 1
10
295.381490
20
504.860609
11
294.165714
21
505.758885
0
LINE
8
Layer 1
10
294.165714
20
505.758885
11
292.746126
21
506.490555
0
LINE
8
Layer 1
10
292.746126
20
506.490555
11
291.170268
21
507.047765
0
LINE
8
Layer 1
10
291.170268
20
507.047765
11
289.485681
21
507.422660
0
LINE
8
Layer 1
10
289.485681
20
507.422660
11
287.739908
21
507.607386
0
LINE
8
Layer 1
10
287.739908
20
507.607386
11
285.980491
21
507.594088
0
LINE
8
Layer 1
10
285.980491
20
507.594088
11
284.254971
21
507.374910
0
LINE
8
Layer 1
10
284.254971
20
507.374910
11
282.610890
21
506.941999
0
LINE
8
Layer 1
10
282.610890
20
506.941999
11
280.436897
21
506.029185
0
LINE
8
Layer 1
10
280.436897
20
506.029185
11
278.448110
21
504.931169
0
LINE
8
Layer 1
10
278.448110
20
504.931169
11
276.906912
21
503.703612
0
LINE
8
Layer 1
10
276.906912
20
503.703612
11
275.299567
21
502.095715
0
LINE
8
Layer 1
10
275.299567
20
502.095715
11
273.864202
21
500.362143
0
LINE
8
Layer 1
10
273.864202
20
500.362143
11
272.838940
21
498.757559
0
LINE
8
Layer 1
10
272.838940
20
498.757559
11
272.309773
21
497.734499
0
LINE
8
Layer 1
10
272.309773
20
497.734499
11
271.180883
21
498.440055
0
LINE
8
Layer 1
10
271.180883
20
498.440055
11
266.811944
21
501.649776
0
LINE
8
Layer 1
10
266.811944
20
501.649776
11
261.602948
21
506.046813
0
LINE
8
Layer 1
10
261.602948
20
506.046813
11
257.240620
21
510.132970
0
LINE
8
Layer 1
10
257.240620
20
510.132970
11
255.904057
21
511.591284
0
LINE
8
Layer 1
10
255.904057
20
511.591284
11
255.411683
21
512.410055
0
LINE
8
Layer 1
10
255.411683
20
512.410055
11
255.930998
21
513.137455
0
LINE
8
Layer 1
10
255.930998
20
513.137455
11
257.356925
21
514.617679
0
LINE
8
Layer 1
10
257.356925
20
514.617679
11
262.136521
21
519.117260
0
LINE
8
Layer 1
10
262.136521
20
519.117260
11
268.166272
21
524.470113
0
LINE
8
Layer 1
10
268.166272
20
524.470113
11
273.861983
21
529.237555
0
LINE
8
Layer 1
10
273.861983
20
529.237555
11
277.025965
21
531.632037
0
LINE
8
Layer 1
10
277.025965
20
531.632037
11
280.626517
21
534.158810
0
LINE
8
Layer 1
10
280.626517
20
534.158810
11
284.081552
21
536.420998
0
LINE
8
Layer 1
10
284.081552
20
536.420998
11
286.808983
21
538.021725
0
LINE
8
Layer 1
10
286.808983
20
538.021725
11
288.925653
21
539.291725
0
LINE
8
Layer 1
10
288.925653
20
539.291725
11
289.949327
21
539.886762
0
LINE
8
Layer 1
10
289.949327
20
539.886762
11
291.677867
21
540.665355
0
LINE
8
Layer 1
10
291.677867
20
540.665355
11
296.338391
21
542.449090
0
LINE
8
Layer 1
10
296.338391
20
542.449090
11
301.084920
21
543.994700
0
LINE
8
Layer 1
10
301.084920
20
543.994700
11
302.920968
21
544.475637
0
LINE
8
Layer 1
10
302.920968
20
544.475637
11
304.095153
21
544.653955
0
LINE
8
Layer 1
10
304.095153
20
544.653955
11
304.684403
21
544.488039
0
LINE
8
Layer 1
10
304.684403
20
544.488039
11
305.554773
21
543.988087
0
LINE
8
Layer 1
10
305.554773
20
543.988087
11
308.152103
21
541.972845
0
LINE
8
Layer 1
10
308.152103
20
541.972845
11
308.152000
21
541.972879
0
LINE
8
Layer 1
10
327.519500
20
530.683979
11
330.835610
21
529.343419
0
LINE
8
Layer 1
10
330.835610
20
529.343419
11
329.706720
21
527.226749
0
LINE
8
Layer 1
10
329.706720
20
527.226749
11
328.387662
21
524.739666
0
LINE
8
Layer 1
10
328.387662
20
524.739666
11
327.515089
21
522.305501
0
LINE
8
Layer 1
10
327.515089
20
522.305501
11
327.032776
21
519.686136
0
LINE
8
Layer 1
10
327.032776
20
519.686136
11
326.884500
21
516.643449
0
LINE
8
Layer 1
10
326.884500
20
516.643449
11
326.955056
21
513.552234
0
LINE
8
Layer 1
10
326.955056
20
513.552234
11
327.102781
21
512.987238
0
LINE
8
Layer 1
10
327.102781
20
512.987238
11
327.343111
21
512.868729
0
LINE
8
Layer 1
10
327.343111
20
512.868729
11
331.329501
21
513.186229
0
LINE
8
Layer 1
10
331.329501
20
513.186229
11
333.798946
21
513.424354
0
LINE
8
Layer 1
10
333.798946
20
513.424354
11
334.325908
21
513.563260
0
LINE
8
Layer 1
10
334.325908
20
513.563260
11
334.363391
21
513.715396
0
LINE
8
Layer 1
10
334.363391
20
513.715396
11
334.294489
21
513.841073
0
LINE
8
Layer 1
10
334.294489
20
513.841073
11
334.500093
21
513.900605
0
LINE
8
Layer 1
10
334.500093
20
513.900605
11
335.668671
21
513.821229
0
LINE
8
Layer 1
10
335.668671
20
513.821229
11
341.313121
21
513.292062
0
LINE
8
Layer 1
10
341.313121
20
513.292062
11
345.687571
21
512.868728
0
LINE
8
Layer 1
10
345.687571
20
512.868728
11
345.831791
21
512.578539
0
LINE
8
Layer 1
10
345.831791
20
512.578539
11
345.935136
21
511.782488
0
LINE
8
Layer 1
10
345.935136
20
511.782488
11
346.027671
21
508.881783
0
LINE
8
Layer 1
10
346.027671
20
508.881783
11
345.815453
21
499.308816
0
LINE
8
Layer 1
10
345.815453
20
499.308816
11
345.186517
21
487.493505
0
LINE
8
Layer 1
10
345.186517
20
487.493505
11
344.276461
21
476.779528
0
LINE
8
Layer 1
10
344.276461
20
476.779528
11
343.782572
21
473.145918
0
LINE
8
Layer 1
10
343.782572
20
473.145918
11
341.784411
21
473.423730
0
LINE
8
Layer 1
10
341.784411
20
473.423730
11
337.057726
21
474.363000
0
LINE
8
Layer 1
10
337.057726
20
474.363000
11
325.438072
21
476.955918
0
LINE
8
Layer 1
10
325.438072
20
476.955918
11
316.659988
21
479.300791
0
LINE
8
Layer 1
10
316.659988
20
479.300791
11
308.235772
21
481.903633
0
LINE
8
Layer 1
10
308.235772
20
481.903633
11
300.360556
21
484.704918
0
LINE
8
Layer 1
10
300.360556
20
484.704918
11
293.229472
21
487.645118
0
LINE
8
Layer 1
10
293.229472
20
487.645118
11
290.023601
21
489.184113
0
LINE
8
Layer 1
10
290.023601
20
489.184113
11
289.682399
21
489.545161
0
LINE
8
Layer 1
10
289.682399
20
489.545161
11
289.913362
21
489.797068
0
LINE
8
Layer 1
10
289.913362
20
489.797068
11
290.442529
21
490.158665
0
LINE
8
Layer 1
10
290.442529
20
490.158665
11
290.654196
21
490.467346
0
LINE
8
Layer 1
10
290.654196
20
490.467346
11
290.846019
21
490.911075
0
LINE
8
Layer 1
10
290.846019
20
490.911075
11
291.262738
21
491.318424
0
LINE
8
Layer 1
10
291.262738
20
491.318424
11
291.745603
21
491.573637
0
LINE
8
Layer 1
10
291.745603
20
491.573637
11
292.135866
21
491.560956
0
LINE
8
Layer 1
10
292.135866
20
491.560956
11
292.373991
21
491.481581
0
LINE
8
Layer 1
10
292.373991
20
491.481581
11
292.347533
21
491.666789
0
LINE
8
Layer 1
10
292.347533
20
491.666789
11
292.326587
21
492.204224
0
LINE
8
Layer 1
10
292.326587
20
492.204224
11
292.576839
21
492.950017
0
LINE
8
Layer 1
10
292.576839
20
492.950017
11
292.932924
21
493.556903
0
LINE
8
Layer 1
10
292.932924
20
493.556903
11
293.098978
21
493.699737
0
LINE
8
Layer 1
10
293.098978
20
493.699737
11
293.229478
21
493.677619
0
LINE
8
Layer 1
10
293.229478
20
493.677619
11
293.614777
21
493.823141
0
LINE
8
Layer 1
10
293.614777
20
493.823141
11
294.168749
21
494.444912
0
LINE
8
Layer 1
10
294.168749
20
494.444912
11
294.623502
21
495.185744
0
LINE
8
Layer 1
10
294.623502
20
495.185744
11
294.711148
21
495.688449
0
LINE
8
Layer 1
10
294.711148
20
495.688449
11
294.680280
21
495.913345
0
LINE
8
Layer 1
10
294.680280
20
495.913345
11
294.887537
21
496.005949
0
LINE
8
Layer 1
10
294.887537
20
496.005949
11
295.504347
21
496.291479
0
LINE
8
Layer 1
10
295.504347
20
496.291479
11
296.329516
21
496.940812
0
LINE
8
Layer 1
10
296.329516
20
496.940812
11
297.015778
21
497.643060
0
LINE
8
Layer 1
10
297.015778
20
497.643060
11
297.215867
21
498.087339
0
LINE
8
Layer 1
10
297.215867
20
498.087339
11
297.332174
21
498.578473
0
LINE
8
Layer 1
10
297.332174
20
498.578473
11
297.908194
21
499.158904
0
LINE
8
Layer 1
10
297.908194
20
499.158904
11
298.649578
21
499.600427
0
LINE
8
Layer 1
10
298.649578
20
499.600427
11
299.261977
21
499.674839
0
LINE
8
Layer 1
10
299.261977
20
499.674839
11
299.740432
21
499.621371
0
LINE
8
Layer 1
10
299.740432
20
499.621371
11
299.808783
21
499.961471
0
LINE
8
Layer 1
10
299.808783
20
499.961471
11
299.480258
21
500.652145
0
LINE
8
Layer 1
10
299.480258
20
500.652145
11
298.768088
21
501.650399
0
LINE
8
Layer 1
10
298.768088
20
501.650399
11
297.639198
21
503.026229
0
LINE
8
Layer 1
10
297.639198
20
503.026229
11
300.038088
21
506.236509
0
LINE
8
Layer 1
10
300.038088
20
506.236509
11
305.501730
21
513.256796
0
LINE
8
Layer 1
10
305.501730
20
513.256796
11
311.256388
21
519.959609
0
LINE
8
Layer 1
10
311.256388
20
519.959609
11
315.019543
21
523.952611
0
LINE
8
Layer 1
10
315.019543
20
523.952611
11
318.951373
21
527.853003
0
LINE
8
Layer 1
10
318.951373
20
527.853003
11
322.175435
21
530.814122
0
LINE
8
Layer 1
10
322.175435
20
530.814122
11
323.248166
21
531.677874
0
LINE
8
Layer 1
10
323.248166
20
531.677874
11
323.815288
21
531.989309
0
LINE
8
Layer 1
10
323.815288
20
531.989309
11
325.085289
21
531.614482
0
LINE
8
Layer 1
10
325.085289
20
531.614482
11
327.519458
21
530.684029
0
LINE
8
Layer 1
10
327.519458
20
530.684029
11
327.519500
21
530.683979
0
LINE
8
Layer 1
10
339.619800
20
514.138679
11
339.337578
21
514.041665
0
LINE
8
Layer 1
10
339.337578
20
514.041665
11
338.949522
21
514.103401
0
LINE
8
Layer 1
10
338.949522
20
514.103401
11
338.804001
21
514.248922
0
LINE
8
Layer 1
10
338.804001
20
514.248922
11
339.161189
21
514.315068
0
LINE
8
Layer 1
10
339.161189
20
514.315068
11
339.588932
21
514.279790
0
LINE
8
Layer 1
10
339.588932
20
514.279790
11
339.619800
21
514.138679
0
LINE
8
Layer 1
10
339.619800
20
514.138679
11
339.619800
21
514.138679
0
LINE
8
Layer 1
10
341.948130
20
513.750623
11
341.066185
21
513.750623
0
LINE
8
Layer 1
10
341.066185
20
513.750623
11
341.000039
21
513.878505
0
LINE
8
Layer 1
10
341.000039
20
513.878505
11
341.489519
21
513.927012
0
LINE
8
Layer 1
10
341.489519
20
513.927012
11
341.983408
21
513.878505
0
LINE
8
Layer 1
10
341.983408
20
513.878505
11
341.948130
21
513.750623
0
LINE
8
Layer 1
10
341.948130
20
513.750623
11
341.948130
21
513.750623
0
LINE
8
Layer 1
10
328.895330
20
513.397845
11
328.013385
21
513.397845
0
LINE
8
Layer 1
10
328.013385
20
513.397845
11
327.947239
21
513.525727
0
LINE
8
Layer 1
10
327.947239
20
513.525727
11
328.436719
21
513.574234
0
LINE
8
Layer 1
10
328.436719
20
513.574234
11
328.930608
21
513.525727
0
LINE
8
Layer 1
10
328.930608
20
513.525727
11
328.895330
21
513.397845
0
LINE
8
Layer 1
10
328.895330
20
513.397845
11
328.895330
21
513.397845
0
LINE
8
Layer 1
10
352.072830
20
511.528125
11
354.154220
21
510.822569
0
LINE
8
Layer 1
10
354.154220
20
510.822569
11
356.623670
21
510.046457
0
LINE
8
Layer 1
10
356.623670
20
510.046457
11
357.576171
21
509.834790
0
LINE
8
Layer 1
10
357.576171
20
509.834790
11
358.175894
21
509.446734
0
LINE
8
Layer 1
10
358.175894
20
509.446734
11
358.634506
21
509.186560
0
LINE
8
Layer 1
10
358.634506
20
509.186560
11
358.775617
21
509.376178
0
LINE
8
Layer 1
10
358.775617
20
509.376178
11
358.546311
21
509.759825
0
LINE
8
Layer 1
10
358.546311
20
509.759825
11
357.999505
21
510.117012
0
LINE
8
Layer 1
10
357.999505
20
510.117012
11
357.510025
21
510.355138
0
LINE
8
Layer 1
10
357.510025
20
510.355138
11
357.787838
21
510.434512
0
LINE
8
Layer 1
10
357.787838
20
510.434512
11
358.272908
21
510.355137
0
LINE
8
Layer 1
10
358.272908
20
510.355137
11
358.599227
21
510.117012
0
LINE
8
Layer 1
10
358.599227
20
510.117012
11
358.872630
21
509.927394
0
LINE
8
Layer 1
10
358.872630
20
509.927394
11
359.198950
21
509.975901
0
LINE
8
Layer 1
10
359.198950
20
509.975901
11
359.397387
21
509.945033
0
LINE
8
Layer 1
10
359.397387
20
509.945033
11
359.304783
21
509.411456
0
LINE
8
Layer 1
10
359.304783
20
509.411456
11
359.212179
21
508.877880
0
LINE
8
Layer 1
10
359.212179
20
508.877880
11
359.410616
21
508.847011
0
LINE
8
Layer 1
10
359.410616
20
508.847011
11
359.736936
21
508.895518
0
LINE
8
Layer 1
10
359.736936
20
508.895518
11
360.010339
21
508.705900
0
LINE
8
Layer 1
10
360.010339
20
508.705900
11
360.336658
21
508.463366
0
LINE
8
Layer 1
10
360.336658
20
508.463366
11
360.821728
21
508.353122
0
LINE
8
Layer 1
10
360.821728
20
508.353122
11
361.148047
21
508.445727
0
LINE
8
Layer 1
10
361.148047
20
508.445727
11
360.680617
21
508.882289
0
LINE
8
Layer 1
10
360.680617
20
508.882289
11
360.252874
21
509.283574
0
LINE
8
Layer 1
10
360.252874
20
509.283574
11
360.962839
21
509.023400
0
LINE
8
Layer 1
10
360.962839
20
509.023400
11
361.593430
21
508.648574
0
LINE
8
Layer 1
10
361.593430
20
508.648574
11
361.774228
21
508.353122
0
LINE
8
Layer 1
10
361.774228
20
508.353122
11
362.047631
21
508.009164
0
LINE
8
Layer 1
10
362.047631
20
508.009164
11
362.903118
21
507.506455
0
LINE
8
Layer 1
10
362.903118
20
507.506455
11
363.930584
21
507.083122
0
LINE
8
Layer 1
10
363.930584
20
507.083122
11
364.019330
21
507.188955
0
LINE
8
Layer 1
10
364.019330
20
507.188955
11
363.926178
21
507.506455
0
LINE
8
Layer 1
10
363.926178
20
507.506455
11
363.842393
21
507.912150
0
LINE
8
Layer 1
10
363.842393
20
507.912150
11
364.208400
21
507.682844
0
LINE
8
Layer 1
10
364.208400
20
507.682844
11
364.530310
21
507.246282
0
LINE
8
Layer 1
10
364.530310
20
507.246282
11
364.561178
21
506.836177
0
LINE
8
Layer 1
10
364.561178
20
506.836177
11
364.790484
21
506.346698
0
LINE
8
Layer 1
10
364.790484
20
506.346698
11
365.548956
21
505.777847
0
LINE
8
Layer 1
10
365.548956
20
505.777847
11
366.488228
21
505.372153
0
LINE
8
Layer 1
10
366.488228
20
505.372153
11
366.744542
21
505.410738
0
LINE
8
Layer 1
10
366.744542
20
505.410738
11
366.924786
21
505.601458
0
LINE
8
Layer 1
10
366.924786
20
505.601458
11
367.176140
21
505.857222
0
LINE
8
Layer 1
10
367.176140
20
505.857222
11
367.242286
21
505.530903
0
LINE
8
Layer 1
10
367.242286
20
505.530903
11
367.453953
21
505.030399
0
LINE
8
Layer 1
10
367.453953
20
505.030399
11
367.956662
21
504.569582
0
LINE
8
Layer 1
10
367.956662
20
504.569582
11
368.551976
21
504.280745
0
LINE
8
Layer 1
10
368.551976
20
504.280745
11
369.041456
21
504.296183
0
LINE
8
Layer 1
10
369.041456
20
504.296183
11
369.261942
21
504.379967
0
LINE
8
Layer 1
10
369.261942
20
504.379967
11
369.323678
21
504.225627
0
LINE
8
Layer 1
10
369.323678
20
504.225627
11
369.332498
21
503.378961
0
LINE
8
Layer 1
10
369.332498
20
503.378961
11
369.442740
21
503.154066
0
LINE
8
Layer 1
10
369.442740
20
503.154066
11
369.605900
21
503.167297
0
LINE
8
Layer 1
10
369.605900
20
503.167297
11
369.888122
21
503.233443
0
LINE
8
Layer 1
10
369.888122
20
503.233443
11
370.276178
21
503.061464
0
LINE
8
Layer 1
10
370.276178
20
503.061464
11
370.703921
21
502.827749
0
LINE
8
Layer 1
10
370.703921
20
502.827749
11
371.158123
21
502.779242
0
LINE
8
Layer 1
10
371.158123
20
502.779242
11
371.484443
21
502.699867
0
LINE
8
Layer 1
10
371.484443
20
502.699867
11
371.652012
21
502.355908
0
LINE
8
Layer 1
10
371.652012
20
502.355908
11
371.837220
21
502.003130
0
LINE
8
Layer 1
10
371.837220
20
502.003130
11
372.287012
21
501.862019
0
LINE
8
Layer 1
10
372.287012
20
501.862019
11
372.657429
21
501.822332
0
LINE
8
Layer 1
10
372.657429
20
501.822332
11
372.710346
21
501.650352
0
LINE
8
Layer 1
10
372.710346
20
501.650352
11
372.864687
21
501.227019
0
LINE
8
Layer 1
10
372.864687
20
501.227019
11
373.415902
21
500.592022
0
LINE
8
Layer 1
10
373.415902
20
500.592022
11
373.973732
21
500.165933
0
LINE
8
Layer 1
10
373.973732
20
500.165933
11
374.280208
21
500.120182
0
LINE
8
Layer 1
10
374.280208
20
500.120182
11
374.269183
21
500.398546
0
LINE
8
Layer 1
10
374.269183
20
500.398546
11
373.874513
21
500.944800
0
LINE
8
Layer 1
10
373.874513
20
500.944800
11
373.830416
21
501.077092
0
LINE
8
Layer 1
10
373.830416
20
501.077092
11
374.368402
21
500.733133
0
LINE
8
Layer 1
10
374.368402
20
500.733133
11
375.312082
21
499.811500
0
LINE
8
Layer 1
10
375.312082
20
499.811500
11
375.320901
21
499.597076
0
LINE
8
Layer 1
10
375.320901
20
499.597076
11
374.932847
21
499.710073
0
LINE
8
Layer 1
10
374.932847
20
499.710073
11
374.867803
21
499.715034
0
LINE
8
Layer 1
10
374.867803
20
499.715034
11
375.021041
21
499.538094
0
LINE
8
Layer 1
10
375.021041
20
499.538094
11
375.850070
21
498.757572
0
LINE
8
Layer 1
10
375.850070
20
498.757572
11
376.771702
21
497.760976
0
LINE
8
Layer 1
10
376.771702
20
497.760976
11
376.976203
21
497.388354
0
LINE
8
Layer 1
10
376.976203
20
497.388354
11
376.978960
21
497.134792
0
LINE
8
Layer 1
10
376.978960
20
497.134792
11
376.930453
21
496.883438
0
LINE
8
Layer 1
10
376.930453
20
496.883438
11
377.225905
21
496.923125
0
LINE
8
Layer 1
10
377.225905
20
496.923125
11
377.746803
21
496.903833
0
LINE
8
Layer 1
10
377.746803
20
496.903833
11
378.244550
21
496.345452
0
LINE
8
Layer 1
10
378.244550
20
496.345452
11
378.788599
21
495.132227
0
LINE
8
Layer 1
10
378.788599
20
495.132227
11
379.448405
21
493.148405
0
LINE
8
Layer 1
10
379.448405
20
493.148405
11
381.035354
21
487.115903
0
LINE
8
Layer 1
10
381.035354
20
487.115903
11
382.566081
21
480.130900
0
LINE
8
Layer 1
10
382.566081
20
480.130900
11
383.719778
21
473.780900
0
LINE
8
Layer 1
10
383.719778
20
473.780900
11
384.175635
21
469.653405
0
LINE
8
Layer 1
10
384.175635
20
469.653405
11
384.175635
21
468.489235
0
LINE
8
Layer 1
10
384.175635
20
468.489235
11
379.836465
21
468.489235
0
LINE
8
Layer 1
10
379.836465
20
468.489235
11
375.332480
21
468.629244
0
LINE
8
Layer 1
10
375.332480
20
468.629244
11
370.051284
21
469.027222
0
LINE
8
Layer 1
10
370.051284
20
469.027222
11
364.353378
21
469.650097
0
LINE
8
Layer 1
10
364.353378
20
469.650097
11
358.599265
21
470.464795
0
LINE
8
Layer 1
10
358.599265
20
470.464795
11
350.000297
21
471.920005
0
LINE
8
Layer 1
10
350.000297
20
471.920005
11
346.216765
21
472.793125
0
LINE
8
Layer 1
10
346.216765
20
472.793125
11
346.296140
21
475.275798
0
LINE
8
Layer 1
10
346.296140
20
475.275798
11
346.745932
21
480.907015
0
LINE
8
Layer 1
10
346.745932
20
480.907015
11
347.663155
21
492.301715
0
LINE
8
Layer 1
10
347.663155
20
492.301715
11
348.015933
21
497.099495
0
LINE
8
Layer 1
10
348.015933
20
497.099495
11
348.403989
21
505.319225
0
LINE
8
Layer 1
10
348.403989
20
505.319225
11
348.650934
21
512.268955
0
LINE
8
Layer 1
10
348.650934
20
512.268955
11
350.097324
21
512.022010
0
LINE
8
Layer 1
10
350.097324
20
512.022010
11
352.072884
21
511.528121
0
LINE
8
Layer 1
10
352.072884
20
511.528121
11
352.072830
21
511.528125
0
LINE
8
Layer 1
10
267.511930
20
498.157825
11
270.347381
21
496.094074
0
LINE
8
Layer 1
10
270.347381
20
496.094074
11
270.999468
21
495.459072
0
LINE
8
Layer 1
10
270.999468
20
495.459072
11
271.145540
21
495.088655
0
LINE
8
Layer 1
10
271.145540
20
495.088655
11
270.770713
21
493.614154
0
LINE
8
Layer 1
10
270.770713
20
493.614154
11
270.475262
21
491.600564
0
LINE
8
Layer 1
10
270.475262
20
491.600564
11
270.312102
21
489.487754
0
LINE
8
Layer 1
10
270.312102
20
489.487754
11
270.334151
21
487.715595
0
LINE
8
Layer 1
10
270.334151
20
487.715595
11
270.713939
21
485.375132
0
LINE
8
Layer 1
10
270.713939
20
485.375132
11
271.388077
21
483.067743
0
LINE
8
Layer 1
10
271.388077
20
483.067743
11
272.293724
21
480.958792
0
LINE
8
Layer 1
10
272.293724
20
480.958792
11
273.368041
21
479.213645
0
LINE
8
Layer 1
10
273.368041
20
479.213645
11
274.216361
21
478.190588
0
LINE
8
Layer 1
10
274.216361
20
478.190588
11
275.233352
21
477.246908
0
LINE
8
Layer 1
10
275.233352
20
477.246908
11
278.448041
21
475.015585
0
LINE
8
Layer 1
10
278.448041
20
475.015585
11
278.680103
21
474.687061
0
LINE
8
Layer 1
10
278.680103
20
474.687061
11
278.584742
21
474.001348
0
LINE
8
Layer 1
10
278.584742
20
474.001348
11
277.107481
21
470.500025
0
LINE
8
Layer 1
10
277.107481
20
470.500025
11
274.081307
21
463.301703
0
LINE
8
Layer 1
10
274.081307
20
463.301703
11
271.022061
21
454.876380
0
LINE
8
Layer 1
10
271.022061
20
454.876380
11
268.227400
21
446.087255
0
LINE
8
Layer 1
10
268.227400
20
446.087255
11
265.994981
21
437.797525
0
LINE
8
Layer 1
10
265.994981
20
437.797525
11
265.113036
21
434.340305
0
LINE
8
Layer 1
10
265.113036
20
434.340305
11
263.583414
21
435.027670
0
LINE
8
Layer 1
10
263.583414
20
435.027670
11
259.993352
21
436.928812
0
LINE
8
Layer 1
10
259.993352
20
436.928812
11
251.354736
21
441.819195
0
LINE
8
Layer 1
10
251.354736
20
441.819195
11
246.001879
21
445.146331
0
LINE
8
Layer 1
10
246.001879
20
445.146331
11
240.017330
21
449.121696
0
LINE
8
Layer 1
10
240.017330
20
449.121696
11
234.383359
21
453.070611
0
LINE
8
Layer 1
10
234.383359
20
453.070611
11
230.082236
21
456.318395
0
LINE
8
Layer 1
10
230.082236
20
456.318395
11
230.398634
21
458.212376
0
LINE
8
Layer 1
10
230.398634
20
458.212376
11
231.502169
21
462.580220
0
LINE
8
Layer 1
10
231.502169
20
462.580220
11
234.456686
21
472.757895
0
LINE
8
Layer 1
10
234.456686
20
472.757895
11
236.172342
21
477.748821
0
LINE
8
Layer 1
10
236.172342
20
477.748821
11
238.015327
21
482.542543
0
LINE
8
Layer 1
10
238.015327
20
482.542543
11
239.990603
21
487.150226
0
LINE
8
Layer 1
10
239.990603
20
487.150226
11
242.103131
21
491.583033
0
LINE
8
Layer 1
10
242.103131
20
491.583033
11
244.357872
21
495.852128
0
LINE
8
Layer 1
10
244.357872
20
495.852128
11
246.759787
21
499.968678
0
LINE
8
Layer 1
10
246.759787
20
499.968678
11
249.313838
21
503.943845
0
LINE
8
Layer 1
10
249.313838
20
503.943845
11
252.024986
21
507.788795
0
LINE
8
Layer 1
10
252.024986
20
507.788795
11
253.929986
21
510.364075
0
LINE
8
Layer 1
10
253.929986
20
510.364075
11
258.833596
21
505.566295
0
LINE
8
Layer 1
10
258.833596
20
505.566295
11
263.437351
21
501.306499
0
LINE
8
Layer 1
10
263.437351
20
501.306499
11
267.511936
21
498.157955
0
LINE
8
Layer 1
10
267.511936
20
498.157955
11
267.511930
21
498.157825
0
LINE
8
Layer 1
10
213.572130
20
501.262275
11
212.796016
21
499.317585
0
LINE
8
Layer 1
10
212.796016
20
499.317585
11
210.644070
21
494.912275
0
LINE
8
Layer 1
10
210.644070
20
494.912275
11
206.657680
21
486.657265
0
LINE
8
Layer 1
10
206.657680
20
486.657265
11
205.775735
21
484.540595
0
LINE
8
Layer 1
10
205.775735
20
484.540595
11
204.823234
21
486.410315
0
LINE
8
Layer 1
10
204.823234
20
486.410315
11
204.067862
21
488.118876
0
LINE
8
Layer 1
10
204.067862
20
488.118876
11
203.496458
21
489.859271
0
LINE
8
Layer 1
10
203.496458
20
489.859271
11
203.111089
21
491.593878
0
LINE
8
Layer 1
10
203.111089
20
491.593878
11
202.913823
21
493.285079
0
LINE
8
Layer 1
10
202.913823
20
493.285079
11
202.906726
21
494.895253
0
LINE
8
Layer 1
10
202.906726
20
494.895253
11
203.091865
21
496.386780
0
LINE
8
Layer 1
10
203.091865
20
496.386780
11
203.471308
21
497.722041
0
LINE
8
Layer 1
10
203.471308
20
497.722041
11
204.047122
21
498.863415
0
LINE
8
Layer 1
10
204.047122
20
498.863415
11
205.182625
21
500.180820
0
LINE
8
Layer 1
10
205.182625
20
500.180820
11
206.595942
21
501.041818
0
LINE
8
Layer 1
10
206.595942
20
501.041818
11
208.392907
21
501.492712
0
LINE
8
Layer 1
10
208.392907
20
501.492712
11
210.679352
21
501.579805
0
LINE
8
Layer 1
10
210.679352
20
501.579805
11
213.572132
21
501.262305
0
LINE
8
Layer 1
10
213.572132
20
501.262305
11
213.572130
21
501.262275
0
LINE
8
Layer 1
10
383.470130
20
490.608375
11
383.337838
21
490.484903
0
LINE
8
Layer 1
10
383.337838
20
490.484903
11
383.046796
21
490.573097
0
LINE
8
Layer 1
10
383.046796
20
490.573097
11
382.813081
21
490.626014
0
LINE
8
Layer 1
10
382.813081
20
490.626014
11
383.082074
21
490.255597
0
LINE
8
Layer 1
10
383.082074
20
490.255597
11
383.521944
21
489.819585
0
LINE
8
Layer 1
10
383.521944
20
489.819585
11
383.849366
21
489.677923
0
LINE
8
Layer 1
10
383.849366
20
489.677923
11
384.004809
21
489.833917
0
LINE
8
Layer 1
10
384.004809
20
489.833917
11
383.928741
21
490.290875
0
LINE
8
Layer 1
10
383.928741
20
490.290875
11
383.809127
21
490.636487
0
LINE
8
Layer 1
10
383.809127
20
490.636487
11
383.844956
21
490.700979
0
LINE
8
Layer 1
10
383.844956
20
490.700979
11
384.528464
21
489.867541
0
LINE
8
Layer 1
10
384.528464
20
489.867541
11
384.850374
21
489.364832
0
LINE
8
Layer 1
10
384.850374
20
489.364832
11
384.563742
21
489.444207
0
LINE
8
Layer 1
10
384.563742
20
489.444207
11
384.246241
21
489.554450
0
LINE
8
Layer 1
10
384.246241
20
489.554450
11
384.246242
21
489.267818
0
LINE
8
Layer 1
10
384.246242
20
489.267818
11
384.488776
21
488.915040
0
LINE
8
Layer 1
10
384.488776
20
488.915040
11
384.810687
21
488.773929
0
LINE
8
Layer 1
10
384.810687
20
488.773929
11
385.480965
21
488.456429
0
LINE
8
Layer 1
10
385.480965
20
488.456429
11
385.569159
21
488.302089
0
LINE
8
Layer 1
10
385.569159
20
488.302089
11
385.339854
21
488.385873
0
LINE
8
Layer 1
10
385.339854
20
488.385873
11
385.004715
21
488.425561
0
LINE
8
Layer 1
10
385.004715
20
488.425561
11
384.881243
21
488.068373
0
LINE
8
Layer 1
10
384.881243
20
488.068373
11
385.013534
21
487.671498
0
LINE
8
Layer 1
10
385.013534
20
487.671498
11
385.410410
21
487.645039
0
LINE
8
Layer 1
10
385.410410
20
487.645039
11
385.833743
21
487.689137
0
LINE
8
Layer 1
10
385.833743
20
487.689137
11
386.151244
21
487.468650
0
LINE
8
Layer 1
10
386.151244
20
487.468650
11
386.217389
21
487.256984
0
LINE
8
Layer 1
10
386.217389
20
487.256984
11
385.939577
21
487.362817
0
LINE
8
Layer 1
10
385.939577
20
487.362817
11
385.652945
21
487.442192
0
LINE
8
Layer 1
10
385.652945
20
487.442192
11
385.657355
21
487.151150
0
LINE
8
Layer 1
10
385.657355
20
487.151150
11
385.899889
21
486.820421
0
LINE
8
Layer 1
10
385.899889
20
486.820421
11
386.221800
21
486.727816
0
LINE
8
Layer 1
10
386.221800
20
486.727816
11
386.455515
21
486.639622
0
LINE
8
Layer 1
10
386.455515
20
486.639622
11
386.398189
21
486.233927
0
LINE
8
Layer 1
10
386.398189
20
486.233927
11
386.332043
21
485.863511
0
LINE
8
Layer 1
10
386.332043
20
485.863511
11
386.609856
21
485.916427
0
LINE
8
Layer 1
10
386.609856
20
485.916427
11
386.861210
21
486.017851
0
LINE
8
Layer 1
10
386.861210
20
486.017851
11
386.927356
21
485.881150
0
LINE
8
Layer 1
10
386.927356
20
485.881150
11
387.081145
21
485.003614
0
LINE
8
Layer 1
10
387.081145
20
485.003614
11
387.654962
21
483.676287
0
LINE
8
Layer 1
10
387.654962
20
483.676287
11
388.341225
21
482.507712
0
LINE
8
Layer 1
10
388.341225
20
482.507712
11
388.630406
21
482.173125
0
LINE
8
Layer 1
10
388.630406
20
482.173125
11
388.832356
21
482.106430
0
LINE
8
Layer 1
10
388.832356
20
482.106430
11
389.039613
21
482.181395
0
LINE
8
Layer 1
10
389.039613
20
482.181395
11
389.008745
21
481.965319
0
LINE
8
Layer 1
10
389.008745
20
481.965319
11
388.886926
21
481.495131
0
LINE
8
Layer 1
10
388.886926
20
481.495131
11
389.013154
21
481.008407
0
LINE
8
Layer 1
10
389.013154
20
481.008407
11
389.331206
21
480.620901
0
LINE
8
Layer 1
10
389.331206
20
480.620901
11
389.784857
21
480.448369
0
LINE
8
Layer 1
10
389.784857
20
480.448369
11
390.067079
21
480.386633
0
LINE
8
Layer 1
10
390.067079
20
480.386633
11
389.925968
21
480.271980
0
LINE
8
Layer 1
10
389.925968
20
480.271980
11
389.748476
21
480.127561
0
LINE
8
Layer 1
10
389.748476
20
480.127561
11
389.696662
21
479.883924
0
LINE
8
Layer 1
10
389.696662
20
479.883924
11
389.996523
21
478.966700
0
LINE
8
Layer 1
10
389.996523
20
478.966700
11
390.984301
21
476.603090
0
LINE
8
Layer 1
10
390.984301
20
476.603090
11
391.795690
21
474.380590
0
LINE
8
Layer 1
10
391.795690
20
474.380590
11
392.051454
21
473.679443
0
LINE
8
Layer 1
10
392.051454
20
473.679443
11
392.192565
21
473.661253
0
LINE
8
Layer 1
10
392.192565
20
473.661253
11
392.360135
21
473.851423
0
LINE
8
Layer 1
10
392.360135
20
473.851423
11
392.576212
21
474.067499
0
LINE
8
Layer 1
10
392.576212
20
474.067499
11
392.501246
21
473.675034
0
LINE
8
Layer 1
10
392.501246
20
473.675034
11
392.562982
21
472.400623
0
LINE
8
Layer 1
10
392.562982
20
472.400623
11
392.995135
21
470.253084
0
LINE
8
Layer 1
10
392.995135
20
470.253084
11
393.700691
21
467.254474
0
LINE
8
Layer 1
10
393.700691
20
467.254474
11
392.856229
21
467.166279
0
LINE
8
Layer 1
10
392.856229
20
467.166279
11
390.913745
21
467.236835
0
LINE
8
Layer 1
10
390.913745
20
467.236835
11
387.280131
21
467.642530
0
LINE
8
Layer 1
10
387.280131
20
467.642530
11
386.994601
21
467.815060
0
LINE
8
Layer 1
10
386.994601
20
467.815060
11
386.768603
21
468.176107
0
LINE
8
Layer 1
10
386.768603
20
468.176107
11
386.468742
21
469.476980
0
LINE
8
Layer 1
10
386.468742
20
469.476980
11
385.518446
21
475.538694
0
LINE
8
Layer 1
10
385.518446
20
475.538694
11
384.290337
21
482.172565
0
LINE
8
Layer 1
10
384.290337
20
482.172565
11
383.075458
21
487.926693
0
LINE
8
Layer 1
10
383.075458
20
487.926693
11
382.164852
21
491.349180
0
LINE
8
Layer 1
10
382.164852
20
491.349180
11
382.129575
21
491.671090
0
LINE
8
Layer 1
10
382.129575
20
491.671090
11
382.729297
21
491.384457
0
LINE
8
Layer 1
10
382.729297
20
491.384457
11
383.245235
21
490.956714
0
LINE
8
Layer 1
10
383.245235
20
490.956714
11
383.470131
21
490.608345
0
LINE
8
Layer 1
10
383.470131
20
490.608345
11
383.470130
21
490.608375
0
LINE
8
Layer 1
10
404.213430
20
482.988375
11
407.811770
21
480.660045
0
LINE
8
Layer 1
10
407.811770
20
480.660045
11
409.187600
21
476.426705
0
LINE
8
Layer 1
10
409.187600
20
476.426705
11
410.810380
21
470.711705
0
LINE
8
Layer 1
10
410.810380
20
470.711705
11
411.136700
21
469.516666
0
LINE
8
Layer 1
10
411.136700
20
469.516666
11
411.385849
21
469.268067
0
LINE
8
Layer 1
10
411.385849
20
469.268067
11
411.727603
21
469.194755
0
LINE
8
Layer 1
10
411.727603
20
469.194755
11
412.026362
21
469.238990
0
LINE
8
Layer 1
10
412.026362
20
469.238990
11
412.232517
21
469.396500
0
LINE
8
Layer 1
10
412.232517
20
469.396500
11
412.353784
21
470.200172
0
LINE
8
Layer 1
10
412.353784
20
470.200172
11
412.064947
21
471.903428
0
LINE
8
Layer 1
10
412.064947
20
471.903428
11
411.339547
21
474.803925
0
LINE
8
Layer 1
10
411.339547
20
474.803925
11
410.360585
21
478.768269
0
LINE
8
Layer 1
10
410.360585
20
478.768269
11
410.357278
21
479.323341
0
LINE
8
Layer 1
10
410.357278
20
479.323341
11
410.598713
21
479.425315
0
LINE
8
Layer 1
10
410.598713
20
479.425315
11
411.662009
21
478.938592
0
LINE
8
Layer 1
10
411.662009
20
478.938592
11
413.337154
21
477.780489
0
LINE
8
Layer 1
10
413.337154
20
477.780489
11
415.018914
21
476.404104
0
LINE
8
Layer 1
10
415.018914
20
476.404104
11
416.102053
21
475.262535
0
LINE
8
Layer 1
10
416.102053
20
475.262535
11
416.567073
21
474.430821
0
LINE
8
Layer 1
10
416.567073
20
474.430821
11
416.852259
21
473.582983
0
LINE
8
Layer 1
10
416.852259
20
473.582983
11
416.959677
21
472.729356
0
LINE
8
Layer 1
10
416.959677
20
472.729356
11
416.891395
21
471.880278
0
LINE
8
Layer 1
10
416.891395
20
471.880278
11
416.649480
21
471.046081
0
LINE
8
Layer 1
10
416.649480
20
471.046081
11
416.235998
21
470.237104
0
LINE
8
Layer 1
10
416.235998
20
470.237104
11
415.653017
21
469.463680
0
LINE
8
Layer 1
10
415.653017
20
469.463680
11
414.902603
21
468.736145
0
LINE
8
Layer 1
10
414.902603
20
468.736145
11
413.743395
21
468.076891
0
LINE
8
Layer 1
10
413.743395
20
468.076891
11
411.952497
21
467.563157
0
LINE
8
Layer 1
10
411.952497
20
467.563157
11
409.361234
21
467.168487
0
LINE
8
Layer 1
10
409.361234
20
467.168487
11
405.800933
21
466.866425
0
LINE
8
Layer 1
10
405.800933
20
466.866425
11
402.872875
21
466.765001
0
LINE
8
Layer 1
10
402.872875
20
466.765001
11
402.278665
21
466.881308
0
LINE
8
Layer 1
10
402.278665
20
466.881308
11
402.061483
21
467.113370
0
LINE
8
Layer 1
10
402.061483
20
467.113370
11
401.108982
21
471.135040
0
LINE
8
Layer 1
10
401.108982
20
471.135040
11
400.216013
21
474.661716
0
LINE
8
Layer 1
10
400.216013
20
474.661716
11
399.018773
21
478.710941
0
LINE
8
Layer 1
10
399.018773
20
478.710941
11
397.755387
21
482.535265
0
LINE
8
Layer 1
10
397.755387
20
482.535265
11
396.663982
21
485.387240
0
LINE
8
Layer 1
10
396.663982
20
485.387240
11
395.817315
21
487.609740
0
LINE
8
Layer 1
10
395.817315
20
487.609740
11
395.987090
21
487.654251
0
LINE
8
Layer 1
10
395.987090
20
487.654251
11
396.474365
21
487.482960
0
LINE
8
Layer 1
10
396.474365
20
487.482960
11
398.269124
21
486.569044
0
LINE
8
Layer 1
10
398.269124
20
486.569044
11
404.213435
21
482.988350
0
LINE
8
Layer 1
10
404.213435
20
482.988350
11
404.213430
21
482.988375
0
LINE
8
Layer 1
10
292.806430
20
485.210875
11
298.585662
21
483.013177
0
LINE
8
Layer 1
10
298.585662
20
483.013177
11
304.498832
21
480.931234
0
LINE
8
Layer 1
10
304.498832
20
480.931234
11
316.442568
21
477.193989
0
LINE
8
Layer 1
10
316.442568
20
477.193989
11
322.330927
21
475.578373
0
LINE
8
Layer 1
10
322.330927
20
475.578373
11
328.068810
21
474.157886
0
LINE
8
Layer 1
10
328.068810
20
474.157886
11
333.585112
21
472.952373
0
LINE
8
Layer 1
10
333.585112
20
472.952373
11
338.808730
21
471.981675
0
LINE
8
Layer 1
10
338.808730
20
471.981675
11
343.641790
21
471.205563
0
LINE
8
Layer 1
10
343.641790
20
471.205563
11
343.430123
21
469.759173
0
LINE
8
Layer 1
10
343.430123
20
469.759173
11
341.961684
21
462.337603
0
LINE
8
Layer 1
10
341.961684
20
462.337603
11
340.043453
21
454.624973
0
LINE
8
Layer 1
10
340.043453
20
454.624973
11
337.962063
21
447.075523
0
LINE
8
Layer 1
10
337.962063
20
447.075523
11
336.531661
21
442.585320
0
LINE
8
Layer 1
10
336.531661
20
442.585320
11
334.059463
21
435.707248
0
LINE
8
Layer 1
10
334.059463
20
435.707248
11
325.791263
21
414.337723
0
LINE
8
Layer 1
10
325.791263
20
414.337723
11
325.115471
21
412.865425
0
LINE
8
Layer 1
10
325.115471
20
412.865425
11
324.688692
21
412.481710
0
LINE
8
Layer 1
10
324.688692
20
412.481710
11
324.062650
21
412.322477
0
LINE
8
Layer 1
10
324.062650
20
412.322477
11
323.132336
21
412.379873
0
LINE
8
Layer 1
10
323.132336
20
412.379873
11
321.792745
21
412.646042
0
LINE
8
Layer 1
10
321.792745
20
412.646042
11
317.465703
21
413.773278
0
LINE
8
Layer 1
10
317.465703
20
413.773278
11
307.449576
21
416.776852
0
LINE
8
Layer 1
10
307.449576
20
416.776852
11
296.682691
21
420.524566
0
LINE
8
Layer 1
10
296.682691
20
420.524566
11
285.909186
21
424.741910
0
LINE
8
Layer 1
10
285.909186
20
424.741910
11
275.873203
21
429.154378
0
LINE
8
Layer 1
10
275.873203
20
429.154378
11
268.006253
21
432.787988
0
LINE
8
Layer 1
10
268.006253
20
432.787988
11
267.103912
21
433.292902
0
LINE
8
Layer 1
10
267.103912
20
433.292902
11
266.900583
21
433.685918
0
LINE
8
Layer 1
10
266.900583
20
433.685918
11
266.872953
21
434.313753
0
LINE
8
Layer 1
10
266.872953
20
434.313753
11
267.376213
21
436.697209
0
LINE
8
Layer 1
10
267.376213
20
436.697209
11
268.676531
21
441.289938
0
LINE
8
Layer 1
10
268.676531
20
441.289938
11
270.196852
21
446.188740
0
LINE
8
Layer 1
10
270.196852
20
446.188740
11
272.021857
21
451.554693
0
LINE
8
Layer 1
10
272.021857
20
451.554693
11
276.045174
21
462.315526
0
LINE
8
Layer 1
10
276.045174
20
462.315526
11
279.664994
21
470.827390
0
LINE
8
Layer 1
10
279.664994
20
470.827390
11
280.985628
21
473.382131
0
LINE
8
Layer 1
10
280.985628
20
473.382131
11
281.464483
21
474.084085
0
LINE
8
Layer 1
10
281.464483
20
474.084085
11
281.799831
21
474.345238
0
LINE
8
Layer 1
10
281.799831
20
474.345238
11
282.540665
21
474.512807
0
LINE
8
Layer 1
10
282.540665
20
474.512807
11
282.223165
21
474.839127
0
LINE
8
Layer 1
10
282.223165
20
474.839127
11
281.958582
21
475.094891
0
LINE
8
Layer 1
10
281.958582
20
475.094891
11
282.117332
21
475.191905
0
LINE
8
Layer 1
10
282.117332
20
475.191905
11
282.523027
21
475.557912
0
LINE
8
Layer 1
10
282.523027
20
475.557912
11
282.928721
21
476.426625
0
LINE
8
Layer 1
10
282.928721
20
476.426625
11
283.312367
21
477.295339
0
LINE
8
Layer 1
10
283.312367
20
477.295339
11
283.669555
21
477.661345
0
LINE
8
Layer 1
10
283.669555
20
477.661345
11
283.876812
21
477.753949
0
LINE
8
Layer 1
10
283.876812
20
477.753949
11
283.845944
21
477.978845
0
LINE
8
Layer 1
10
283.845944
20
477.978845
11
283.784208
21
478.530612
0
LINE
8
Layer 1
10
283.784208
20
478.530612
11
283.987055
21
479.244436
0
LINE
8
Layer 1
10
283.987055
20
479.244436
11
284.322194
21
479.819355
0
LINE
8
Layer 1
10
284.322194
20
479.819355
11
284.657333
21
479.954405
0
LINE
8
Layer 1
10
284.657333
20
479.954405
11
284.869000
21
480.033780
0
LINE
8
Layer 1
10
284.869000
20
480.033780
11
284.869000
21
480.483572
0
LINE
8
Layer 1
10
284.869000
20
480.483572
11
284.860181
21
480.981871
0
LINE
8
Layer 1
10
284.860181
20
480.981871
11
285.010111
21
481.189128
0
LINE
8
Layer 1
10
285.010111
20
481.189128
11
285.283514
21
481.400795
0
LINE
8
Layer 1
10
285.283514
20
481.400795
11
285.504000
21
481.929962
0
LINE
8
Layer 1
10
285.504000
20
481.929962
11
285.768583
21
482.397393
0
LINE
8
Layer 1
10
285.768583
20
482.397393
11
286.139000
21
482.388573
0
LINE
8
Layer 1
10
286.139000
20
482.388573
11
286.399174
21
482.318018
0
LINE
8
Layer 1
10
286.399174
20
482.318018
11
286.315389
21
482.564962
0
LINE
8
Layer 1
10
286.315389
20
482.564962
11
286.253653
21
482.997115
0
LINE
8
Layer 1
10
286.253653
20
482.997115
11
286.456500
21
483.482185
0
LINE
8
Layer 1
10
286.456500
20
483.482185
11
286.676986
21
483.949616
0
LINE
8
Layer 1
10
286.676986
20
483.949616
11
286.632889
21
484.364130
0
LINE
8
Layer 1
10
286.632889
20
484.364130
11
286.646118
21
484.672811
0
LINE
8
Layer 1
10
286.646118
20
484.672811
11
286.950389
21
484.928575
0
LINE
8
Layer 1
10
286.950389
20
484.928575
11
287.303167
21
485.162290
0
LINE
8
Layer 1
10
287.303167
20
485.162290
11
287.338445
21
485.422464
0
LINE
8
Layer 1
10
287.338445
20
485.422464
11
287.386401
21
485.776895
0
LINE
8
Layer 1
10
287.386401
20
485.776895
11
287.695633
21
486.247082
0
LINE
8
Layer 1
10
287.695633
20
486.247082
11
288.117314
21
486.657736
0
LINE
8
Layer 1
10
288.117314
20
486.657736
11
288.502615
21
486.833574
0
LINE
8
Layer 1
10
288.502615
20
486.833574
11
292.806505
21
485.210794
0
LINE
8
Layer 1
10
292.806505
20
485.210794
11
292.806430
21
485.210875
0
LINE
8
Layer 1
10
207.998630
20
477.414485
11
211.036378
21
473.294694
0
LINE
8
Layer 1
10
211.036378
20
473.294694
11
214.256023
21
469.300579
0
LINE
8
Layer 1
10
214.256023
20
469.300579
11
217.786546
21
465.280017
0
LINE
8
Layer 1
10
217.786546
20
465.280017
11
221.756930
21
461.080885
0
LINE
8
Layer 1
10
221.756930
20
461.080885
11
227.789430
21
454.907275
0
LINE
8
Layer 1
10
227.789430
20
454.907275
11
227.330819
21
450.850325
0
LINE
8
Layer 1
10
227.330819
20
450.850325
11
226.517776
21
441.155519
0
LINE
8
Layer 1
10
226.517776
20
441.155519
11
226.250436
21
432.082500
0
LINE
8
Layer 1
10
226.250436
20
432.082500
11
226.532107
21
423.088869
0
LINE
8
Layer 1
10
226.532107
20
423.088869
11
227.366097
21
413.632225
0
LINE
8
Layer 1
10
227.366097
20
413.632225
11
228.427185
21
405.933414
0
LINE
8
Layer 1
10
228.427185
20
405.933414
11
229.795853
21
398.819988
0
LINE
8
Layer 1
10
229.795853
20
398.819988
11
231.528325
21
392.057130
0
LINE
8
Layer 1
10
231.528325
20
392.057130
11
233.680827
21
385.410025
0
LINE
8
Layer 1
10
233.680827
20
385.410025
11
234.536315
21
382.905301
0
LINE
8
Layer 1
10
234.536315
20
382.905301
11
234.809717
21
381.776415
0
LINE
8
Layer 1
10
234.809717
20
381.776415
11
233.987303
21
382.142973
0
LINE
8
Layer 1
10
233.987303
20
382.142973
11
232.172702
21
383.359505
0
LINE
8
Layer 1
10
232.172702
20
383.359505
11
227.260267
21
387.138645
0
LINE
8
Layer 1
10
227.260267
20
387.138645
11
223.833909
21
390.240343
0
LINE
8
Layer 1
10
223.833909
20
390.240343
11
220.116504
21
394.013426
0
LINE
8
Layer 1
10
220.116504
20
394.013426
11
216.663681
21
397.859269
0
LINE
8
Layer 1
10
216.663681
20
397.859269
11
214.031067
21
401.179245
0
LINE
8
Layer 1
10
214.031067
20
401.179245
11
211.958496
21
404.354245
0
LINE
8
Layer 1
10
211.958496
20
404.354245
11
210.044677
21
407.635085
0
LINE
8
Layer 1
10
210.044677
20
407.635085
11
208.417488
21
410.457308
0
LINE
8
Layer 1
10
208.417488
20
410.457308
11
208.055341
21
410.601727
0
LINE
8
Layer 1
10
208.055341
20
410.601727
11
207.716347
21
410.210365
0
LINE
8
Layer 1
10
207.716347
20
410.210365
11
207.440739
21
409.704900
0
LINE
8
Layer 1
10
207.440739
20
409.704900
11
207.442944
21
409.129983
0
LINE
8
Layer 1
10
207.442944
20
409.129983
11
208.492459
21
406.753145
0
LINE
8
Layer 1
10
208.492459
20
406.753145
11
209.887448
21
404.189097
0
LINE
8
Layer 1
10
209.887448
20
404.189097
11
211.509814
21
401.553527
0
LINE
8
Layer 1
10
211.509814
20
401.553527
11
215.301078
21
396.244765
0
LINE
8
Layer 1
10
215.301078
20
396.244765
11
219.595057
21
391.180743
0
LINE
8
Layer 1
10
219.595057
20
391.180743
11
221.845817
21
388.851098
0
LINE
8
Layer 1
10
221.845817
20
388.851098
11
224.120559
21
386.715345
0
LINE
8
Layer 1
10
224.120559
20
386.715345
11
226.736079
21
384.560091
0
LINE
8
Layer 1
10
226.736079
20
384.560091
11
229.963450
21
382.120411
0
LINE
8
Layer 1
10
229.963450
20
382.120411
11
233.144526
21
379.879169
0
LINE
8
Layer 1
10
233.144526
20
379.879169
11
235.621159
21
378.319225
0
LINE
8
Layer 1
10
235.621159
20
378.319225
11
236.539483
21
377.710682
0
LINE
8
Layer 1
10
236.539483
20
377.710682
11
237.358590
21
376.890473
0
LINE
8
Layer 1
10
237.358590
20
376.890473
11
239.466439
21
373.662555
0
LINE
8
Layer 1
10
239.466439
20
373.662555
11
242.009198
21
369.606157
0
LINE
8
Layer 1
10
242.009198
20
369.606157
11
244.700785
21
365.923483
0
LINE
8
Layer 1
10
244.700785
20
365.923483
11
247.835549
21
362.247419
0
LINE
8
Layer 1
10
247.835549
20
362.247419
11
251.707839
21
358.210855
0
LINE
8
Layer 1
10
251.707839
20
358.210855
11
255.771400
21
354.347934
0
LINE
8
Layer 1
10
255.771400
20
354.347934
11
259.927563
21
350.802514
0
LINE
8
Layer 1
10
259.927563
20
350.802514
11
264.189563
21
347.574589
0
LINE
8
Layer 1
10
264.189563
20
347.574589
11
268.570639
21
344.664155
0
LINE
8
Layer 1
10
268.570639
20
344.664155
11
270.696124
21
343.164849
0
LINE
8
Layer 1
10
270.696124
20
343.164849
11
271.309077
21
342.620248
0
LINE
8
Layer 1
10
271.309077
20
342.620248
11
271.498699
21
342.300545
0
LINE
8
Layer 1
10
271.498699
20
342.300545
11
271.489880
21
341.965406
0
LINE
8
Layer 1
10
271.489880
20
341.965406
11
271.745644
21
341.736100
0
LINE
8
Layer 1
10
271.745644
20
341.736100
11
271.794151
21
341.683183
0
LINE
8
Layer 1
10
271.794151
20
341.683183
11
271.287033
21
341.736100
0
LINE
8
Layer 1
10
271.287033
20
341.736100
11
269.125164
21
342.363935
0
LINE
8
Layer 1
10
269.125164
20
342.363935
11
265.871885
21
343.610234
0
LINE
8
Layer 1
10
265.871885
20
343.610234
11
261.930681
21
345.312939
0
LINE
8
Layer 1
10
261.930681
20
345.312939
11
257.705033
21
347.309990
0
LINE
8
Layer 1
10
257.705033
20
347.309990
11
252.162074
21
350.250518
0
LINE
8
Layer 1
10
252.162074
20
350.250518
11
246.765053
21
353.556918
0
LINE
8
Layer 1
10
246.765053
20
353.556918
11
241.534225
21
357.211410
0
LINE
8
Layer 1
10
241.534225
20
357.211410
11
236.489845
21
361.196220
0
LINE
8
Layer 1
10
236.489845
20
361.196220
11
231.652170
21
365.493570
0
LINE
8
Layer 1
10
231.652170
20
365.493570
11
227.041456
21
370.085683
0
LINE
8
Layer 1
10
227.041456
20
370.085683
11
222.677958
21
374.954782
0
LINE
8
Layer 1
10
222.677958
20
374.954782
11
218.581933
21
380.083090
0
LINE
8
Layer 1
10
218.581933
20
380.083090
11
216.380377
21
383.280553
0
LINE
8
Layer 1
10
216.380377
20
383.280553
11
214.112672
21
387.049354
0
LINE
8
Layer 1
10
214.112672
20
387.049354
11
211.854888
21
391.226607
0
LINE
8
Layer 1
10
211.854888
20
391.226607
11
209.683095
21
395.649428
0
LINE
8
Layer 1
10
209.683095
20
395.649428
11
207.673363
21
400.154931
0
LINE
8
Layer 1
10
207.673363
20
400.154931
11
205.901762
21
404.580232
0
LINE
8
Layer 1
10
205.901762
20
404.580232
11
204.444362
21
408.762447
0
LINE
8
Layer 1
10
204.444362
20
408.762447
11
203.377233
21
412.538690
0
LINE
8
Layer 1
10
203.377233
20
412.538690
11
201.600663
21
420.776601
0
LINE
8
Layer 1
10
201.600663
20
420.776601
11
200.409487
21
428.462203
0
LINE
8
Layer 1
10
200.409487
20
428.462203
11
199.740863
21
436.088273
0
LINE
8
Layer 1
10
199.740863
20
436.088273
11
199.531953
21
444.147590
0
LINE
8
Layer 1
10
199.531953
20
444.147590
11
199.659284
21
450.327822
0
LINE
8
Layer 1
10
199.659284
20
450.327822
11
200.021433
21
455.648160
0
LINE
8
Layer 1
10
200.021433
20
455.648160
11
200.668009
21
460.598088
0
LINE
8
Layer 1
10
200.668009
20
460.598088
11
201.648623
21
465.667090
0
LINE
8
Layer 1
10
201.648623
20
465.667090
11
202.785782
21
470.149020
0
LINE
8
Layer 1
10
202.785782
20
470.149020
11
204.157758
21
474.746703
0
LINE
8
Layer 1
10
204.157758
20
474.746703
11
205.404056
21
478.332354
0
LINE
8
Layer 1
10
205.404056
20
478.332354
11
205.867421
21
479.393236
0
LINE
8
Layer 1
10
205.867421
20
479.393236
11
206.164183
21
479.778190
0
LINE
8
Layer 1
10
206.164183
20
479.778190
11
207.998633
21
477.414580
0
LINE
8
Layer 1
10
207.998633
20
477.414580
11
207.998630
21
477.414485
0
LINE
8
Layer 1
10
392.289630
20
475.509485
11
392.192616
21
475.319867
0
LINE
8
Layer 1
10
392.192616
20
475.319867
11
391.936852
21
475.368374
0
LINE
8
Layer 1
10
391.936852
20
475.368374
11
391.584074
21
475.932819
0
LINE
8
Layer 1
10
391.584074
20
475.932819
11
391.694317
21
476.122437
0
LINE
8
Layer 1
10
391.694317
20
476.122437
11
391.936852
21
476.073930
0
LINE
8
Layer 1
10
391.936852
20
476.073930
11
392.192616
21
475.818166
0
LINE
8
Layer 1
10
392.192616
20
475.818166
11
392.289630
21
475.509485
0
LINE
8
Layer 1
10
392.289630
20
475.509485
11
392.289630
21
475.509485
0
LINE
8
Layer 1
10
359.481230
20
468.348095
11
368.163976
21
467.236846
0
LINE
8
Layer 1
10
368.163976
20
467.236846
11
382.270730
21
465.808095
0
LINE
8
Layer 1
10
382.270730
20
465.808095
11
384.422680
21
465.631706
0
LINE
8
Layer 1
10
384.422680
20
465.631706
11
384.669625
21
462.738926
0
LINE
8
Layer 1
10
384.669625
20
462.738926
11
384.858141
21
457.892636
0
LINE
8
Layer 1
10
384.858141
20
457.892636
11
384.854834
21
451.935099
0
LINE
8
Layer 1
10
384.854834
20
451.935099
11
384.679547
21
446.070175
0
LINE
8
Layer 1
10
384.679547
20
446.070175
11
384.352125
21
441.501726
0
LINE
8
Layer 1
10
384.352125
20
441.501726
11
383.249692
21
434.023399
0
LINE
8
Layer 1
10
383.249692
20
434.023399
11
381.723926
21
426.918789
0
LINE
8
Layer 1
10
381.723926
20
426.918789
11
379.827745
21
420.402871
0
LINE
8
Layer 1
10
379.827745
20
420.402871
11
378.757285
21
417.432854
0
LINE
8
Layer 1
10
378.757285
20
417.432854
11
377.614065
21
414.690626
0
LINE
8
Layer 1
10
377.614065
20
414.690626
11
377.190731
21
413.601425
0
LINE
8
Layer 1
10
377.190731
20
413.601425
11
377.084898
21
412.962016
0
LINE
8
Layer 1
10
377.084898
20
412.962016
11
376.948196
21
412.873822
0
LINE
8
Layer 1
10
376.948196
20
412.873822
11
376.520453
21
413.103127
0
LINE
8
Layer 1
10
376.520453
20
413.103127
11
376.141217
21
413.380940
0
LINE
8
Layer 1
10
376.141217
20
413.380940
11
376.132397
21
413.314794
0
LINE
8
Layer 1
10
376.132397
20
413.314794
11
375.982466
21
412.878232
0
LINE
8
Layer 1
10
375.982466
20
412.878232
11
375.250452
21
412.256464
0
LINE
8
Layer 1
10
375.250452
20
412.256464
11
374.342048
21
411.458303
0
LINE
8
Layer 1
10
374.342048
20
411.458303
11
373.698232
21
410.633684
0
LINE
8
Layer 1
10
373.698232
20
410.633684
11
373.376322
21
410.148614
0
LINE
8
Layer 1
10
373.376322
20
410.148614
11
373.276552
21
410.117746
0
LINE
8
Layer 1
10
373.276552
20
410.117746
11
373.239621
21
410.245628
0
LINE
8
Layer 1
10
373.239621
20
410.245628
11
373.203792
21
410.456744
0
LINE
8
Layer 1
10
373.203792
20
410.456744
11
373.085281
21
410.505802
0
LINE
8
Layer 1
10
373.085281
20
410.505802
11
372.534065
21
410.104517
0
LINE
8
Layer 1
10
372.534065
20
410.104517
11
372.101912
21
409.566530
0
LINE
8
Layer 1
10
372.101912
20
409.566530
11
372.040176
21
409.187294
0
LINE
8
Layer 1
10
372.040176
20
409.187294
11
371.987259
21
409.032954
0
LINE
8
Layer 1
10
371.987259
20
409.032954
11
371.616842
21
409.116738
0
LINE
8
Layer 1
10
371.616842
20
409.116738
11
371.206738
21
409.191704
0
LINE
8
Layer 1
10
371.206738
20
409.191704
11
371.299342
21
408.869793
0
LINE
8
Layer 1
10
371.299342
20
408.869793
11
371.413995
21
408.587571
0
LINE
8
Layer 1
10
371.413995
20
408.587571
11
371.264064
21
408.622848
0
LINE
8
Layer 1
10
371.264064
20
408.622848
11
370.855614
21
408.683482
0
LINE
8
Layer 1
10
370.855614
20
408.683482
11
370.404170
21
408.499376
0
LINE
8
Layer 1
10
370.404170
20
408.499376
11
370.038715
21
408.156520
0
LINE
8
Layer 1
10
370.038715
20
408.156520
11
369.888234
21
407.740903
0
LINE
8
Layer 1
10
369.888234
20
407.740903
11
369.685387
21
407.445452
0
LINE
8
Layer 1
10
369.685387
20
407.445452
11
369.217956
21
407.388125
0
LINE
8
Layer 1
10
369.217956
20
407.388125
11
368.834310
21
407.374896
0
LINE
8
Layer 1
10
368.834310
20
407.374896
11
368.794622
21
407.176458
0
LINE
8
Layer 1
10
368.794622
20
407.176458
11
368.546575
21
407.046372
0
LINE
8
Layer 1
10
368.546575
20
407.046372
11
367.709830
21
406.929514
0
LINE
8
Layer 1
10
367.709830
20
406.929514
11
364.667122
21
406.788402
0
LINE
8
Layer 1
10
364.667122
20
406.788402
11
358.696357
21
406.916285
0
LINE
8
Layer 1
10
358.696357
20
406.916285
11
347.698522
21
407.811462
0
LINE
8
Layer 1
10
347.698522
20
407.811462
11
342.596471
21
408.461897
0
LINE
8
Layer 1
10
342.596471
20
408.461897
11
335.774632
21
409.548895
0
LINE
8
Layer 1
10
335.774632
20
409.548895
11
329.720088
21
410.649121
0
LINE
8
Layer 1
10
329.720088
20
410.649121
11
326.919922
21
411.339242
0
LINE
8
Layer 1
10
326.919922
20
411.339242
11
326.993785
21
411.950540
0
LINE
8
Layer 1
10
326.993785
20
411.950540
11
327.431450
21
413.425042
0
LINE
8
Layer 1
10
327.431450
20
413.425042
11
329.107142
21
418.077302
0
LINE
8
Layer 1
10
329.107142
20
418.077302
11
335.078465
21
434.183809
0
LINE
8
Layer 1
10
335.078465
20
434.183809
11
339.703721
21
447.710652
0
LINE
8
Layer 1
10
339.703721
20
447.710652
11
343.052362
21
458.856246
0
LINE
8
Layer 1
10
343.052362
20
458.856246
11
344.269657
21
463.598078
0
LINE
8
Layer 1
10
344.269657
20
463.598078
11
345.193842
21
467.819002
0
LINE
8
Layer 1
10
345.193842
20
467.819002
11
345.793565
21
470.817612
0
LINE
8
Layer 1
10
345.793565
20
470.817612
11
349.744675
21
470.041500
0
LINE
8
Layer 1
10
349.744675
20
470.041500
11
359.481345
21
468.348170
0
LINE
8
Layer 1
10
359.481345
20
468.348170
11
359.481230
21
468.348095
0
LINE
8
Layer 1
10
393.947630
20
468.771429
11
393.802109
21
468.625908
0
LINE
8
Layer 1
10
393.802109
20
468.625908
11
393.735963
21
468.983096
0
LINE
8
Layer 1
10
393.735963
20
468.983096
11
393.771241
21
469.410840
0
LINE
8
Layer 1
10
393.771241
20
469.410840
11
393.912352
21
469.441707
0
LINE
8
Layer 1
10
393.912352
20
469.441707
11
394.009366
21
469.159485
0
LINE
8
Layer 1
10
394.009366
20
469.159485
11
393.947630
21
468.771429
0
LINE
8
Layer 1
10
393.947630
20
468.771429
11
393.947630
21
468.771429
0
LINE
8
Layer 1
10
412.468430
20
462.315589
11
412.847115
21
456.828791
0
LINE
8
Layer 1
10
412.847115
20
456.828791
11
412.931451
21
449.086424
0
LINE
8
Layer 1
10
412.931451
20
449.086424
11
412.731360
21
441.211765
0
LINE
8
Layer 1
10
412.731360
20
441.211765
11
412.256763
21
435.328089
0
LINE
8
Layer 1
10
412.256763
20
435.328089
11
411.189333
21
428.820298
0
LINE
8
Layer 1
10
411.189333
20
428.820298
11
409.835823
21
422.516731
0
LINE
8
Layer 1
10
409.835823
20
422.516731
11
408.191272
21
416.403334
0
LINE
8
Layer 1
10
408.191272
20
416.403334
11
406.250719
21
410.466052
0
LINE
8
Layer 1
10
406.250719
20
410.466052
11
404.009203
21
404.690830
0
LINE
8
Layer 1
10
404.009203
20
404.690830
11
401.461762
21
399.063616
0
LINE
8
Layer 1
10
401.461762
20
399.063616
11
398.603436
21
393.570353
0
LINE
8
Layer 1
10
398.603436
20
393.570353
11
395.429263
21
388.196989
0
LINE
8
Layer 1
10
395.429263
20
388.196989
11
391.178290
21
381.652401
0
LINE
8
Layer 1
10
391.178290
20
381.652401
11
387.324193
21
376.374497
0
LINE
8
Layer 1
10
387.324193
20
376.374497
11
383.324581
21
371.672064
0
LINE
8
Layer 1
10
383.324581
20
371.672064
11
378.637063
21
366.853889
0
LINE
8
Layer 1
10
378.637063
20
366.853889
11
373.149717
21
361.837271
0
LINE
8
Layer 1
10
373.149717
20
361.837271
11
367.202658
21
357.148070
0
LINE
8
Layer 1
10
367.202658
20
357.148070
11
360.772727
21
352.769754
0
LINE
8
Layer 1
10
360.772727
20
352.769754
11
353.836763
21
348.685789
0
LINE
8
Layer 1
10
353.836763
20
348.685789
11
349.462313
21
346.286899
0
LINE
8
Layer 1
10
349.462313
20
346.286899
11
338.138113
21
346.322177
0
LINE
8
Layer 1
10
338.138113
20
346.322177
11
329.543554
21
346.472108
0
LINE
8
Layer 1
10
329.543554
20
346.472108
11
324.732513
21
346.674955
0
LINE
8
Layer 1
10
324.732513
20
346.674955
11
322.651123
21
346.957177
0
LINE
8
Layer 1
10
322.651123
20
346.957177
11
326.108343
21
349.391347
0
LINE
8
Layer 1
10
326.108343
20
349.391347
11
331.079083
21
353.162764
0
LINE
8
Layer 1
10
331.079083
20
353.162764
11
336.220971
21
357.509648
0
LINE
8
Layer 1
10
336.220971
20
357.509648
11
341.443882
21
362.339395
0
LINE
8
Layer 1
10
341.443882
20
362.339395
11
346.657693
21
367.559401
0
LINE
8
Layer 1
10
346.657693
20
367.559401
11
351.772279
21
373.077062
0
LINE
8
Layer 1
10
351.772279
20
373.077062
11
356.697515
21
378.799776
0
LINE
8
Layer 1
10
356.697515
20
378.799776
11
361.343278
21
384.634939
0
LINE
8
Layer 1
10
361.343278
20
384.634939
11
365.619443
21
390.489947
0
LINE
8
Layer 1
10
365.619443
20
390.489947
11
367.348053
21
392.959397
0
LINE
8
Layer 1
10
367.348053
20
392.959397
11
368.935553
21
391.830507
0
LINE
8
Layer 1
10
368.935553
20
391.830507
11
370.995998
21
390.089218
0
LINE
8
Layer 1
10
370.995998
20
390.089218
11
373.248267
21
387.769151
0
LINE
8
Layer 1
10
373.248267
20
387.769151
11
375.275638
21
385.336634
0
LINE
8
Layer 1
10
375.275638
20
385.336634
11
376.661393
21
383.257997
0
LINE
8
Layer 1
10
376.661393
20
383.257997
11
377.490971
21
381.362919
0
LINE
8
Layer 1
10
377.490971
20
381.362919
11
378.085732
21
379.395079
0
LINE
8
Layer 1
10
378.085732
20
379.395079
11
378.382838
21
377.612449
0
LINE
8
Layer 1
10
378.382838
20
377.612449
11
378.319453
21
376.272997
0
LINE
8
Layer 1
10
378.319453
20
376.272997
11
378.240078
21
375.629177
0
LINE
8
Layer 1
10
378.240078
20
375.629177
11
378.319453
21
375.355774
0
LINE
8
Layer 1
10
378.319453
20
375.355774
11
379.194233
21
376.417416
0
LINE
8
Layer 1
10
379.194233
20
376.417416
11
380.978519
21
379.112860
0
LINE
8
Layer 1
10
380.978519
20
379.112860
11
385.410293
21
386.468274
0
LINE
8
Layer 1
10
385.410293
20
386.468274
11
387.564445
21
390.419394
0
LINE
8
Layer 1
10
387.564445
20
390.419394
11
389.652449
21
394.582184
0
LINE
8
Layer 1
10
389.652449
20
394.582184
11
393.735853
21
403.754374
0
LINE
8
Layer 1
10
393.735853
20
403.754374
11
394.891752
21
406.508798
0
LINE
8
Layer 1
10
394.891752
20
406.508798
11
395.680542
21
408.089134
0
LINE
8
Layer 1
10
395.680542
20
408.089134
11
396.370112
21
408.948479
0
LINE
8
Layer 1
10
396.370112
20
408.948479
11
397.228353
21
409.539934
0
LINE
8
Layer 1
10
397.228353
20
409.539934
11
398.674743
21
410.351323
0
LINE
8
Layer 1
10
398.674743
20
410.351323
11
397.863354
21
410.915768
0
LINE
8
Layer 1
10
397.863354
20
410.915768
11
396.946131
21
411.550768
0
LINE
8
Layer 1
10
396.946131
20
411.550768
11
397.722243
21
414.478828
0
LINE
8
Layer 1
10
397.722243
20
414.478828
11
399.662523
21
421.499108
0
LINE
8
Layer 1
10
399.662523
20
421.499108
11
400.933007
21
426.989344
0
LINE
8
Layer 1
10
400.933007
20
426.989344
11
401.941801
21
432.321662
0
LINE
8
Layer 1
10
401.941801
20
432.321662
11
402.691799
21
437.536575
0
LINE
8
Layer 1
10
402.691799
20
437.536575
11
403.185894
21
442.674595
0
LINE
8
Layer 1
10
403.185894
20
442.674595
11
403.426981
21
447.776236
0
LINE
8
Layer 1
10
403.426981
20
447.776236
11
403.417954
21
452.882009
0
LINE
8
Layer 1
10
403.417954
20
452.882009
11
403.161707
21
458.032429
0
LINE
8
Layer 1
10
403.161707
20
458.032429
11
402.661133
21
463.268008
0
LINE
8
Layer 1
10
402.661133
20
463.268008
11
402.449466
21
465.208288
0
LINE
8
Layer 1
10
402.449466
20
465.208288
11
406.965026
21
465.525788
0
LINE
8
Layer 1
10
406.965026
20
465.525788
11
410.250270
21
465.702177
0
LINE
8
Layer 1
10
410.250270
20
465.702177
11
411.762806
21
465.666899
0
LINE
8
Layer 1
10
411.762806
20
465.666899
11
412.075896
21
464.612975
0
LINE
8
Layer 1
10
412.075896
20
464.612975
11
412.468362
21
462.315509
0
LINE
8
Layer 1
10
412.468362
20
462.315509
11
412.468430
21
462.315589
0
LINE
8
Layer 1
10
393.383130
20
464.890869
11
393.912297
21
464.573369
0
LINE
8
Layer 1
10
393.912297
20
464.573369
11
394.207749
21
463.960417
0
LINE
8
Layer 1
10
394.207749
20
463.960417
11
394.476742
21
462.421419
0
LINE
8
Layer 1
10
394.476742
20
462.421419
11
394.825110
21
454.858717
0
LINE
8
Layer 1
10
394.825110
20
454.858717
11
394.848813
21
451.155087
0
LINE
8
Layer 1
10
394.848813
20
451.155087
11
394.723687
21
449.650819
0
LINE
8
Layer 1
10
394.723687
20
449.650819
11
394.498791
21
449.306861
0
LINE
8
Layer 1
10
394.498791
20
449.306861
11
394.300353
21
448.274989
0
LINE
8
Layer 1
10
394.300353
20
448.274989
11
393.277293
21
442.136649
0
LINE
8
Layer 1
10
393.277293
20
442.136649
11
392.911286
21
440.818142
0
LINE
8
Layer 1
10
392.911286
20
440.818142
11
392.571737
21
440.266929
0
LINE
8
Layer 1
10
392.571737
20
440.266929
11
392.364480
21
440.134637
0
LINE
8
Layer 1
10
392.364480
20
440.134637
11
392.395348
21
439.843595
0
LINE
8
Layer 1
10
392.395348
20
439.843595
11
392.399758
21
439.340887
0
LINE
8
Layer 1
10
392.399758
20
439.340887
11
392.218959
21
438.785265
0
LINE
8
Layer 1
10
392.218959
20
438.785265
11
392.095487
21
438.309015
0
LINE
8
Layer 1
10
392.095487
20
438.309015
11
392.289515
21
438.150265
0
LINE
8
Layer 1
10
392.289515
20
438.150265
11
392.532049
21
438.269328
0
LINE
8
Layer 1
10
392.532049
20
438.269328
11
392.642293
21
438.573599
0
LINE
8
Layer 1
10
392.642293
20
438.573599
11
392.690800
21
438.798495
0
LINE
8
Layer 1
10
392.690800
20
438.798495
11
392.818682
21
438.785266
0
LINE
8
Layer 1
10
392.818682
20
438.785266
11
392.853959
21
438.406029
0
LINE
8
Layer 1
10
392.853959
20
438.406029
11
392.677571
21
437.762206
0
LINE
8
Layer 1
10
392.677571
20
437.762206
11
392.417397
21
437.325643
0
LINE
8
Layer 1
10
392.417397
20
437.325643
11
392.289515
21
437.444706
0
LINE
8
Layer 1
10
392.289515
20
437.444706
11
392.245969
21
437.553295
0
LINE
8
Layer 1
10
392.245969
20
437.553295
11
392.126355
21
437.466755
0
LINE
8
Layer 1
10
392.126355
20
437.466755
11
391.725070
21
436.774428
0
LINE
8
Layer 1
10
391.725070
20
436.774428
11
391.420799
21
435.698456
0
LINE
8
Layer 1
10
391.420799
20
435.698456
11
391.407570
21
434.834148
0
LINE
8
Layer 1
10
391.407570
20
434.834148
11
391.491354
21
434.410815
0
LINE
8
Layer 1
10
391.491354
20
434.410815
11
391.337014
21
434.516648
0
LINE
8
Layer 1
10
391.337014
20
434.516648
11
391.087244
21
434.473515
0
LINE
8
Layer 1
10
391.087244
20
434.473515
11
390.694848
21
433.979764
0
LINE
8
Layer 1
10
390.694848
20
433.979764
11
389.718646
21
432.153035
0
LINE
8
Layer 1
10
389.718646
20
432.153035
11
388.881351
21
430.061723
0
LINE
8
Layer 1
10
388.881351
20
430.061723
11
388.662587
21
429.237242
0
LINE
8
Layer 1
10
388.662587
20
429.237242
11
388.655904
21
428.731088
0
LINE
8
Layer 1
10
388.655904
20
428.731088
11
388.726459
21
428.360671
0
LINE
8
Layer 1
10
388.726459
20
428.360671
11
388.479515
21
428.413588
0
LINE
8
Layer 1
10
388.479515
20
428.413588
11
388.268675
21
428.417722
0
LINE
8
Layer 1
10
388.268675
20
428.417722
11
388.023108
21
428.248223
0
LINE
8
Layer 1
10
388.023108
20
428.248223
11
387.527014
21
427.566921
0
LINE
8
Layer 1
10
387.527014
20
427.566921
11
387.189670
21
426.726870
0
LINE
8
Layer 1
10
387.189670
20
426.726870
11
387.209515
21
426.085258
0
LINE
8
Layer 1
10
387.209515
20
426.085258
11
387.288890
21
425.873591
0
LINE
8
Layer 1
10
387.288890
20
425.873591
11
386.997848
21
425.979425
0
LINE
8
Layer 1
10
386.997848
20
425.979425
11
386.675938
21
426.076439
0
LINE
8
Layer 1
10
386.675938
20
426.076439
11
386.750903
21
425.697203
0
LINE
8
Layer 1
10
386.750903
20
425.697203
11
386.803820
21
425.291508
0
LINE
8
Layer 1
10
386.803820
20
425.291508
11
386.539236
21
425.203314
0
LINE
8
Layer 1
10
386.539236
20
425.203314
11
386.252604
21
425.071022
0
LINE
8
Layer 1
10
386.252604
20
425.071022
11
386.151180
21
424.674147
0
LINE
8
Layer 1
10
386.151180
20
424.674147
11
386.111492
21
424.272862
0
LINE
8
Layer 1
10
386.111492
20
424.272862
11
385.939513
21
424.215536
0
LINE
8
Layer 1
10
385.939513
20
424.215536
11
385.743487
21
424.185151
0
LINE
8
Layer 1
10
385.743487
20
424.185151
11
385.469325
21
423.945992
0
LINE
8
Layer 1
10
385.469325
20
423.945992
11
384.823851
21
423.064599
0
LINE
8
Layer 1
10
384.823851
20
423.064599
11
384.277595
21
422.017839
0
LINE
8
Layer 1
10
384.277595
20
422.017839
11
384.105063
21
421.252196
0
LINE
8
Layer 1
10
384.105063
20
421.252196
11
384.078605
21
420.992022
0
LINE
8
Layer 1
10
384.078605
20
420.992022
11
383.787563
21
421.075807
0
LINE
8
Layer 1
10
383.787563
20
421.075807
11
383.514160
21
421.119904
0
LINE
8
Layer 1
10
383.514160
20
421.119904
11
383.611174
21
420.687751
0
LINE
8
Layer 1
10
383.611174
20
420.687751
11
383.694959
21
420.251188
0
LINE
8
Layer 1
10
383.694959
20
420.251188
11
383.328952
21
420.476084
0
LINE
8
Layer 1
10
383.328952
20
420.476084
11
382.927667
21
420.656883
0
LINE
8
Layer 1
10
382.927667
20
420.656883
11
382.976174
21
419.911639
0
LINE
8
Layer 1
10
382.976174
20
419.911639
11
383.015861
21
419.259000
0
LINE
8
Layer 1
10
383.015861
20
419.259000
11
382.764507
21
419.453028
0
LINE
8
Layer 1
10
382.764507
20
419.453028
11
382.508743
21
419.744070
0
LINE
8
Layer 1
10
382.508743
20
419.744070
11
382.411729
21
419.558861
0
LINE
8
Layer 1
10
382.411729
20
419.558861
11
382.319125
21
419.236951
0
LINE
8
Layer 1
10
382.319125
20
419.236951
11
382.094229
21
419.100250
0
LINE
8
Layer 1
10
382.094229
20
419.100250
11
382.028083
21
419.541223
0
LINE
8
Layer 1
10
382.028083
20
419.541223
11
382.305896
21
420.617200
0
LINE
8
Layer 1
10
382.305896
20
420.617200
11
384.021278
21
426.887828
0
LINE
8
Layer 1
10
384.021278
20
426.887828
11
385.551456
21
434.269700
0
LINE
8
Layer 1
10
385.551456
20
434.269700
11
386.365052
21
439.579566
0
LINE
8
Layer 1
10
386.365052
20
439.579566
11
386.847916
21
444.204823
0
LINE
8
Layer 1
10
386.847916
20
444.204823
11
387.079425
21
449.207093
0
LINE
8
Layer 1
10
387.079425
20
449.207093
11
387.138956
21
455.648000
0
LINE
8
Layer 1
10
387.138956
20
455.648000
11
387.138956
21
465.525780
0
LINE
8
Layer 1
10
387.138956
20
465.525780
11
390.172846
21
465.384669
0
LINE
8
Layer 1
10
390.172846
20
465.384669
11
392.360072
21
465.164183
0
LINE
8
Layer 1
10
392.360072
20
465.164183
11
393.383126
21
464.890780
0
LINE
8
Layer 1
10
393.383126
20
464.890780
11
393.383130
21
464.890869
0
LINE
8
Layer 1
10
395.323410
20
457.623639
11
395.393966
21
450.673909
0
LINE
8
Layer 1
10
395.393966
20
450.673909
11
395.111744
21
457.376689
0
LINE
8
Layer 1
10
395.111744
20
457.376689
11
394.966222
21
463.175479
0
LINE
8
Layer 1
10
394.966222
20
463.175479
11
395.037329
21
464.297202
0
LINE
8
Layer 1
10
395.037329
20
464.297202
11
395.217577
21
464.608639
0
LINE
8
Layer 1
10
395.217577
20
464.608639
11
395.323410
21
457.623639
0
LINE
8
Layer 1
10
395.323410
20
457.623639
11
395.323410
21
457.623639
0
LINE
8
Layer 1
10
237.067410
20
448.663079
11
243.479148
21
444.482658
0
LINE
8
Layer 1
10
243.479148
20
444.482658
11
249.070678
21
441.016610
0
LINE
8
Layer 1
10
249.070678
20
441.016610
11
254.172723
21
438.066497
0
LINE
8
Layer 1
10
254.172723
20
438.066497
11
259.116010
21
435.433879
0
LINE
8
Layer 1
10
259.116010
20
435.433879
11
264.513510
21
432.682209
0
LINE
8
Layer 1
10
264.513510
20
432.682209
11
263.913787
21
429.789429
0
LINE
8
Layer 1
10
263.913787
20
429.789429
11
262.164230
21
422.399285
0
LINE
8
Layer 1
10
262.164230
20
422.399285
11
260.738787
21
414.589118
0
LINE
8
Layer 1
10
260.738787
20
414.589118
11
259.657302
21
406.547431
0
LINE
8
Layer 1
10
259.657302
20
406.547431
11
258.939617
21
398.462729
0
LINE
8
Layer 1
10
258.939617
20
398.462729
11
258.823311
21
391.649150
0
LINE
8
Layer 1
10
258.823311
20
391.649150
11
259.173333
21
383.932684
0
LINE
8
Layer 1
10
259.173333
20
383.932684
11
259.926844
21
376.222840
0
LINE
8
Layer 1
10
259.926844
20
376.222840
11
261.021007
21
369.429129
0
LINE
8
Layer 1
10
261.021007
20
369.429129
11
261.585452
21
366.183569
0
LINE
8
Layer 1
10
261.585452
20
366.183569
11
257.893968
21
368.116689
0
LINE
8
Layer 1
10
257.893968
20
368.116689
11
250.177510
21
372.414532
0
LINE
8
Layer 1
10
250.177510
20
372.414532
11
242.441199
21
376.824817
0
LINE
8
Layer 1
10
242.441199
20
376.824817
11
238.690152
21
379.095269
0
LINE
8
Layer 1
10
238.690152
20
379.095269
11
237.791670
21
380.638673
0
LINE
8
Layer 1
10
237.791670
20
380.638673
11
236.423552
21
383.690204
0
LINE
8
Layer 1
10
236.423552
20
383.690204
11
234.909914
21
387.469342
0
LINE
8
Layer 1
10
234.909914
20
387.469342
11
233.574872
21
391.195569
0
LINE
8
Layer 1
10
233.574872
20
391.195569
11
231.776254
21
397.509196
0
LINE
8
Layer 1
10
231.776254
20
397.509196
11
230.192612
21
404.689340
0
LINE
8
Layer 1
10
230.192612
20
404.689340
11
228.986003
21
411.922399
0
LINE
8
Layer 1
10
228.986003
20
411.922399
11
228.318482
21
418.394769
0
LINE
8
Layer 1
10
228.318482
20
418.394769
11
228.135754
21
423.290518
0
LINE
8
Layer 1
10
228.135754
20
423.290518
11
228.080357
21
428.906433
0
LINE
8
Layer 1
10
228.080357
20
428.906433
11
228.292024
21
440.575657
0
LINE
8
Layer 1
10
228.292024
20
440.575657
11
228.834420
21
449.956236
0
LINE
8
Layer 1
10
228.834420
20
449.956236
11
229.192434
21
452.711346
0
LINE
8
Layer 1
10
229.192434
20
452.711346
11
229.386634
21
453.416642
0
LINE
8
Layer 1
10
229.386634
20
453.416642
11
229.588482
21
453.601969
0
LINE
8
Layer 1
10
229.588482
20
453.601969
11
237.067372
21
448.663079
0
LINE
8
Layer 1
10
237.067372
20
448.663079
11
237.067410
21
448.663079
0
LINE
8
Layer 1
10
392.289410
20
436.033579
11
392.174757
21
435.791044
0
LINE
8
Layer 1
10
392.174757
20
435.791044
11
391.901354
21
435.680801
0
LINE
8
Layer 1
10
391.901354
20
435.680801
11
391.724965
21
435.791044
0
LINE
8
Layer 1
10
391.724965
20
435.791044
11
391.760243
21
436.033579
0
LINE
8
Layer 1
10
391.760243
20
436.033579
11
392.148299
21
436.386357
0
LINE
8
Layer 1
10
392.148299
20
436.386357
11
392.289410
21
436.033579
0
LINE
8
Layer 1
10
392.289410
20
436.033579
11
392.289410
21
436.033579
0
LINE
8
Layer 1
10
390.737190
20
432.435239
11
390.357403
21
431.971667
0
LINE
8
Layer 1
10
390.357403
20
431.971667
11
390.185974
21
431.928120
0
LINE
8
Layer 1
10
390.185974
20
431.928120
11
390.560801
21
432.929128
0
LINE
8
Layer 1
10
390.560801
20
432.929128
11
390.882711
21
433.365691
0
LINE
8
Layer 1
10
390.882711
20
433.365691
11
391.125246
21
433.458295
0
LINE
8
Layer 1
10
391.125246
20
433.458295
11
391.089968
21
433.079058
0
LINE
8
Layer 1
10
391.089968
20
433.079058
11
390.737190
21
432.435235
0
LINE
8
Layer 1
10
390.737190
20
432.435235
11
390.737190
21
432.435239
0
LINE
8
Layer 1
10
276.049190
20
427.037739
11
288.938815
21
421.604960
0
LINE
8
Layer 1
10
288.938815
20
421.604960
11
298.626990
21
417.865509
0
LINE
8
Layer 1
10
298.626990
20
417.865509
11
304.345300
21
415.875070
0
LINE
8
Layer 1
10
304.345300
20
415.875070
11
310.559701
21
413.874709
0
LINE
8
Layer 1
10
310.559701
20
413.874709
11
316.496297
21
412.105858
0
LINE
8
Layer 1
10
316.496297
20
412.105858
11
321.381190
21
410.809949
0
LINE
8
Layer 1
10
321.381190
20
410.809949
11
324.132860
21
410.104393
0
LINE
8
Layer 1
10
324.132860
20
410.104393
11
323.754174
21
408.979361
0
LINE
8
Layer 1
10
323.754174
20
408.979361
11
322.532128
21
406.210600
0
LINE
8
Layer 1
10
322.532128
20
406.210600
11
318.629520
21
398.109893
0
LINE
8
Layer 1
10
318.629520
20
398.109893
11
315.722757
21
392.516092
0
LINE
8
Layer 1
10
315.722757
20
392.516092
11
312.718843
21
387.166620
0
LINE
8
Layer 1
10
312.718843
20
387.166620
11
309.619847
21
382.064368
0
LINE
8
Layer 1
10
309.619847
20
382.064368
11
306.427833
21
377.212231
0
LINE
8
Layer 1
10
306.427833
20
377.212231
11
303.144867
21
372.613101
0
LINE
8
Layer 1
10
303.144867
20
372.613101
11
299.773015
21
368.269873
0
LINE
8
Layer 1
10
299.773015
20
368.269873
11
296.314344
21
364.185439
0
LINE
8
Layer 1
10
296.314344
20
364.185439
11
292.770920
21
360.362693
0
LINE
8
Layer 1
10
292.770920
20
360.362693
11
287.937860
21
355.423803
0
LINE
8
Layer 1
10
287.937860
20
355.423803
11
284.304250
21
356.623253
0
LINE
8
Layer 1
10
284.304250
20
356.623253
11
277.277906
21
359.141205
0
LINE
8
Layer 1
10
277.277906
20
359.141205
11
270.823728
21
361.870824
0
LINE
8
Layer 1
10
270.823728
20
361.870824
11
266.003360
21
364.322631
0
LINE
8
Layer 1
10
266.003360
20
364.322631
11
264.537620
21
365.291391
0
LINE
8
Layer 1
10
264.537620
20
365.291391
11
263.878450
21
366.007143
0
LINE
8
Layer 1
10
263.878450
20
366.007143
11
263.401097
21
367.818437
0
LINE
8
Layer 1
10
263.401097
20
367.818437
11
262.784837
21
370.919578
0
LINE
8
Layer 1
10
262.784837
20
370.919578
11
261.585390
21
378.424943
0
LINE
8
Layer 1
10
261.585390
20
378.424943
11
261.157647
21
383.818036
0
LINE
8
Layer 1
10
261.157647
20
383.818036
11
261.020945
21
391.936343
0
LINE
8
Layer 1
10
261.020945
20
391.936343
11
261.132291
21
399.997334
0
LINE
8
Layer 1
10
261.132291
20
399.997334
11
261.514834
21
406.788293
0
LINE
8
Layer 1
10
261.514834
20
406.788293
11
262.241335
21
413.208827
0
LINE
8
Layer 1
10
262.241335
20
413.208827
11
263.384555
21
420.158543
0
LINE
8
Layer 1
10
263.384555
20
420.158543
11
264.681015
21
426.358623
0
LINE
8
Layer 1
10
264.681015
20
426.358623
11
265.818725
21
431.024143
0
LINE
8
Layer 1
10
265.818725
20
431.024143
11
265.996767
21
431.175176
0
LINE
8
Layer 1
10
265.996767
20
431.175176
11
266.396398
21
431.147615
0
LINE
8
Layer 1
10
266.396398
20
431.147615
11
268.005945
21
430.530254
0
LINE
8
Layer 1
10
268.005945
20
430.530254
11
276.049285
21
427.037754
0
LINE
8
Layer 1
10
276.049285
20
427.037754
11
276.049190
21
427.037739
0
LINE
8
Layer 1
10
390.067190
20
430.671349
11
389.921669
21
430.525828
0
LINE
8
Layer 1
10
389.921669
20
430.525828
11
389.855523
21
430.883016
0
LINE
8
Layer 1
10
389.855523
20
430.883016
11
389.890801
21
431.310760
0
LINE
8
Layer 1
10
389.890801
20
431.310760
11
390.031912
21
431.341627
0
LINE
8
Layer 1
10
390.031912
20
431.341627
11
390.128926
21
431.059405
0
LINE
8
Layer 1
10
390.128926
20
431.059405
11
390.067190
21
430.671349
0
LINE
8
Layer 1
10
390.067190
20
430.671349
11
390.067190
21
430.671349
0
LINE
8
Layer 1
10
385.516350
20
422.980789
11
385.163572
21
422.557455
0
LINE
8
Layer 1
10
385.163572
20
422.557455
11
384.916627
21
422.451622
0
LINE
8
Layer 1
10
384.916627
20
422.451622
11
385.212079
21
423.121899
0
LINE
8
Layer 1
10
385.212079
20
423.121899
11
385.798572
21
423.686342
0
LINE
8
Layer 1
10
385.798572
20
423.686342
11
385.516350
21
422.980786
0
LINE
8
Layer 1
10
385.516350
20
422.980786
11
385.516350
21
422.980789
0
LINE
8
Layer 1
10
375.497450
20
411.515489
11
375.250506
21
411.193579
0
LINE
8
Layer 1
10
375.250506
20
411.193579
11
375.003561
21
411.162711
0
LINE
8
Layer 1
10
375.003561
20
411.162711
11
374.681651
21
411.109794
0
LINE
8
Layer 1
10
374.681651
20
411.109794
11
374.333283
21
410.739377
0
LINE
8
Layer 1
10
374.333283
20
410.739377
11
374.059880
21
410.408648
0
LINE
8
Layer 1
10
374.059880
20
410.408648
11
373.945227
21
410.527710
0
LINE
8
Layer 1
10
373.945227
20
410.527710
11
374.174533
21
410.977502
0
LINE
8
Layer 1
10
374.174533
20
410.977502
11
374.721339
21
411.480211
0
LINE
8
Layer 1
10
374.721339
20
411.480211
11
375.572417
21
412.013788
0
LINE
8
Layer 1
10
375.572417
20
412.013788
11
375.619271
21
411.891969
0
LINE
8
Layer 1
10
375.619271
20
411.891969
11
375.497451
21
411.515489
0
LINE
8
Layer 1
10
375.497451
20
411.515489
11
375.497450
21
411.515489
0
LINE
8
Layer 1
10
333.728550
20
408.022989
11
344.311850
21
406.259099
0
LINE
8
Layer 1
10
344.311850
20
406.259099
11
350.661850
21
405.377154
0
LINE
8
Layer 1
10
350.661850
20
405.377154
11
358.034910
21
404.671598
0
LINE
8
Layer 1
10
358.034910
20
404.671598
11
361.686165
21
404.345278
0
LINE
8
Layer 1
10
361.686165
20
404.345278
11
363.326580
21
404.071875
0
LINE
8
Layer 1
10
363.326580
20
404.071875
11
363.354968
21
403.911334
0
LINE
8
Layer 1
10
363.354968
20
403.911334
11
363.222952
21
403.706971
0
LINE
8
Layer 1
10
363.222952
20
403.706971
11
362.603386
21
403.242848
0
LINE
8
Layer 1
10
362.603386
20
403.242848
11
361.719238
21
402.831642
0
LINE
8
Layer 1
10
361.719238
20
402.831642
11
360.821860
21
402.625485
0
LINE
8
Layer 1
10
360.821860
20
402.625485
11
358.855124
21
402.374131
0
LINE
8
Layer 1
10
358.855124
20
402.374131
11
358.510062
21
402.213727
0
LINE
8
Layer 1
10
358.510062
20
402.213727
11
358.422970
21
401.990485
0
LINE
8
Layer 1
10
358.422970
20
401.990485
11
358.127519
21
401.540694
0
LINE
8
Layer 1
10
358.127519
20
401.540694
11
357.435192
21
400.932155
0
LINE
8
Layer 1
10
357.435192
20
400.932155
11
356.831060
21
400.561738
0
LINE
8
Layer 1
10
356.831060
20
400.561738
11
356.941303
21
400.826322
0
LINE
8
Layer 1
10
356.941303
20
400.826322
11
357.152970
21
401.302572
0
LINE
8
Layer 1
10
357.152970
20
401.302572
11
356.623803
21
401.567156
0
LINE
8
Layer 1
10
356.623803
20
401.567156
11
356.174011
21
401.646531
0
LINE
8
Layer 1
10
356.174011
20
401.646531
11
356.094636
21
401.567156
0
LINE
8
Layer 1
10
356.094636
20
401.567156
11
356.054948
21
401.280524
0
LINE
8
Layer 1
10
356.054948
20
401.280524
11
355.671302
21
400.861600
0
LINE
8
Layer 1
10
355.671302
20
400.861600
11
355.367031
21
400.557329
0
LINE
8
Layer 1
10
355.367031
20
400.557329
11
355.459635
21
400.544100
0
LINE
8
Layer 1
10
355.459635
20
400.544100
11
355.882969
21
400.530871
0
LINE
8
Layer 1
10
355.882969
20
400.530871
11
356.306302
21
400.226600
0
LINE
8
Layer 1
10
356.306302
20
400.226600
11
357.175018
21
399.547503
0
LINE
8
Layer 1
10
357.175018
20
399.547503
11
358.705192
21
398.603820
0
LINE
8
Layer 1
10
358.705192
20
398.603820
11
362.731270
21
396.116736
0
LINE
8
Layer 1
10
362.731270
20
396.116736
11
366.148812
21
393.841320
0
LINE
8
Layer 1
10
366.148812
20
393.841320
11
364.630213
21
391.634251
0
LINE
8
Layer 1
10
364.630213
20
391.634251
11
360.720439
21
386.609370
0
LINE
8
Layer 1
10
360.720439
20
386.609370
11
355.944151
21
380.684914
0
LINE
8
Layer 1
10
355.944151
20
380.684914
11
351.826012
21
375.779120
0
LINE
8
Layer 1
10
351.826012
20
375.779120
11
347.540308
21
371.170408
0
LINE
8
Layer 1
10
347.540308
20
371.170408
11
341.855620
21
365.447140
0
LINE
8
Layer 1
10
341.855620
20
365.447140
11
336.164327
21
359.968612
0
LINE
8
Layer 1
10
336.164327
20
359.968612
11
331.858812
21
356.094120
0
LINE
8
Layer 1
10
331.858812
20
356.094120
11
327.543903
21
352.665560
0
LINE
8
Layer 1
10
327.543903
20
352.665560
11
323.850762
21
349.938146
0
LINE
8
Layer 1
10
323.850762
20
349.938146
11
321.083646
21
348.136774
0
LINE
8
Layer 1
10
321.083646
20
348.136774
11
320.142428
21
347.653634
0
LINE
8
Layer 1
10
320.142428
20
347.653634
11
319.546812
21
347.486340
0
LINE
8
Layer 1
10
319.546812
20
347.486340
11
315.386785
21
348.037005
0
LINE
8
Layer 1
10
315.386785
20
348.037005
11
308.623916
21
349.431030
0
LINE
8
Layer 1
10
308.623916
20
349.431030
11
301.007770
21
351.281460
0
LINE
8
Layer 1
10
301.007770
20
351.281460
11
294.287912
21
353.201340
0
LINE
8
Layer 1
10
294.287912
20
353.201340
11
289.948742
21
354.577170
0
LINE
8
Layer 1
10
289.948742
20
354.577170
11
293.194302
21
357.999120
0
LINE
8
Layer 1
10
293.194302
20
357.999120
11
295.793765
21
360.846909
0
LINE
8
Layer 1
10
295.793765
20
360.846909
11
298.505260
21
364.053128
0
LINE
8
Layer 1
10
298.505260
20
364.053128
11
304.064262
21
371.268005
0
LINE
8
Layer 1
10
304.064262
20
371.268005
11
309.471134
21
379.098039
0
LINE
8
Layer 1
10
309.471134
20
379.098039
11
314.325702
21
386.997520
0
LINE
8
Layer 1
10
314.325702
20
386.997520
11
319.502717
21
396.778301
0
LINE
8
Layer 1
10
319.502717
20
396.778301
11
324.309322
21
406.717820
0
LINE
8
Layer 1
10
324.309322
20
406.717820
11
325.539636
21
409.138761
0
LINE
8
Layer 1
10
325.539636
20
409.138761
11
325.961316
21
409.481066
0
LINE
8
Layer 1
10
325.961316
20
409.481066
11
326.425992
21
409.469490
0
LINE
8
Layer 1
10
326.425992
20
409.469490
11
333.728492
21
408.023100
0
LINE
8
Layer 1
10
333.728492
20
408.023100
11
333.728550
21
408.022989
0
LINE
8
Layer 1
10
254.706250
20
367.841589
11
262.679030
21
363.714089
0
LINE
8
Layer 1
10
262.679030
20
363.714089
11
263.666808
21
360.644919
0
LINE
8
Layer 1
10
263.666808
20
360.644919
11
265.413062
21
356.035660
0
LINE
8
Layer 1
10
265.413062
20
356.035660
11
267.635564
21
351.340414
0
LINE
8
Layer 1
10
267.635564
20
351.340414
11
269.937441
21
347.319845
0
LINE
8
Layer 1
10
269.937441
20
347.319845
11
270.994122
21
345.800273
0
LINE
8
Layer 1
10
270.994122
20
345.800273
11
271.921818
21
344.734619
0
LINE
8
Layer 1
10
271.921818
20
344.734619
11
272.921174
21
343.667467
0
LINE
8
Layer 1
10
272.921174
20
343.667467
11
272.967958
21
343.481983
0
LINE
8
Layer 1
10
272.967958
20
343.481983
11
272.719980
21
343.526355
0
LINE
8
Layer 1
10
272.719980
20
343.526355
11
271.361232
21
344.298056
0
LINE
8
Layer 1
10
271.361232
20
344.298056
11
268.887928
21
345.969339
0
LINE
8
Layer 1
10
268.887928
20
345.969339
11
264.937975
21
348.844341
0
LINE
8
Layer 1
10
264.937975
20
348.844341
11
261.233183
21
351.758205
0
LINE
8
Layer 1
10
261.233183
20
351.758205
11
257.767347
21
354.716717
0
LINE
8
Layer 1
10
257.767347
20
354.716717
11
254.534266
21
357.725664
0
LINE
8
Layer 1
10
254.534266
20
357.725664
11
251.527736
21
360.790833
0
LINE
8
Layer 1
10
251.527736
20
360.790833
11
248.741555
21
363.918011
0
LINE
8
Layer 1
10
248.741555
20
363.918011
11
246.169520
21
367.112984
0
LINE
8
Layer 1
10
246.169520
20
367.112984
11
243.805428
21
370.381539
0
LINE
8
Layer 1
10
243.805428
20
370.381539
11
241.880581
21
373.243452
0
LINE
8
Layer 1
10
241.880581
20
373.243452
11
241.238966
21
374.517862
0
LINE
8
Layer 1
10
241.238966
20
374.517862
11
241.399369
21
374.654838
0
LINE
8
Layer 1
10
241.399369
20
374.654838
11
241.880581
21
374.509040
0
LINE
8
Layer 1
10
241.880581
20
374.509040
11
243.805428
21
373.521259
0
LINE
8
Layer 1
10
243.805428
20
373.521259
11
254.706228
21
367.841529
0
LINE
8
Layer 1
10
254.706228
20
367.841529
11
254.706250
21
367.841589
0
LINE
8
Layer 1
10
269.910950
20
360.468529
11
280.564850
21
355.952969
0
LINE
8
Layer 1
10
280.564850
20
355.952969
11
286.491520
21
353.589359
0
LINE
8
Layer 1
10
286.491520
20
353.589359
11
282.540410
21
350.626019
0
LINE
8
Layer 1
10
282.540410
20
350.626019
11
274.677869
21
344.827233
0
LINE
8
Layer 1
10
274.677869
20
344.827233
11
273.585909
21
344.221446
0
LINE
8
Layer 1
10
273.585909
20
344.221446
11
273.357637
21
344.230058
0
LINE
8
Layer 1
10
273.357637
20
344.230058
11
273.191790
21
344.346569
0
LINE
8
Layer 1
10
273.191790
20
344.346569
11
272.553482
21
345.297622
0
LINE
8
Layer 1
10
272.553482
20
345.297622
11
271.485226
21
347.311555
0
LINE
8
Layer 1
10
271.485226
20
347.311555
11
268.693868
21
353.143965
0
LINE
8
Layer 1
10
268.693868
20
353.143965
11
266.087719
21
359.075602
0
LINE
8
Layer 1
10
266.087719
20
359.075602
11
265.250973
21
361.213569
0
LINE
8
Layer 1
10
265.250973
20
361.213569
11
264.936780
21
362.338269
0
LINE
8
Layer 1
10
264.936780
20
362.338269
11
264.994658
21
362.576945
0
LINE
8
Layer 1
10
264.994658
20
362.576945
11
265.505635
21
362.474971
0
LINE
8
Layer 1
10
265.505635
20
362.474971
11
269.910950
21
360.468549
0
LINE
8
Layer 1
10
269.910950
20
360.468549
11
269.910950
21
360.468529
0
LINE
8
Layer 1
10
294.146750
20
351.225749
11
303.587961
21
348.707795
0
LINE
8
Layer 1
10
303.587961
20
348.707795
11
313.267350
21
346.639639
0
LINE
8
Layer 1
10
313.267350
20
346.639639
11
317.677070
21
345.792972
0
LINE
8
Layer 1
10
317.677070
20
345.792972
11
316.336510
21
345.228527
0
LINE
8
Layer 1
10
316.336510
20
345.228527
11
313.938171
21
344.398947
0
LINE
8
Layer 1
10
313.938171
20
344.398947
11
310.299599
21
343.354392
0
LINE
8
Layer 1
10
310.299599
20
343.354392
11
303.177910
21
341.665467
0
LINE
8
Layer 1
10
303.177910
20
341.665467
11
298.766527
21
341.043144
0
LINE
8
Layer 1
10
298.766527
20
341.043144
11
294.001261
21
340.655639
0
LINE
8
Layer 1
10
294.001261
20
340.655639
11
288.806045
21
340.499645
0
LINE
8
Layer 1
10
288.806045
20
340.499645
11
283.104810
21
340.571857
0
LINE
8
Layer 1
10
283.104810
20
340.571857
11
277.209008
21
340.823211
0
LINE
8
Layer 1
10
277.209008
20
340.823211
11
273.932580
21
341.101024
0
LINE
8
Layer 1
10
273.932580
20
341.101024
11
273.116781
21
341.330330
0
LINE
8
Layer 1
10
273.116781
20
341.330330
11
273.004884
21
341.408602
0
LINE
8
Layer 1
10
273.004884
20
341.408602
11
273.121191
21
341.453802
0
LINE
8
Layer 1
10
273.121191
20
341.453802
11
275.068633
21
342.669233
0
LINE
8
Layer 1
10
275.068633
20
342.669233
11
279.043445
21
345.515159
0
LINE
8
Layer 1
10
279.043445
20
345.515159
11
283.514355
21
348.870406
0
LINE
8
Layer 1
10
283.514355
20
348.870406
11
286.950091
21
351.613802
0
LINE
8
Layer 1
10
286.950091
20
351.613802
11
288.643421
21
352.777972
0
LINE
8
Layer 1
10
288.643421
20
352.777972
11
294.146761
21
351.225752
0
LINE
8
Layer 1
10
294.146761
20
351.225752
11
294.146750
21
351.225749
0
LINE
8
Layer 1
10
327.202050
20
344.981579
11
331.876356
21
344.739044
0
LINE
8
Layer 1
10
331.876356
20
344.739044
11
338.138150
21
344.628801
0
LINE
8
Layer 1
10
338.138150
20
344.628801
11
342.945854
21
344.570923
0
LINE
8
Layer 1
10
342.945854
20
344.570923
11
344.159493
21
344.475632
0
LINE
8
Layer 1
10
344.159493
20
344.475632
11
344.585170
21
344.298071
0
LINE
8
Layer 1
10
344.585170
20
344.298071
11
344.227017
21
344.009717
0
LINE
8
Layer 1
10
344.227017
20
344.009717
11
343.089170
21
343.582042
0
LINE
8
Layer 1
10
343.089170
20
343.582042
11
338.490928
21
342.194631
0
LINE
8
Layer 1
10
338.490928
20
342.194631
11
333.784652
21
340.936618
0
LINE
8
Layer 1
10
333.784652
20
340.936618
11
328.965930
21
339.862987
0
LINE
8
Layer 1
10
328.965930
20
339.862987
11
324.054603
21
338.976220
0
LINE
8
Layer 1
10
324.054603
20
338.976220
11
319.070516
21
338.278795
0
LINE
8
Layer 1
10
319.070516
20
338.278795
11
314.033511
21
337.773193
0
LINE
8
Layer 1
10
314.033511
20
337.773193
11
308.963433
21
337.461895
0
LINE
8
Layer 1
10
308.963433
20
337.461895
11
303.880124
21
337.347381
0
LINE
8
Layer 1
10
303.880124
20
337.347381
11
298.803428
21
337.432131
0
LINE
8
Layer 1
10
298.803428
20
337.432131
11
292.912032
21
337.727583
0
LINE
8
Layer 1
10
292.912032
20
337.727583
11
288.396428
21
338.102409
0
LINE
8
Layer 1
10
288.396428
20
338.102409
11
284.868648
21
338.525743
0
LINE
8
Layer 1
10
284.868648
20
338.525743
11
290.513098
21
338.737410
0
LINE
8
Layer 1
10
290.513098
20
338.737410
11
295.372613
21
339.038374
0
LINE
8
Layer 1
10
295.372613
20
339.038374
11
299.914626
21
339.531162
0
LINE
8
Layer 1
10
299.914626
20
339.531162
11
304.324349
21
340.235616
0
LINE
8
Layer 1
10
304.324349
20
340.235616
11
308.786998
21
341.171580
0
LINE
8
Layer 1
10
308.786998
20
341.171580
11
315.560329
21
343.050125
0
LINE
8
Layer 1
10
315.560329
20
343.050125
11
318.411206
21
344.039005
0
LINE
8
Layer 1
10
318.411206
20
344.039005
11
320.322798
21
344.875750
0
LINE
8
Layer 1
10
320.322798
20
344.875750
11
321.194268
21
345.199865
0
LINE
8
Layer 1
10
321.194268
20
345.199865
11
322.426236
21
345.325542
0
LINE
8
Layer 1
10
322.426236
20
345.325542
11
327.201968
21
344.981583
0
LINE
8
Layer 1
10
327.201968
20
344.981583
11
327.202050
21
344.981579
0
LINE
8
Layer 1
10
298.097000
20
499.004000
11
297.777846
21
498.505150
0
LINE
8
Layer 1
10
297.777846
20
498.505150
11
297.819187
21
498.294035
0
LINE
8
Layer 1
10
297.819187
20
498.294035
11
298.131727
21
498.393805
0
LINE
8
Layer 1
10
298.131727
20
498.393805
11
298.626167
21
498.827611
0
LINE
8
Layer 1
10
298.626167
20
498.827611
11
298.965716
21
499.325910
0
LINE
8
Layer 1
10
298.965716
20
499.325910
11
298.908389
21
499.533167
0
LINE
8
Layer 1
10
298.908389
20
499.533167
11
298.515923
21
499.374417
0
LINE
8
Layer 1
10
298.515923
20
499.374417
11
298.097000
21
499.004000
0
LINE
8
Layer 1
10
298.097000
20
499.004000
11
298.097000
21
499.004000
0
LINE
8
Layer 1
10
360.998000
20
403.437000
11
360.953903
21
403.282660
0
LINE
8
Layer 1
10
360.953903
20
403.282660
11
361.174389
21
403.366444
0
LINE
8
Layer 1
10
361.174389
20
403.366444
11
361.461021
21
403.419361
0
LINE
8
Layer 1
10
361.461021
20
403.419361
11
361.668278
21
403.260611
0
LINE
8
Layer 1
10
361.668278
20
403.260611
11
361.919632
21
403.159188
0
LINE
8
Layer 1
10
361.919632
20
403.159188
11
362.409112
21
403.401722
0
LINE
8
Layer 1
10
362.409112
20
403.401722
11
362.810397
21
403.780959
0
LINE
8
Layer 1
10
362.810397
20
403.780959
11
362.126890
21
403.789778
0
LINE
8
Layer 1
10
362.126890
20
403.789778
11
361.403694
21
403.679535
0
LINE
8
Layer 1
10
361.403694
20
403.679535
11
360.998000
21
403.437000
0
LINE
8
Layer 1
10
360.998000
20
403.437000
11
360.998000
21
403.437000
0
LINE
8
Layer 1
10
907.521000
20
391.372000
11
905.231938
21
390.896714
0
LINE
8
Layer 1
10
905.231938
20
390.896714
11
903.105761
21
390.215549
0
LINE
8
Layer 1
10
903.105761
20
390.215549
11
901.149910
21
389.334293
0
LINE
8
Layer 1
10
901.149910
20
389.334293
11
899.371826
21
388.258733
0
LINE
8
Layer 1
10
899.371826
20
388.258733
11
897.778952
21
386.994658
0
LINE
8
Layer 1
10
897.778952
20
386.994658
11
896.378729
21
385.547856
0
LINE
8
Layer 1
10
896.378729
20
385.547856
11
895.178597
21
383.924114
0
LINE
8
Layer 1
10
895.178597
20
383.924114
11
894.186000
21
382.129220
0
LINE
8
Layer 1
10
894.186000
20
382.129220
11
893.676882
21
380.859219
0
LINE
8
Layer 1
10
893.676882
20
380.859219
11
893.288068
21
379.476769
0
LINE
8
Layer 1
10
893.288068
20
379.476769
11
892.876310
21
376.493586
0
LINE
8
Layer 1
10
892.876310
20
376.493586
11
892.960647
21
373.417795
0
LINE
8
Layer 1
10
892.960647
20
373.417795
11
893.551000
21
370.487520
0
LINE
8
Layer 1
10
893.551000
20
370.487520
11
894.598860
21
367.910931
0
LINE
8
Layer 1
10
894.598860
20
367.910931
11
896.079977
21
365.643989
0
LINE
8
Layer 1
10
896.079977
20
365.643989
11
897.961278
21
363.705297
0
LINE
8
Layer 1
10
897.961278
20
363.705297
11
900.209690
21
362.113459
0
LINE
8
Layer 1
10
900.209690
20
362.113459
11
902.792141
21
360.887078
0
LINE
8
Layer 1
10
902.792141
20
360.887078
11
905.675558
21
360.044760
0
LINE
8
Layer 1
10
905.675558
20
360.044760
11
908.826869
21
359.605105
0
LINE
8
Layer 1
10
908.826869
20
359.605105
11
912.213000
21
359.586720
0
LINE
8
Layer 1
10
912.213000
20
359.586720
11
914.880608
21
359.871767
0
LINE
8
Layer 1
10
914.880608
20
359.871767
11
917.348124
21
360.431733
0
LINE
8
Layer 1
10
917.348124
20
360.431733
11
919.607280
21
361.260416
0
LINE
8
Layer 1
10
919.607280
20
361.260416
11
921.649810
21
362.351616
0
LINE
8
Layer 1
10
921.649810
20
362.351616
11
923.467445
21
363.699131
0
LINE
8
Layer 1
10
923.467445
20
363.699131
11
925.051916
21
365.296761
0
LINE
8
Layer 1
10
925.051916
20
365.296761
11
926.394957
21
367.138304
0
LINE
8
Layer 1
10
926.394957
20
367.138304
11
927.488300
21
369.217560
0
LINE
8
Layer 1
10
927.488300
20
369.217560
11
928.145900
21
371.546447
0
LINE
8
Layer 1
10
928.145900
20
371.546447
11
928.462850
21
374.513639
0
LINE
8
Layer 1
10
928.462850
20
374.513639
11
928.415997
21
377.566816
0
LINE
8
Layer 1
10
928.415997
20
377.566816
11
927.982189
21
380.153660
0
LINE
8
Layer 1
10
927.982189
20
380.153660
11
927.311911
21
382.014908
0
LINE
8
Layer 1
10
927.311911
20
382.014908
11
926.396892
21
383.752545
0
LINE
8
Layer 1
10
926.396892
20
383.752545
11
925.253670
21
385.352103
0
LINE
8
Layer 1
10
925.253670
20
385.352103
11
923.898782
21
386.799111
0
LINE
8
Layer 1
10
923.898782
20
386.799111
11
922.348762
21
388.079101
0
LINE
8
Layer 1
10
922.348762
20
388.079101
11
920.620150
21
389.177601
0
LINE
8
Layer 1
10
920.620150
20
389.177601
11
918.729480
21
390.080144
0
LINE
8
Layer 1
10
918.729480
20
390.080144
11
916.693289
21
390.772260
0
LINE
8
Layer 1
10
916.693289
20
390.772260
11
914.719387
21
391.109053
0
LINE
8
Layer 1
10
914.719387
20
391.109053
11
912.067488
21
391.349934
0
LINE
8
Layer 1
10
912.067488
20
391.349934
11
909.435432
21
391.451909
0
LINE
8
Layer 1
10
909.435432
20
391.451909
11
907.521059
21
391.371983
0
LINE
8
Layer 1
10
907.521059
20
391.371983
11
907.521000
21
391.372000
0
LINE
8
Layer 1
10
1052.160000
20
391.372000
11
1049.870938
21
390.896714
0
LINE
8
Layer 1
10
1049.870938
20
390.896714
11
1047.744761
21
390.215549
0
LINE
8
Layer 1
10
1047.744761
20
390.215549
11
1045.788910
21
389.334293
0
LINE
8
Layer 1
10
1045.788910
20
389.334293
11
1044.010826
21
388.258733
0
LINE
8
Layer 1
10
1044.010826
20
388.258733
11
1042.417952
21
386.994658
0
LINE
8
Layer 1
10
1042.417952
20
386.994658
11
1041.017729
21
385.547856
0
LINE
8
Layer 1
10
1041.017729
20
385.547856
11
1039.817597
21
383.924114
0
LINE
8
Layer 1
10
1039.817597
20
383.924114
11
1038.825000
21
382.129220
0
LINE
8
Layer 1
10
1038.825000
20
382.129220
11
1038.315882
21
380.859219
0
LINE
8
Layer 1
10
1038.315882
20
380.859219
11
1037.927068
21
379.476769
0
LINE
8
Layer 1
10
1037.927068
20
379.476769
11
1037.515310
21
376.493586
0
LINE
8
Layer 1
10
1037.515310
20
376.493586
11
1037.599647
21
373.417795
0
LINE
8
Layer 1
10
1037.599647
20
373.417795
11
1038.190000
21
370.487520
0
LINE
8
Layer 1
10
1038.190000
20
370.487520
11
1039.237860
21
367.910931
0
LINE
8
Layer 1
10
1039.237860
20
367.910931
11
1040.718977
21
365.643989
0
LINE
8
Layer 1
10
1040.718977
20
365.643989
11
1042.600278
21
363.705297
0
LINE
8
Layer 1
10
1042.600278
20
363.705297
11
1044.848690
21
362.113459
0
LINE
8
Layer 1
10
1044.848690
20
362.113459
11
1047.431141
21
360.887078
0
LINE
8
Layer 1
10
1047.431141
20
360.887078
11
1050.314558
21
360.044760
0
LINE
8
Layer 1
10
1050.314558
20
360.044760
11
1053.465869
21
359.605105
0
LINE
8
Layer 1
10
1053.465869
20
359.605105
11
1056.852000
21
359.586720
0
LINE
8
Layer 1
10
1056.852000
20
359.586720
11
1059.701096
21
359.911593
0
LINE
8
Layer 1
10
1059.701096
20
359.911593
11
1062.334390
21
360.558512
0
LINE
8
Layer 1
10
1062.334390
20
360.558512
11
1064.731213
21
361.512183
0
LINE
8
Layer 1
10
1064.731213
20
361.512183
11
1066.870894
21
362.757308
0
LINE
8
Layer 1
10
1066.870894
20
362.757308
11
1068.732763
21
364.278590
0
LINE
8
Layer 1
10
1068.732763
20
364.278590
11
1070.296151
21
366.060734
0
LINE
8
Layer 1
10
1070.296151
20
366.060734
11
1071.540386
21
368.088443
0
LINE
8
Layer 1
10
1071.540386
20
368.088443
11
1072.444800
21
370.346420
0
LINE
8
Layer 1
10
1072.444800
20
370.346420
11
1072.948060
21
372.700113
0
LINE
8
Layer 1
10
1072.948060
20
372.700113
11
1073.137127
21
375.364690
0
LINE
8
Layer 1
10
1073.137127
20
375.364690
11
1073.015308
21
378.016037
0
LINE
8
Layer 1
10
1073.015308
20
378.016037
11
1072.585911
21
380.330040
0
LINE
8
Layer 1
10
1072.585911
20
380.330040
11
1071.912808
21
382.134512
0
LINE
8
Layer 1
10
1071.912808
20
382.134512
11
1070.991245
21
383.831911
0
LINE
8
Layer 1
10
1070.991245
20
383.831911
11
1069.840652
21
385.404459
0
LINE
8
Layer 1
10
1069.840652
20
385.404459
11
1068.480460
21
386.834379
0
LINE
8
Layer 1
10
1068.480460
20
386.834379
11
1066.930099
21
388.103894
0
LINE
8
Layer 1
10
1066.930099
20
388.103894
11
1065.209001
21
389.195227
0
LINE
8
Layer 1
10
1065.209001
20
389.195227
11
1063.336594
21
390.090601
0
LINE
8
Layer 1
10
1063.336594
20
390.090601
11
1061.332311
21
390.772240
0
LINE
8
Layer 1
10
1061.332311
20
390.772240
11
1059.358409
21
391.109033
0
LINE
8
Layer 1
10
1059.358409
20
391.109033
11
1056.706510
21
391.349914
0
LINE
8
Layer 1
10
1056.706510
20
391.349914
11
1054.074454
21
391.451889
0
LINE
8
Layer 1
10
1054.074454
20
391.451889
11
1052.160081
21
391.371963
0
LINE
8
Layer 1
10
1052.160081
20
391.371963
11
1052.160000
21
391.372000
0
LINE
8
Layer 1
10
716.316000
20
386.609000
11
709.926241
21
385.499404
0
LINE
8
Layer 1
10
709.926241
20
385.499404
11
704.091689
21
383.943323
0
LINE
8
Layer 1
10
704.091689
20
383.943323
11
701.382487
21
382.997851
0
LINE
8
Layer 1
10
701.382487
20
382.997851
11
698.811933
21
381.940758
0
LINE
8
Layer 1
10
698.811933
20
381.940758
11
696.379976
21
380.772044
0
LINE
8
Layer 1
10
696.379976
20
380.772044
11
694.086563
21
379.491710
0
LINE
8
Layer 1
10
694.086563
20
379.491710
11
691.931643
21
378.099755
0
LINE
8
Layer 1
10
691.931643
20
378.099755
11
689.915165
21
376.596179
0
LINE
8
Layer 1
10
689.915165
20
376.596179
11
688.037078
21
374.980984
0
LINE
8
Layer 1
10
688.037078
20
374.980984
11
686.297330
21
373.254167
0
LINE
8
Layer 1
10
686.297330
20
373.254167
11
684.695869
21
371.415731
0
LINE
8
Layer 1
10
684.695869
20
371.415731
11
683.232645
21
369.465674
0
LINE
8
Layer 1
10
683.232645
20
369.465674
11
681.907606
21
367.403997
0
LINE
8
Layer 1
10
681.907606
20
367.403997
11
680.720700
21
365.230700
0
LINE
8
Layer 1
10
680.720700
20
365.230700
11
679.621990
21
362.727975
0
LINE
8
Layer 1
10
679.621990
20
362.727975
11
678.710969
21
360.012341
0
LINE
8
Layer 1
10
678.710969
20
360.012341
11
677.993425
21
357.128861
0
LINE
8
Layer 1
10
677.993425
20
357.128861
11
677.475145
21
354.122600
0
LINE
8
Layer 1
10
677.475145
20
354.122600
11
677.161917
21
351.038620
0
LINE
8
Layer 1
10
677.161917
20
351.038620
11
677.059528
21
347.921984
0
LINE
8
Layer 1
10
677.059528
20
347.921984
11
677.173767
21
344.817757
0
LINE
8
Layer 1
10
677.173767
20
344.817757
11
677.510420
21
341.771000
0
LINE
8
Layer 1
10
677.510420
20
341.771000
11
678.285222
21
337.939156
0
LINE
8
Layer 1
10
678.285222
20
337.939156
11
679.429202
21
334.419441
0
LINE
8
Layer 1
10
679.429202
20
334.419441
11
680.957656
21
331.189943
0
LINE
8
Layer 1
10
680.957656
20
331.189943
11
682.885881
21
328.228750
0
LINE
8
Layer 1
10
682.885881
20
328.228750
11
685.229173
21
325.513951
0
LINE
8
Layer 1
10
685.229173
20
325.513951
11
688.002830
21
323.023634
0
LINE
8
Layer 1
10
688.002830
20
323.023634
11
691.222146
21
320.735888
0
LINE
8
Layer 1
10
691.222146
20
320.735888
11
694.902420
21
318.628800
0
LINE
8
Layer 1
10
694.902420
20
318.628800
11
698.984167
21
316.709466
0
LINE
8
Layer 1
10
698.984167
20
316.709466
11
703.532245
21
314.995185
0
LINE
8
Layer 1
10
703.532245
20
314.995185
11
709.145286
21
313.280904
0
LINE
8
Layer 1
10
709.145286
20
313.280904
11
716.421920
21
311.361570
0
LINE
8
Layer 1
10
716.421920
20
311.361570
11
724.566703
21
309.221753
0
LINE
8
Layer 1
10
724.566703
20
309.221753
11
729.748133
21
307.525111
0
LINE
8
Layer 1
10
729.748133
20
307.525111
11
731.529386
21
306.725159
0
LINE
8
Layer 1
10
731.529386
20
306.725159
11
732.931956
21
305.894614
0
LINE
8
Layer 1
10
732.931956
20
305.894614
11
734.076561
21
304.986347
0
LINE
8
Layer 1
10
734.076561
20
304.986347
11
735.083920
21
303.953230
0
LINE
8
Layer 1
10
735.083920
20
303.953230
11
736.161544
21
302.499124
0
LINE
8
Layer 1
10
736.161544
20
302.499124
11
736.878675
21
300.919340
0
LINE
8
Layer 1
10
736.878675
20
300.919340
11
737.271693
21
299.101431
0
LINE
8
Layer 1
10
737.271693
20
299.101431
11
737.376980
21
296.932950
0
LINE
8
Layer 1
10
737.376980
20
296.932950
11
737.195423
21
294.934105
0
LINE
8
Layer 1
10
737.195423
20
294.934105
11
736.678589
21
293.119640
0
LINE
8
Layer 1
10
736.678589
20
293.119640
11
735.828544
21
291.492037
0
LINE
8
Layer 1
10
735.828544
20
291.492037
11
734.647355
21
290.053775
0
LINE
8
Layer 1
10
734.647355
20
290.053775
11
733.137087
21
288.807335
0
LINE
8
Layer 1
10
733.137087
20
288.807335
11
731.299808
21
287.755197
0
LINE
8
Layer 1
10
731.299808
20
287.755197
11
729.137583
21
286.899842
0
LINE
8
Layer 1
10
729.137583
20
286.899842
11
726.652480
21
286.243750
0
LINE
8
Layer 1
10
726.652480
20
286.243750
11
724.786753
21
285.962974
0
LINE
8
Layer 1
10
724.786753
20
285.962974
11
722.541517
21
285.829787
0
LINE
8
Layer 1
10
722.541517
20
285.829787
11
717.339149
21
285.974757
0
LINE
8
Layer 1
10
717.339149
20
285.974757
11
711.898646
21
286.615820
0
LINE
8
Layer 1
10
711.898646
20
286.615820
11
709.355742
21
287.102751
0
LINE
8
Layer 1
10
709.355742
20
287.102751
11
707.073280
21
287.690140
0
LINE
8
Layer 1
10
707.073280
20
287.690140
11
705.203560
21
288.254585
0
LINE
8
Layer 1
10
705.203560
20
288.254585
11
705.203560
21
296.333205
0
LINE
8
Layer 1
10
705.203560
20
296.333205
11
705.203560
21
304.447095
0
LINE
8
Layer 1
10
705.203560
20
304.447095
11
691.621560
21
304.447095
0
LINE
8
Layer 1
10
691.621560
20
304.447095
11
678.039560
21
304.447095
0
LINE
8
Layer 1
10
678.039560
20
304.447095
11
678.110116
21
289.771495
0
LINE
8
Layer 1
10
678.110116
20
289.771495
11
678.215949
21
275.060695
0
LINE
8
Layer 1
10
678.215949
20
275.060695
11
681.708449
21
273.684865
0
LINE
8
Layer 1
10
681.708449
20
273.684865
11
687.862223
21
271.564888
0
LINE
8
Layer 1
10
687.862223
20
271.564888
11
694.770062
21
269.716110
0
LINE
8
Layer 1
10
694.770062
20
269.716110
11
702.008619
21
268.237750
0
LINE
8
Layer 1
10
702.008619
20
268.237750
11
709.154549
21
267.229025
0
LINE
8
Layer 1
10
709.154549
20
267.229025
11
715.016168
21
266.847033
0
LINE
8
Layer 1
10
715.016168
20
266.847033
11
721.810441
21
266.713087
0
LINE
8
Layer 1
10
721.810441
20
266.713087
11
728.432743
21
266.837111
0
LINE
8
Layer 1
10
728.432743
20
266.837111
11
733.778449
21
267.229025
0
LINE
8
Layer 1
10
733.778449
20
267.229025
11
737.913727
21
267.820274
0
LINE
8
Layer 1
10
737.913727
20
267.820274
11
741.784836
21
268.592184
0
LINE
8
Layer 1
10
741.784836
20
268.592184
11
745.408727
21
269.550130
0
LINE
8
Layer 1
10
745.408727
20
269.550130
11
748.802349
21
270.699487
0
LINE
8
Layer 1
10
748.802349
20
270.699487
11
751.982652
21
272.045631
0
LINE
8
Layer 1
10
751.982652
20
272.045631
11
754.966586
21
273.593935
0
LINE
8
Layer 1
10
754.966586
20
273.593935
11
757.771102
21
275.349774
0
LINE
8
Layer 1
10
757.771102
20
275.349774
11
760.413149
21
277.318525
0
LINE
8
Layer 1
10
760.413149
20
277.318525
11
762.286387
21
278.984782
0
LINE
8
Layer 1
10
762.286387
20
278.984782
11
764.015345
21
280.832528
0
LINE
8
Layer 1
10
764.015345
20
280.832528
11
765.597955
21
282.858041
0
LINE
8
Layer 1
10
765.597955
20
282.858041
11
767.032150
21
285.057597
0
LINE
8
Layer 1
10
767.032150
20
285.057597
11
768.315864
21
287.427476
0
LINE
8
Layer 1
10
768.315864
20
287.427476
11
769.447029
21
289.963955
0
LINE
8
Layer 1
10
769.447029
20
289.963955
11
770.423580
21
292.663312
0
LINE
8
Layer 1
10
770.423580
20
292.663312
11
771.243449
21
295.521825
0
LINE
8
Layer 1
10
771.243449
20
295.521825
11
771.667885
21
297.377216
0
LINE
8
Layer 1
10
771.667885
20
297.377216
11
771.913727
21
299.305367
0
LINE
8
Layer 1
10
771.913727
20
299.305367
11
772.054838
21
305.681825
0
LINE
8
Layer 1
10
772.054838
20
305.681825
11
771.961682
21
310.740881
0
LINE
8
Layer 1
10
771.961682
20
310.740881
11
771.574177
21
314.351349
0
LINE
8
Layer 1
10
771.574177
20
314.351349
11
770.730265
21
317.419430
0
LINE
8
Layer 1
10
770.730265
20
317.419430
11
769.267888
21
320.851325
0
LINE
8
Layer 1
10
769.267888
20
320.851325
11
767.579376
21
323.940889
0
LINE
8
Layer 1
10
767.579376
20
323.940889
11
765.536159
21
326.769178
0
LINE
8
Layer 1
10
765.536159
20
326.769178
11
763.107642
21
329.359341
0
LINE
8
Layer 1
10
763.107642
20
329.359341
11
760.263231
21
331.734530
0
LINE
8
Layer 1
10
760.263231
20
331.734530
11
756.972334
21
333.917893
0
LINE
8
Layer 1
10
756.972334
20
333.917893
11
753.204357
21
335.932580
0
LINE
8
Layer 1
10
753.204357
20
335.932580
11
748.928706
21
337.801741
0
LINE
8
Layer 1
10
748.928706
20
337.801741
11
744.114788
21
339.548525
0
LINE
8
Layer 1
10
744.114788
20
339.548525
11
739.272908
21
340.977276
0
LINE
8
Layer 1
10
739.272908
20
340.977276
11
732.684788
21
342.723525
0
LINE
8
Layer 1
10
732.684788
20
342.723525
11
723.385231
21
345.242581
0
LINE
8
Layer 1
10
723.385231
20
345.242581
11
720.075942
21
346.309046
0
LINE
8
Layer 1
10
720.075942
20
346.309046
11
717.502113
21
347.318460
0
LINE
8
Layer 1
10
717.502113
20
347.318460
11
715.545092
21
348.324567
0
LINE
8
Layer 1
10
715.545092
20
348.324567
11
714.086231
21
349.381109
0
LINE
8
Layer 1
10
714.086231
20
349.381109
11
713.006880
21
350.541831
0
LINE
8
Layer 1
10
713.006880
20
350.541831
11
712.188388
21
351.860475
0
LINE
8
Layer 1
10
712.188388
20
351.860475
11
711.580394
21
353.504201
0
LINE
8
Layer 1
10
711.580394
20
353.504201
11
711.293210
21
355.379436
0
LINE
8
Layer 1
10
711.293210
20
355.379436
11
711.330142
21
357.347276
0
LINE
8
Layer 1
10
711.330142
20
357.347276
11
711.694499
21
359.268815
0
LINE
8
Layer 1
10
711.694499
20
359.268815
11
712.220152
21
360.637827
0
LINE
8
Layer 1
10
712.220152
20
360.637827
11
712.949616
21
361.886536
0
LINE
8
Layer 1
10
712.949616
20
361.886536
11
713.881653
21
363.013703
0
LINE
8
Layer 1
10
713.881653
20
363.013703
11
715.015021
21
364.018086
0
LINE
8
Layer 1
10
715.015021
20
364.018086
11
716.348481
21
364.898446
0
LINE
8
Layer 1
10
716.348481
20
364.898446
11
717.880792
21
365.653543
0
LINE
8
Layer 1
10
717.880792
20
365.653543
11
719.610715
21
366.282136
0
LINE
8
Layer 1
10
719.610715
20
366.282136
11
721.537009
21
366.782985
0
LINE
8
Layer 1
10
721.537009
20
366.782985
11
723.437395
21
367.051014
0
LINE
8
Layer 1
10
723.437395
20
367.051014
11
725.759877
21
367.174348
0
LINE
8
Layer 1
10
725.759877
20
367.174348
11
731.084077
21
367.029929
0
LINE
8
Layer 1
10
731.084077
20
367.029929
11
736.335519
21
366.435719
0
LINE
8
Layer 1
10
736.335519
20
366.435719
11
738.567051
21
365.996813
0
LINE
8
Layer 1
10
738.567051
20
365.996813
11
740.340109
21
365.477705
0
LINE
8
Layer 1
10
740.340109
20
365.477705
11
741.186776
21
365.124927
0
LINE
8
Layer 1
10
741.186776
20
365.124927
11
741.186776
21
358.069367
0
LINE
8
Layer 1
10
741.186776
20
358.069367
11
741.186776
21
351.013807
0
LINE
8
Layer 1
10
741.186776
20
351.013807
11
754.768776
21
351.013807
0
LINE
8
Layer 1
10
754.768776
20
351.013807
11
768.350776
21
351.013807
0
LINE
8
Layer 1
10
768.350776
20
351.013807
11
768.350776
21
365.054407
0
LINE
8
Layer 1
10
768.350776
20
365.054407
11
768.350776
21
379.130207
0
LINE
8
Layer 1
10
768.350776
20
379.130207
11
767.398275
21
379.588818
0
LINE
8
Layer 1
10
767.398275
20
379.588818
11
762.773575
21
381.370348
0
LINE
8
Layer 1
10
762.773575
20
381.370348
11
756.806108
21
383.178336
0
LINE
8
Layer 1
10
756.806108
20
383.178336
11
750.322700
21
384.787885
0
LINE
8
Layer 1
10
750.322700
20
384.787885
11
744.150175
21
385.974098
0
LINE
8
Layer 1
10
744.150175
20
385.974098
11
741.269522
21
386.349476
0
LINE
8
Layer 1
10
741.269522
20
386.349476
11
738.197045
21
386.595870
0
LINE
8
Layer 1
10
738.197045
20
386.595870
11
729.015975
21
386.820765
0
LINE
8
Layer 1
10
729.015975
20
386.820765
11
721.078461
21
386.807536
0
LINE
8
Layer 1
10
721.078461
20
386.807536
11
716.315975
21
386.609098
0
LINE
8
Layer 1
10
716.315975
20
386.609098
11
716.316000
21
386.609000
0
LINE
8
Layer 1
10
623.782000
20
386.257000
11
620.508881
21
385.582863
0
LINE
8
Layer 1
10
620.508881
20
385.582863
11
617.520185
21
384.462242
0
LINE
8
Layer 1
10
617.520185
20
384.462242
11
614.981271
21
382.977817
0
LINE
8
Layer 1
10
614.981271
20
382.977817
11
613.932158
21
382.125016
0
LINE
8
Layer 1
10
613.932158
20
382.125016
11
613.057500
21
381.212270
0
LINE
8
Layer 1
10
613.057500
20
381.212270
11
611.589615
21
378.935199
0
LINE
8
Layer 1
10
611.589615
20
378.935199
11
610.468995
21
376.119039
0
LINE
8
Layer 1
10
610.468995
20
376.119039
11
609.698948
21
372.753869
0
LINE
8
Layer 1
10
609.698948
20
372.753869
11
609.282780
21
368.829770
0
LINE
8
Layer 1
10
609.282780
20
368.829770
11
609.071113
21
364.949210
0
LINE
8
Layer 1
10
609.071113
20
364.949210
11
605.825553
21
364.843377
0
LINE
8
Layer 1
10
605.825553
20
364.843377
11
602.544713
21
364.737544
0
LINE
8
Layer 1
10
602.544713
20
364.737544
11
602.544713
21
359.128374
0
LINE
8
Layer 1
10
602.544713
20
359.128374
11
602.544713
21
353.519204
0
LINE
8
Layer 1
10
602.544713
20
353.519204
11
605.825553
21
353.413371
0
LINE
8
Layer 1
10
605.825553
20
353.413371
11
609.071113
21
353.307538
0
LINE
8
Layer 1
10
609.071113
20
353.307538
11
609.176946
21
339.020038
0
LINE
8
Layer 1
10
609.176946
20
339.020038
11
609.176946
21
328.599857
0
LINE
8
Layer 1
10
609.176946
20
328.599857
11
609.071113
21
323.603638
0
LINE
8
Layer 1
10
609.071113
20
323.603638
11
608.742589
21
322.497348
0
LINE
8
Layer 1
10
608.742589
20
322.497348
11
608.136251
21
321.817699
0
LINE
8
Layer 1
10
608.136251
20
321.817699
11
607.106580
21
321.475395
0
LINE
8
Layer 1
10
607.106580
20
321.475395
11
605.508053
21
321.381138
0
LINE
8
Layer 1
10
605.508053
20
321.381138
11
603.250273
21
321.381138
0
LINE
8
Layer 1
10
603.250273
20
321.381138
11
603.250273
21
315.736688
0
LINE
8
Layer 1
10
603.250273
20
315.736688
11
603.250273
21
310.092238
0
LINE
8
Layer 1
10
603.250273
20
310.092238
11
620.007273
21
310.092238
0
LINE
8
Layer 1
10
620.007273
20
310.092238
11
636.764273
21
310.092238
0
LINE
8
Layer 1
10
636.764273
20
310.092238
11
636.764273
21
315.736688
0
LINE
8
Layer 1
10
636.764273
20
315.736688
11
636.764273
21
321.381138
0
LINE
8
Layer 1
10
636.764273
20
321.381138
11
634.365383
21
321.381138
0
LINE
8
Layer 1
10
634.365383
20
321.381138
11
633.096622
21
321.361639
0
LINE
8
Layer 1
10
633.096622
20
321.361639
11
632.166031
21
321.463269
0
LINE
8
Layer 1
10
632.166031
20
321.463269
11
631.521522
21
321.926222
0
LINE
8
Layer 1
10
631.521522
20
321.926222
11
631.111003
21
322.990688
0
LINE
8
Layer 1
10
631.111003
20
322.990688
11
630.882386
21
324.896861
0
LINE
8
Layer 1
10
630.882386
20
324.896861
11
630.783580
21
327.884932
0
LINE
8
Layer 1
10
630.783580
20
327.884932
11
630.767043
21
338.067538
0
LINE
8
Layer 1
10
630.767043
20
338.067538
11
630.767043
21
353.483938
0
LINE
8
Layer 1
10
630.767043
20
353.483938
11
634.823993
21
353.483938
0
LINE
8
Layer 1
10
634.823993
20
353.483938
11
638.880943
21
353.483938
0
LINE
8
Layer 1
10
638.880943
20
353.483938
11
638.880943
21
359.128388
0
LINE
8
Layer 1
10
638.880943
20
359.128388
11
638.880943
21
364.772838
0
LINE
8
Layer 1
10
638.880943
20
364.772838
11
634.471223
21
364.772838
0
LINE
8
Layer 1
10
634.471223
20
364.772838
11
630.061503
21
364.772838
0
LINE
8
Layer 1
10
630.061503
20
364.772838
11
630.061503
21
366.854228
0
LINE
8
Layer 1
10
630.061503
20
366.854228
11
630.153142
21
368.627144
0
LINE
8
Layer 1
10
630.153142
20
368.627144
11
630.444046
21
370.097030
0
LINE
8
Layer 1
10
630.444046
20
370.097030
11
630.958192
21
371.284968
0
LINE
8
Layer 1
10
630.958192
20
371.284968
11
631.719558
21
372.212043
0
LINE
8
Layer 1
10
631.719558
20
372.212043
11
632.752122
21
372.899340
0
LINE
8
Layer 1
10
632.752122
20
372.899340
11
634.079862
21
373.367941
0
LINE
8
Layer 1
10
634.079862
20
373.367941
11
635.726757
21
373.638933
0
LINE
8
Layer 1
10
635.726757
20
373.638933
11
637.716783
21
373.733398
0
LINE
8
Layer 1
10
637.716783
20
373.733398
11
640.644843
21
373.768676
0
LINE
8
Layer 1
10
640.644843
20
373.768676
11
640.644843
21
379.130906
0
LINE
8
Layer 1
10
640.644843
20
379.130906
11
640.644843
21
384.493136
0
LINE
8
Layer 1
10
640.644843
20
384.493136
11
638.281233
21
385.198692
0
LINE
8
Layer 1
10
638.281233
20
385.198692
11
634.765578
21
386.053626
0
LINE
8
Layer 1
10
634.765578
20
386.053626
11
631.216849
21
386.508378
0
LINE
8
Layer 1
10
631.216849
20
386.508378
11
627.575512
21
386.572869
0
LINE
8
Layer 1
10
627.575512
20
386.572869
11
623.782033
21
386.257022
0
LINE
8
Layer 1
10
623.782033
20
386.257022
11
623.782000
21
386.257000
0
LINE
8
Layer 1
10
1100.840000
20
378.813000
11
1099.640550
21
371.298830
0
LINE
8
Layer 1
10
1099.640550
20
371.298830
11
1098.688051
21
365.971885
0
LINE
8
Layer 1
10
1098.688051
20
365.971885
11
1097.841380
21
362.549940
0
LINE
8
Layer 1
10
1097.841380
20
362.549940
11
1096.821080
21
360.594777
0
LINE
8
Layer 1
10
1096.821080
20
360.594777
11
1095.288150
21
358.603236
0
LINE
8
Layer 1
10
1095.288150
20
358.603236
11
1093.470793
21
356.829977
0
LINE
8
Layer 1
10
1093.470793
20
356.829977
11
1091.597210
21
355.529660
0
LINE
8
Layer 1
10
1091.597210
20
355.529660
11
1089.592438
21
354.653229
0
LINE
8
Layer 1
10
1089.592438
20
354.653229
11
1086.962587
21
353.756951
0
LINE
8
Layer 1
10
1086.962587
20
353.756951
11
1084.418728
21
353.059111
0
LINE
8
Layer 1
10
1084.418728
20
353.059111
11
1082.671930
21
352.777990
0
LINE
8
Layer 1
10
1082.671930
20
352.777990
11
1081.418467
21
352.692552
0
LINE
8
Layer 1
10
1081.418467
20
352.692552
11
1081.041022
21
352.422663
0
LINE
8
Layer 1
10
1081.041022
20
352.422663
11
1080.793387
21
351.856357
0
LINE
8
Layer 1
10
1080.793387
20
351.856357
11
1080.578412
21
349.399590
0
LINE
8
Layer 1
10
1080.578412
20
349.399590
11
1080.555260
21
344.452430
0
LINE
8
Layer 1
10
1080.555260
20
344.452430
11
1080.555260
21
336.550200
0
LINE
8
Layer 1
10
1080.555260
20
336.550200
11
1085.317760
21
336.550200
0
LINE
8
Layer 1
10
1085.317760
20
336.550200
11
1090.080260
21
336.550200
0
LINE
8
Layer 1
10
1090.080260
20
336.550200
11
1090.080260
21
316.018500
0
LINE
8
Layer 1
10
1090.080260
20
316.018500
11
1090.194913
21
300.266950
0
LINE
8
Layer 1
10
1090.194913
20
300.266950
11
1090.468316
21
291.288800
0
LINE
8
Layer 1
10
1090.468316
20
291.288800
11
1091.179729
21
286.082002
0
LINE
8
Layer 1
10
1091.179729
20
286.082002
11
1091.717775
21
283.743808
0
LINE
8
Layer 1
10
1091.717775
20
283.743808
11
1092.382688
21
281.576355
0
LINE
8
Layer 1
10
1092.382688
20
281.576355
11
1093.178445
21
279.575093
0
LINE
8
Layer 1
10
1093.178445
20
279.575093
11
1094.109025
21
277.735477
0
LINE
8
Layer 1
10
1094.109025
20
277.735477
11
1095.178408
21
276.052957
0
LINE
8
Layer 1
10
1095.178408
20
276.052957
11
1096.390573
21
274.522987
0
LINE
8
Layer 1
10
1096.390573
20
274.522987
11
1097.749499
21
273.141020
0
LINE
8
Layer 1
10
1097.749499
20
273.141020
11
1099.259165
21
271.902506
0
LINE
8
Layer 1
10
1099.259165
20
271.902506
11
1100.923549
21
270.802899
0
LINE
8
Layer 1
10
1100.923549
20
270.802899
11
1102.746631
21
269.837652
0
LINE
8
Layer 1
10
1102.746631
20
269.837652
11
1104.732389
21
269.002215
0
LINE
8
Layer 1
10
1104.732389
20
269.002215
11
1106.884804
21
268.292043
0
LINE
8
Layer 1
10
1106.884804
20
268.292043
11
1109.207853
21
267.702587
0
LINE
8
Layer 1
10
1109.207853
20
267.702587
11
1111.705516
21
267.229300
0
LINE
8
Layer 1
10
1111.705516
20
267.229300
11
1114.403923
21
266.906013
0
LINE
8
Layer 1
10
1114.403923
20
266.906013
11
1117.470679
21
266.726593
0
LINE
8
Layer 1
10
1117.470679
20
266.726593
11
1124.224722
21
266.779510
0
LINE
8
Layer 1
10
1124.224722
20
266.779510
11
1130.998612
21
267.348364
0
LINE
8
Layer 1
10
1130.998612
20
267.348364
11
1134.090177
21
267.813866
0
LINE
8
Layer 1
10
1134.090177
20
267.813866
11
1136.823316
21
268.393470
0
LINE
8
Layer 1
10
1136.823316
20
268.393470
11
1139.292766
21
268.993193
0
LINE
8
Layer 1
10
1139.292766
20
268.993193
11
1139.398599
21
278.271253
0
LINE
8
Layer 1
10
1139.398599
20
278.271253
11
1139.328043
21
287.514033
0
LINE
8
Layer 1
10
1139.328043
20
287.514033
11
1138.199153
21
287.161255
0
LINE
8
Layer 1
10
1138.199153
20
287.161255
11
1136.482668
21
286.689415
0
LINE
8
Layer 1
10
1136.482668
20
286.689415
11
1134.389151
21
286.402784
0
LINE
8
Layer 1
10
1134.389151
20
286.402784
11
1132.216257
21
286.327819
0
LINE
8
Layer 1
10
1132.216257
20
286.327819
11
1130.261643
21
286.490977
0
LINE
8
Layer 1
10
1130.261643
20
286.490977
11
1128.855285
21
286.789391
0
LINE
8
Layer 1
10
1128.855285
20
286.789391
11
1127.642817
21
287.218030
0
LINE
8
Layer 1
10
1127.642817
20
287.218030
11
1126.609770
21
287.791362
0
LINE
8
Layer 1
10
1126.609770
20
287.791362
11
1125.741673
21
288.523858
0
LINE
8
Layer 1
10
1125.741673
20
288.523858
11
1125.024059
21
289.429987
0
LINE
8
Layer 1
10
1125.024059
20
289.429987
11
1124.442457
21
290.524219
0
LINE
8
Layer 1
10
1124.442457
20
290.524219
11
1123.982398
21
291.821022
0
LINE
8
Layer 1
10
1123.982398
20
291.821022
11
1123.629413
21
293.334867
0
LINE
8
Layer 1
10
1123.629413
20
293.334867
11
1123.342781
21
300.147887
0
LINE
8
Layer 1
10
1123.342781
20
300.147887
11
1123.241357
21
315.983167
0
LINE
8
Layer 1
10
1123.241357
20
315.983167
11
1123.241357
21
336.550167
0
LINE
8
Layer 1
10
1123.241357
20
336.550167
11
1130.649697
21
336.550167
0
LINE
8
Layer 1
10
1130.649697
20
336.550167
11
1138.058037
21
336.550167
0
LINE
8
Layer 1
10
1138.058037
20
336.550167
11
1138.058037
21
345.546007
0
LINE
8
Layer 1
10
1138.058037
20
345.546007
11
1138.058037
21
354.541847
0
LINE
8
Layer 1
10
1138.058037
20
354.541847
11
1131.002477
21
354.541847
0
LINE
8
Layer 1
10
1131.002477
20
354.541847
11
1123.946917
21
354.541847
0
LINE
8
Layer 1
10
1123.946917
20
354.541847
11
1123.946917
21
367.065447
0
LINE
8
Layer 1
10
1123.946917
20
367.065447
11
1123.946917
21
379.589047
0
LINE
8
Layer 1
10
1123.946917
20
379.589047
11
1112.481617
21
379.589047
0
LINE
8
Layer 1
10
1112.481617
20
379.589047
11
1101.016317
21
379.589047
0
LINE
8
Layer 1
10
1101.016317
20
379.589047
11
1100.839928
21
378.812935
0
LINE
8
Layer 1
10
1100.839928
20
378.812935
11
1100.840000
21
378.813000
0
LINE
8
Layer 1
10
566.950000
20
366.148000
11
564.166672
21
365.717449
0
LINE
8
Layer 1
10
564.166672
20
365.717449
11
561.509283
21
365.091456
0
LINE
8
Layer 1
10
561.509283
20
365.091456
11
558.983877
21
364.276327
0
LINE
8
Layer 1
10
558.983877
20
364.276327
11
556.596502
21
363.278367
0
LINE
8
Layer 1
10
556.596502
20
363.278367
11
554.353201
21
362.103879
0
LINE
8
Layer 1
10
554.353201
20
362.103879
11
552.260022
21
360.759170
0
LINE
8
Layer 1
10
552.260022
20
360.759170
11
550.323011
21
359.250543
0
LINE
8
Layer 1
10
550.323011
20
359.250543
11
548.548212
21
357.584304
0
LINE
8
Layer 1
10
548.548212
20
357.584304
11
546.941673
21
355.766756
0
LINE
8
Layer 1
10
546.941673
20
355.766756
11
545.509438
21
353.804206
0
LINE
8
Layer 1
10
545.509438
20
353.804206
11
544.257555
21
351.702957
0
LINE
8
Layer 1
10
544.257555
20
351.702957
11
543.192067
21
349.469314
0
LINE
8
Layer 1
10
543.192067
20
349.469314
11
542.319022
21
347.109582
0
LINE
8
Layer 1
10
542.319022
20
347.109582
11
541.644465
21
344.630066
0
LINE
8
Layer 1
10
541.644465
20
344.630066
11
541.174443
21
342.037070
0
LINE
8
Layer 1
10
541.174443
20
342.037070
11
540.915000
21
339.336900
0
LINE
8
Layer 1
10
540.915000
20
339.336900
11
540.858423
21
336.948418
0
LINE
8
Layer 1
10
540.858423
20
336.948418
11
540.951862
21
334.627374
0
LINE
8
Layer 1
10
540.951862
20
334.627374
11
541.193200
21
332.377540
0
LINE
8
Layer 1
10
541.193200
20
332.377540
11
541.580317
21
330.202689
0
LINE
8
Layer 1
10
541.580317
20
330.202689
11
542.111095
21
328.106593
0
LINE
8
Layer 1
10
542.111095
20
328.106593
11
542.783414
21
326.093026
0
LINE
8
Layer 1
10
542.783414
20
326.093026
11
543.595157
21
324.165758
0
LINE
8
Layer 1
10
543.595157
20
324.165758
11
544.544204
21
322.328562
0
LINE
8
Layer 1
10
544.544204
20
322.328562
11
545.628437
21
320.585212
0
LINE
8
Layer 1
10
545.628437
20
320.585212
11
546.845737
21
318.939479
0
LINE
8
Layer 1
10
546.845737
20
318.939479
11
548.193986
21
317.395136
0
LINE
8
Layer 1
10
548.193986
20
317.395136
11
549.671064
21
315.955955
0
LINE
8
Layer 1
10
549.671064
20
315.955955
11
551.274853
21
314.625708
0
LINE
8
Layer 1
10
551.274853
20
314.625708
11
553.003235
21
313.408169
0
LINE
8
Layer 1
10
553.003235
20
313.408169
11
554.854090
21
312.307108
0
LINE
8
Layer 1
10
554.854090
20
312.307108
11
556.825300
21
311.326300
0
LINE
8
Layer 1
10
556.825300
20
311.326300
11
558.833472
21
310.507985
0
LINE
8
Layer 1
10
558.833472
20
310.507985
11
560.919932
21
309.825063
0
LINE
8
Layer 1
10
560.919932
20
309.825063
11
565.273772
21
308.861262
0
LINE
8
Layer 1
10
565.273772
20
308.861262
11
569.778919
21
308.426629
0
LINE
8
Layer 1
10
569.778919
20
308.426629
11
574.327475
21
308.512895
0
LINE
8
Layer 1
10
574.327475
20
308.512895
11
578.811540
21
309.111792
0
LINE
8
Layer 1
10
578.811540
20
309.111792
11
583.123216
21
310.215050
0
LINE
8
Layer 1
10
583.123216
20
310.215050
11
587.154602
21
311.814403
0
LINE
8
Layer 1
10
587.154602
20
311.814403
11
589.031468
21
312.797530
0
LINE
8
Layer 1
10
589.031468
20
312.797530
11
590.797800
21
313.901580
0
LINE
8
Layer 1
10
590.797800
20
313.901580
11
593.482631
21
315.993855
0
LINE
8
Layer 1
10
593.482631
20
315.993855
11
595.819370
21
318.349887
0
LINE
8
Layer 1
10
595.819370
20
318.349887
11
597.803883
21
320.962236
0
LINE
8
Layer 1
10
597.803883
20
320.962236
11
599.432037
21
323.823459
0
LINE
8
Layer 1
10
599.432037
20
323.823459
11
600.699699
21
326.926116
0
LINE
8
Layer 1
10
600.699699
20
326.926116
11
601.602736
21
330.262766
0
LINE
8
Layer 1
10
601.602736
20
330.262766
11
602.137014
21
333.825968
0
LINE
8
Layer 1
10
602.137014
20
333.825968
11
602.298400
21
337.608280
0
LINE
8
Layer 1
10
602.298400
20
337.608280
11
602.128626
21
341.412222
0
LINE
8
Layer 1
10
602.128626
20
341.412222
11
601.601663
21
344.862285
0
LINE
8
Layer 1
10
601.601663
20
344.862285
11
600.691054
21
348.080846
0
LINE
8
Layer 1
10
600.691054
20
348.080846
11
599.370340
21
351.190280
0
LINE
8
Layer 1
10
599.370340
20
351.190280
11
598.272181
21
353.184897
0
LINE
8
Layer 1
10
598.272181
20
353.184897
11
597.019407
21
355.052442
0
LINE
8
Layer 1
10
597.019407
20
355.052442
11
595.618632
21
356.789864
0
LINE
8
Layer 1
10
595.618632
20
356.789864
11
594.076470
21
358.394116
0
LINE
8
Layer 1
10
594.076470
20
358.394116
11
592.399537
21
359.862149
0
LINE
8
Layer 1
10
592.399537
20
359.862149
11
590.594445
21
361.190913
0
LINE
8
Layer 1
10
590.594445
20
361.190913
11
588.667811
21
362.377361
0
LINE
8
Layer 1
10
588.667811
20
362.377361
11
586.626248
21
363.418442
0
LINE
8
Layer 1
10
586.626248
20
363.418442
11
584.476370
21
364.311110
0
LINE
8
Layer 1
10
584.476370
20
364.311110
11
582.224793
21
365.052314
0
LINE
8
Layer 1
10
582.224793
20
365.052314
11
579.878130
21
365.639006
0
LINE
8
Layer 1
10
579.878130
20
365.639006
11
577.442996
21
366.068138
0
LINE
8
Layer 1
10
577.442996
20
366.068138
11
574.926006
21
366.336660
0
LINE
8
Layer 1
10
574.926006
20
366.336660
11
572.333773
21
366.441523
0
LINE
8
Layer 1
10
572.333773
20
366.441523
11
569.672913
21
366.379680
0
LINE
8
Layer 1
10
569.672913
20
366.379680
11
566.950040
21
366.148080
0
LINE
8
Layer 1
10
566.950040
20
366.148080
11
566.950000
21
366.148000
0
LINE
8
Layer 1
10
574.428890
20
354.153500
11
575.485847
21
353.757865
0
LINE
8
Layer 1
10
575.485847
20
353.757865
11
576.435316
21
353.177848
0
LINE
8
Layer 1
10
576.435316
20
353.177848
11
577.278951
21
352.410969
0
LINE
8
Layer 1
10
577.278951
20
352.410969
11
578.018406
21
351.454748
0
LINE
8
Layer 1
10
578.018406
20
351.454748
11
578.655335
21
350.306704
0
LINE
8
Layer 1
10
578.655335
20
350.306704
11
579.191390
21
348.964356
0
LINE
8
Layer 1
10
579.191390
20
348.964356
11
579.967500
21
345.686830
0
LINE
8
Layer 1
10
579.967500
20
345.686830
11
580.253030
21
341.505304
0
LINE
8
Layer 1
10
580.253030
20
341.505304
11
580.240903
21
335.756124
0
LINE
8
Layer 1
10
580.240903
20
335.756124
11
579.977422
21
330.218621
0
LINE
8
Layer 1
10
579.977422
20
330.218621
11
579.508889
21
326.672130
0
LINE
8
Layer 1
10
579.508889
20
326.672130
11
578.978138
21
325.161110
0
LINE
8
Layer 1
10
578.978138
20
325.161110
11
578.332044
21
323.877467
0
LINE
8
Layer 1
10
578.332044
20
323.877467
11
577.561100
21
322.813759
0
LINE
8
Layer 1
10
577.561100
20
322.813759
11
576.655798
21
321.962545
0
LINE
8
Layer 1
10
576.655798
20
321.962545
11
575.606628
21
321.316383
0
LINE
8
Layer 1
10
575.606628
20
321.316383
11
574.404082
21
320.867830
0
LINE
8
Layer 1
10
574.404082
20
320.867830
11
573.038652
21
320.609447
0
LINE
8
Layer 1
10
573.038652
20
320.609447
11
571.500829
21
320.533790
0
LINE
8
Layer 1
10
571.500829
20
320.533790
11
569.623527
21
320.675659
0
LINE
8
Layer 1
10
569.623527
20
320.675659
11
568.024864
21
321.093275
0
LINE
8
Layer 1
10
568.024864
20
321.093275
11
566.682516
21
321.814335
0
LINE
8
Layer 1
10
566.682516
20
321.814335
11
565.574159
21
322.866540
0
LINE
8
Layer 1
10
565.574159
20
322.866540
11
564.677469
21
324.277589
0
LINE
8
Layer 1
10
564.677469
20
324.277589
11
563.970121
21
326.075181
0
LINE
8
Layer 1
10
563.970121
20
326.075181
11
563.429793
21
328.287015
0
LINE
8
Layer 1
10
563.429793
20
328.287015
11
563.034159
21
330.940790
0
LINE
8
Layer 1
10
563.034159
20
330.940790
11
562.717210
21
335.705500
0
LINE
8
Layer 1
10
562.717210
20
335.705500
11
562.800443
21
340.668646
0
LINE
8
Layer 1
10
562.800443
20
340.668646
11
563.247479
21
345.248139
0
LINE
8
Layer 1
10
563.247479
20
345.248139
11
564.021937
21
348.861890
0
LINE
8
Layer 1
10
564.021937
20
348.861890
11
564.677470
21
350.430581
0
LINE
8
Layer 1
10
564.677470
20
350.430581
11
565.568648
21
351.767348
0
LINE
8
Layer 1
10
565.568648
20
351.767348
11
566.669841
21
352.858548
0
LINE
8
Layer 1
10
566.669841
20
352.858548
11
567.955417
21
353.690540
0
LINE
8
Layer 1
10
567.955417
20
353.690540
11
569.399746
21
354.249680
0
LINE
8
Layer 1
10
569.399746
20
354.249680
11
570.977196
21
354.522325
0
LINE
8
Layer 1
10
570.977196
20
354.522325
11
572.662137
21
354.494832
0
LINE
8
Layer 1
10
572.662137
20
354.494832
11
574.428937
21
354.153560
0
LINE
8
Layer 1
10
574.428937
20
354.153560
11
574.428890
21
354.153500
0
LINE
8
Layer 1
10
844.551000
20
356.764000
11
841.717268
21
356.529802
0
LINE
8
Layer 1
10
841.717268
20
356.529802
11
838.993089
21
356.094273
0
LINE
8
Layer 1
10
838.993089
20
356.094273
11
836.392106
21
355.461133
0
LINE
8
Layer 1
10
836.392106
20
355.461133
11
833.927965
21
354.634103
0
LINE
8
Layer 1
10
833.927965
20
354.634103
11
831.614309
21
353.616904
0
LINE
8
Layer 1
10
831.614309
20
353.616904
11
829.464784
21
352.413257
0
LINE
8
Layer 1
10
829.464784
20
352.413257
11
827.493033
21
351.026882
0
LINE
8
Layer 1
10
827.493033
20
351.026882
11
825.712700
21
349.461500
0
LINE
8
Layer 1
10
825.712700
20
349.461500
11
824.158823
21
347.730133
0
LINE
8
Layer 1
10
824.158823
20
347.730133
11
822.515649
21
345.558894
0
LINE
8
Layer 1
10
822.515649
20
345.558894
11
821.024610
21
343.275205
0
LINE
8
Layer 1
10
821.024610
20
343.275205
11
819.927140
21
341.206490
0
LINE
8
Layer 1
10
819.927140
20
341.206490
11
819.578771
21
340.620548
0
LINE
8
Layer 1
10
819.578771
20
340.620548
11
819.468253
21
340.717218
0
LINE
8
Layer 1
10
819.468253
20
340.717218
11
819.389153
21
341.175622
0
LINE
8
Layer 1
10
819.389153
20
341.175622
11
819.221584
21
348.156220
0
LINE
8
Layer 1
10
819.221584
20
348.156220
11
819.151028
21
356.375950
0
LINE
8
Layer 1
10
819.151028
20
356.375950
11
817.634078
21
356.129005
0
LINE
8
Layer 1
10
817.634078
20
356.129005
11
812.985677
21
355.386518
0
LINE
8
Layer 1
10
812.985677
20
355.386518
11
808.783762
21
354.978066
0
LINE
8
Layer 1
10
808.783762
20
354.978066
11
802.974506
21
354.774667
0
LINE
8
Layer 1
10
802.974506
20
354.774667
11
793.504078
21
354.647335
0
LINE
8
Layer 1
10
793.504078
20
354.647335
11
777.170478
21
354.470946
0
LINE
8
Layer 1
10
777.170478
20
354.470946
11
777.170478
21
345.510386
0
LINE
8
Layer 1
10
777.170478
20
345.510386
11
777.170478
21
336.549826
0
LINE
8
Layer 1
10
777.170478
20
336.549826
11
780.451318
21
336.549826
0
LINE
8
Layer 1
10
780.451318
20
336.549826
11
783.392606
21
336.408715
0
LINE
8
Layer 1
10
783.392606
20
336.408715
11
784.057922
21
336.133107
0
LINE
8
Layer 1
10
784.057922
20
336.133107
11
784.614098
21
335.632603
0
LINE
8
Layer 1
10
784.614098
20
335.632603
11
785.460765
21
334.715380
0
LINE
8
Layer 1
10
785.460765
20
334.715380
11
785.566598
21
297.638380
0
LINE
8
Layer 1
10
785.566598
20
297.638380
11
785.566598
21
271.078630
0
LINE
8
Layer 1
10
785.566598
20
271.078630
11
785.460765
21
259.361980
0
LINE
8
Layer 1
10
785.460765
20
259.361980
11
785.056724
21
258.087019
0
LINE
8
Layer 1
10
785.056724
20
258.087019
11
784.732126
21
257.643635
0
LINE
8
Layer 1
10
784.732126
20
257.643635
11
784.292187
21
257.311459
0
LINE
8
Layer 1
10
784.292187
20
257.311459
11
782.965412
21
256.926160
0
LINE
8
Layer 1
10
782.965412
20
256.926160
11
780.874655
21
256.821980
0
LINE
8
Layer 1
10
780.874655
20
256.821980
11
777.876045
21
256.821980
0
LINE
8
Layer 1
10
777.876045
20
256.821980
11
777.876045
21
248.002530
0
LINE
8
Layer 1
10
777.876045
20
248.002530
11
777.876045
21
239.183080
0
LINE
8
Layer 1
10
777.876045
20
239.183080
11
803.099645
21
239.183080
0
LINE
8
Layer 1
10
803.099645
20
239.183080
11
828.323245
21
239.183080
0
LINE
8
Layer 1
10
828.323245
20
239.183080
11
828.323245
21
248.002530
0
LINE
8
Layer 1
10
828.323245
20
248.002530
11
828.323245
21
256.821980
0
LINE
8
Layer 1
10
828.323245
20
256.821980
11
825.042405
21
256.821980
0
LINE
8
Layer 1
10
825.042405
20
256.821980
11
822.101118
21
256.963091
0
LINE
8
Layer 1
10
822.101118
20
256.963091
11
821.435802
21
257.238699
0
LINE
8
Layer 1
10
821.435802
20
257.238699
11
820.879625
21
257.739203
0
LINE
8
Layer 1
10
820.879625
20
257.739203
11
820.032958
21
258.656426
0
LINE
8
Layer 1
10
820.032958
20
258.656426
11
819.962403
21
269.804226
0
LINE
8
Layer 1
10
819.962403
20
269.804226
11
819.856570
21
280.987326
0
LINE
8
Layer 1
10
819.856570
20
280.987326
11
820.985460
21
278.870656
0
LINE
8
Layer 1
10
820.985460
20
278.870656
11
822.634697
21
276.542320
0
LINE
8
Layer 1
10
822.634697
20
276.542320
11
824.971850
21
273.896486
0
LINE
8
Layer 1
10
824.971850
20
273.896486
11
826.516908
21
272.415369
0
LINE
8
Layer 1
10
826.516908
20
272.415369
11
827.860219
21
271.307977
0
LINE
8
Layer 1
10
827.860219
20
271.307977
11
829.223372
21
270.418868
0
LINE
8
Layer 1
10
829.223372
20
270.418868
11
830.827960
21
269.592596
0
LINE
8
Layer 1
10
830.827960
20
269.592596
11
833.806728
21
268.279047
0
LINE
8
Layer 1
10
833.806728
20
268.279047
11
836.507682
21
267.471516
0
LINE
8
Layer 1
10
836.507682
20
267.471516
11
839.579051
21
267.027787
0
LINE
8
Layer 1
10
839.579051
20
267.027787
11
843.669060
21
266.805646
0
LINE
8
Layer 1
10
843.669060
20
266.805646
11
848.894581
21
266.792417
0
LINE
8
Layer 1
10
848.894581
20
266.792417
11
850.738398
21
266.979279
0
LINE
8
Layer 1
10
850.738398
20
266.979279
11
852.664900
21
267.334813
0
LINE
8
Layer 1
10
852.664900
20
267.334813
11
855.712955
21
268.097807
0
LINE
8
Layer 1
10
855.712955
20
268.097807
11
858.611201
21
269.088024
0
LINE
8
Layer 1
10
858.611201
20
269.088024
11
861.357003
21
270.302000
0
LINE
8
Layer 1
10
861.357003
20
270.302000
11
863.947725
21
271.736275
0
LINE
8
Layer 1
10
863.947725
20
271.736275
11
866.380731
21
273.387384
0
LINE
8
Layer 1
10
866.380731
20
273.387384
11
868.653386
21
275.251865
0
LINE
8
Layer 1
10
868.653386
20
275.251865
11
870.763054
21
277.326257
0
LINE
8
Layer 1
10
870.763054
20
277.326257
11
872.707100
21
279.607095
0
LINE
8
Layer 1
10
872.707100
20
279.607095
11
874.482888
21
282.090919
0
LINE
8
Layer 1
10
874.482888
20
282.090919
11
876.087783
21
284.774266
0
LINE
8
Layer 1
10
876.087783
20
284.774266
11
877.519148
21
287.653672
0
LINE
8
Layer 1
10
877.519148
20
287.653672
11
878.774350
21
290.725675
0
LINE
8
Layer 1
10
878.774350
20
290.725675
11
879.850751
21
293.986814
0
LINE
8
Layer 1
10
879.850751
20
293.986814
11
880.745717
21
297.433624
0
LINE
8
Layer 1
10
880.745717
20
297.433624
11
881.456612
21
301.062645
0
LINE
8
Layer 1
10
881.456612
20
301.062645
11
881.980800
21
304.870413
0
LINE
8
Layer 1
10
881.980800
20
304.870413
11
882.209554
21
309.065714
0
LINE
8
Layer 1
10
882.209554
20
309.065714
11
882.170418
21
314.196978
0
LINE
8
Layer 1
10
882.170418
20
314.196978
11
881.886542
21
319.321634
0
LINE
8
Layer 1
10
881.886542
20
319.321634
11
881.381077
21
323.497113
0
LINE
8
Layer 1
10
881.381077
20
323.497113
11
880.755145
21
326.636935
0
LINE
8
Layer 1
10
880.755145
20
326.636935
11
879.990151
21
329.638472
0
LINE
8
Layer 1
10
879.990151
20
329.638472
11
879.088421
21
332.499037
0
LINE
8
Layer 1
10
879.088421
20
332.499037
11
878.052280
21
335.215943
0
LINE
8
Layer 1
10
878.052280
20
335.215943
11
876.884055
21
337.786502
0
LINE
8
Layer 1
10
876.884055
20
337.786502
11
875.586070
21
340.208026
0
LINE
8
Layer 1
10
875.586070
20
340.208026
11
874.160651
21
342.477830
0
LINE
8
Layer 1
10
874.160651
20
342.477830
11
872.610124
21
344.593226
0
LINE
8
Layer 1
10
872.610124
20
344.593226
11
870.936815
21
346.551525
0
LINE
8
Layer 1
10
870.936815
20
346.551525
11
869.143048
21
348.350042
0
LINE
8
Layer 1
10
869.143048
20
348.350042
11
867.231149
21
349.986088
0
LINE
8
Layer 1
10
867.231149
20
349.986088
11
865.203445
21
351.456977
0
LINE
8
Layer 1
10
865.203445
20
351.456977
11
863.062260
21
352.760021
0
LINE
8
Layer 1
10
863.062260
20
352.760021
11
860.809919
21
353.892534
0
LINE
8
Layer 1
10
860.809919
20
353.892534
11
858.448750
21
354.851827
0
LINE
8
Layer 1
10
858.448750
20
354.851827
11
855.981077
21
355.635213
0
LINE
8
Layer 1
10
855.981077
20
355.635213
11
853.510528
21
356.158868
0
LINE
8
Layer 1
10
853.510528
20
356.158868
11
850.530658
21
356.543616
0
LINE
8
Layer 1
10
850.530658
20
356.543616
11
847.418498
21
356.756385
0
LINE
8
Layer 1
10
847.418498
20
356.756385
11
844.551077
21
356.764103
0
LINE
8
Layer 1
10
844.551077
20
356.764103
11
844.551000
21
356.764000
0
LINE
8
Layer 1
10
837.495440
20
335.244500
11
839.420836
21
334.323418
0
LINE
8
Layer 1
10
839.420836
20
334.323418
11
841.283394
21
332.876477
0
LINE
8
Layer 1
10
841.283394
20
332.876477
11
842.927670
21
331.052504
0
LINE
8
Layer 1
10
842.927670
20
331.052504
11
844.198220
21
329.000330
0
LINE
8
Layer 1
10
844.198220
20
329.000330
11
845.439559
21
325.909665
0
LINE
8
Layer 1
10
845.439559
20
325.909665
11
846.244335
21
322.319600
0
LINE
8
Layer 1
10
846.244335
20
322.319600
11
846.678693
21
317.783650
0
LINE
8
Layer 1
10
846.678693
20
317.783650
11
846.808780
21
311.855330
0
LINE
8
Layer 1
10
846.808780
20
311.855330
11
846.585537
21
304.335080
0
LINE
8
Layer 1
10
846.585537
20
304.335080
11
846.266177
21
301.315177
0
LINE
8
Layer 1
10
846.266177
20
301.315177
11
845.790133
21
298.709930
0
LINE
8
Layer 1
10
845.790133
20
298.709930
11
845.143764
21
296.460221
0
LINE
8
Layer 1
10
845.143764
20
296.460221
11
844.313427
21
294.506930
0
LINE
8
Layer 1
10
844.313427
20
294.506930
11
843.285480
21
292.790939
0
LINE
8
Layer 1
10
843.285480
20
292.790939
11
842.046280
21
291.253130
0
LINE
8
Layer 1
10
842.046280
20
291.253130
11
840.227266
21
289.550425
0
LINE
8
Layer 1
10
840.227266
20
289.550425
11
838.315650
21
288.452954
0
LINE
8
Layer 1
10
838.315650
20
288.452954
11
836.073306
21
287.864806
0
LINE
8
Layer 1
10
836.073306
20
287.864806
11
833.262110
21
287.690070
0
LINE
8
Layer 1
10
833.262110
20
287.690070
11
830.131201
21
287.853230
0
LINE
8
Layer 1
10
830.131201
20
287.853230
11
829.065150
21
288.151437
0
LINE
8
Layer 1
10
829.065150
20
288.151437
11
827.899880
21
288.677848
0
LINE
8
Layer 1
10
827.899880
20
288.677848
11
826.669223
21
289.375203
0
LINE
8
Layer 1
10
826.669223
20
289.375203
11
825.562176
21
290.208572
0
LINE
8
Layer 1
10
825.562176
20
290.208572
11
824.566750
21
291.194904
0
LINE
8
Layer 1
10
824.566750
20
291.194904
11
823.670955
21
292.351148
0
LINE
8
Layer 1
10
823.670955
20
292.351148
11
822.862803
21
293.694255
0
LINE
8
Layer 1
10
822.862803
20
293.694255
11
822.130306
21
295.241174
0
LINE
8
Layer 1
10
822.130306
20
295.241174
11
820.844320
21
299.014248
0
LINE
8
Layer 1
10
820.844320
20
299.014248
11
820.425396
21
300.791917
0
LINE
8
Layer 1
10
820.425396
20
300.791917
11
820.191680
21
302.890389
0
LINE
8
Layer 1
10
820.191680
20
302.890389
11
820.068208
21
311.502548
0
LINE
8
Layer 1
10
820.068208
20
311.502548
11
820.165222
21
320.198523
0
LINE
8
Layer 1
10
820.165222
20
320.198523
11
820.405552
21
322.376922
0
LINE
8
Layer 1
10
820.405552
20
322.376922
11
820.844320
21
324.343648
0
LINE
8
Layer 1
10
820.844320
20
324.343648
11
821.432329
21
326.385764
0
LINE
8
Layer 1
10
821.432329
20
326.385764
11
822.115423
21
328.205464
0
LINE
8
Layer 1
10
822.115423
20
328.205464
11
822.899390
21
329.811844
0
LINE
8
Layer 1
10
822.899390
20
329.811844
11
823.790016
21
331.213998
0
LINE
8
Layer 1
10
823.790016
20
331.213998
11
824.793091
21
332.421021
0
LINE
8
Layer 1
10
824.793091
20
332.421021
11
825.914401
21
333.442007
0
LINE
8
Layer 1
10
825.914401
20
333.442007
11
827.159735
21
334.286051
0
LINE
8
Layer 1
10
827.159735
20
334.286051
11
828.534880
21
334.962248
0
LINE
8
Layer 1
10
828.534880
20
334.962248
11
830.619576
21
335.576852
0
LINE
8
Layer 1
10
830.619576
20
335.576852
11
832.935784
21
335.830963
0
LINE
8
Layer 1
10
832.935784
20
335.830963
11
835.291679
21
335.721272
0
LINE
8
Layer 1
10
835.291679
20
335.721272
11
837.495440
21
335.244470
0
LINE
8
Layer 1
10
837.495440
20
335.244470
11
837.495440
21
335.244500
0
LINE
8
Layer 1
10
1001.850000
20
356.588000
11
999.029843
21
356.213449
0
LINE
8
Layer 1
10
999.029843
20
356.213449
11
996.394070
21
355.516437
0
LINE
8
Layer 1
10
996.394070
20
355.516437
11
993.948466
21
354.501925
0
LINE
8
Layer 1
10
993.948466
20
354.501925
11
991.698818
21
353.174874
0
LINE
8
Layer 1
10
991.698818
20
353.174874
11
989.650911
21
351.540245
0
LINE
8
Layer 1
10
989.650911
20
351.540245
11
987.810532
21
349.602999
0
LINE
8
Layer 1
10
987.810532
20
349.602999
11
986.183466
21
347.368097
0
LINE
8
Layer 1
10
986.183466
20
347.368097
11
984.775500
21
344.840500
0
LINE
8
Layer 1
10
984.775500
20
344.840500
11
982.905780
21
340.783550
0
LINE
8
Layer 1
10
982.905780
20
340.783550
11
982.808077
21
340.669173
0
LINE
8
Layer 1
10
982.808077
20
340.669173
11
982.726084
21
340.814418
0
LINE
8
Layer 1
10
982.726084
20
340.814418
11
982.605919
21
341.956538
0
LINE
8
Layer 1
10
982.605919
20
341.956538
11
982.517724
21
348.156610
0
LINE
8
Layer 1
10
982.517724
20
348.156610
11
982.482446
21
356.411620
0
LINE
8
Layer 1
10
982.482446
20
356.411620
11
981.000776
21
356.129398
0
LINE
8
Layer 1
10
981.000776
20
356.129398
11
976.316547
21
355.386911
0
LINE
8
Layer 1
10
976.316547
20
355.386911
11
972.075491
21
354.978459
0
LINE
8
Layer 1
10
972.075491
20
354.978459
11
966.167553
21
354.775060
0
LINE
8
Layer 1
10
966.167553
20
354.775060
11
956.482676
21
354.647728
0
LINE
8
Layer 1
10
956.482676
20
354.647728
11
939.796276
21
354.471339
0
LINE
8
Layer 1
10
939.796276
20
354.471339
11
939.796276
21
345.510779
0
LINE
8
Layer 1
10
939.796276
20
345.510779
11
939.796276
21
336.550219
0
LINE
8
Layer 1
10
939.796276
20
336.550219
11
943.077116
21
336.550219
0
LINE
8
Layer 1
10
943.077116
20
336.550219
11
945.489235
21
336.456512
0
LINE
8
Layer 1
10
945.489235
20
336.456512
11
946.948854
21
336.065150
0
LINE
8
Layer 1
10
946.948854
20
336.065150
11
947.416560
21
335.706171
0
LINE
8
Layer 1
10
947.416560
20
335.706171
11
947.760244
21
335.210767
0
LINE
8
Layer 1
10
947.760244
20
335.210767
11
948.227676
21
333.727999
0
LINE
8
Layer 1
10
948.227676
20
333.727999
11
948.391249
21
331.261310
0
LINE
8
Layer 1
10
948.391249
20
331.261310
11
948.511001
21
326.145481
0
LINE
8
Layer 1
10
948.511001
20
326.145481
11
948.615732
21
311.511819
0
LINE
8
Layer 1
10
948.615732
20
311.511819
11
948.535254
21
296.917847
0
LINE
8
Layer 1
10
948.535254
20
296.917847
11
948.423496
21
291.851630
0
LINE
8
Layer 1
10
948.423496
20
291.851630
11
948.262954
21
289.454399
0
LINE
8
Layer 1
10
948.262954
20
289.454399
11
947.791113
21
288.118255
0
LINE
8
Layer 1
10
947.791113
20
288.118255
11
947.439437
21
287.656061
0
LINE
8
Layer 1
10
947.439437
20
287.656061
11
946.975313
21
287.311277
0
LINE
8
Layer 1
10
946.975313
20
287.311277
11
945.603889
21
286.914402
0
LINE
8
Layer 1
10
945.603889
20
286.914402
11
943.465174
21
286.808569
0
LINE
8
Layer 1
10
943.465174
20
286.808569
11
940.501834
21
286.808569
0
LINE
8
Layer 1
10
940.501834
20
286.808569
11
940.501834
21
277.989119
0
LINE
8
Layer 1
10
940.501834
20
277.989119
11
940.501834
21
269.169669
0
LINE
8
Layer 1
10
940.501834
20
269.169669
11
965.901834
21
269.169669
0
LINE
8
Layer 1
10
965.901834
20
269.169669
11
991.301834
21
269.169669
0
LINE
8
Layer 1
10
991.301834
20
269.169669
11
991.301834
21
277.989119
0
LINE
8
Layer 1
10
991.301834
20
277.989119
11
991.301834
21
286.808569
0
LINE
8
Layer 1
10
991.301834
20
286.808569
11
988.020994
21
286.808569
0
LINE
8
Layer 1
10
988.020994
20
286.808569
11
985.697622
21
286.900622
0
LINE
8
Layer 1
10
985.697622
20
286.900622
11
984.224223
21
287.253951
0
LINE
8
Layer 1
10
984.224223
20
287.253951
11
983.728748
21
287.564768
0
LINE
8
Layer 1
10
983.728748
20
287.564768
11
983.352749
21
287.984312
0
LINE
8
Layer 1
10
983.352749
20
287.984312
11
982.835154
21
289.207459
0
LINE
8
Layer 1
10
982.835154
20
289.207459
11
982.577185
21
293.693255
0
LINE
8
Layer 1
10
982.577185
20
293.693255
11
982.491196
21
302.233800
0
LINE
8
Layer 1
10
982.491196
20
302.233800
11
982.577185
21
311.343199
0
LINE
8
Layer 1
10
982.577185
20
311.343199
11
982.835154
21
317.535559
0
LINE
8
Layer 1
10
982.835154
20
317.535559
11
983.425023
21
321.831879
0
LINE
8
Layer 1
10
983.425023
20
321.831879
11
984.273274
21
325.520479
0
LINE
8
Layer 1
10
984.273274
20
325.520479
11
985.386935
21
328.612110
0
LINE
8
Layer 1
10
985.386935
20
328.612110
11
986.773034
21
331.117522
0
LINE
8
Layer 1
10
986.773034
20
331.117522
11
988.438598
21
333.047462
0
LINE
8
Layer 1
10
988.438598
20
333.047462
11
989.378375
21
333.799991
0
LINE
8
Layer 1
10
989.378375
20
333.799991
11
990.390654
21
334.412682
0
LINE
8
Layer 1
10
990.390654
20
334.412682
11
991.476313
21
334.886881
0
LINE
8
Layer 1
10
991.476313
20
334.886881
11
992.636230
21
335.223931
0
LINE
8
Layer 1
10
992.636230
20
335.223931
11
995.182354
21
335.491959
0
LINE
8
Layer 1
10
995.182354
20
335.491959
11
997.960483
21
335.178869
0
LINE
8
Layer 1
10
997.960483
20
335.178869
11
999.002282
21
334.881763
0
LINE
8
Layer 1
10
999.002282
20
334.881763
11
999.415694
21
334.574736
0
LINE
8
Layer 1
10
999.415694
20
334.574736
11
997.863474
21
332.987236
0
LINE
8
Layer 1
10
997.863474
20
332.987236
11
996.735618
21
331.854280
0
LINE
8
Layer 1
10
996.735618
20
331.854280
11
995.759484
21
330.650632
0
LINE
8
Layer 1
10
995.759484
20
330.650632
11
994.934659
21
329.375050
0
LINE
8
Layer 1
10
994.934659
20
329.375050
11
994.260729
21
328.026295
0
LINE
8
Layer 1
10
994.260729
20
328.026295
11
993.737281
21
326.603126
0
LINE
8
Layer 1
10
993.737281
20
326.603126
11
993.363901
21
325.104303
0
LINE
8
Layer 1
10
993.363901
20
325.104303
11
993.140177
21
323.528587
0
LINE
8
Layer 1
10
993.140177
20
323.528587
11
993.065694
21
321.874736
0
LINE
8
Layer 1
10
993.065694
20
321.874736
11
993.343438
21
319.079520
0
LINE
8
Layer 1
10
993.343438
20
319.079520
11
994.149935
21
316.538967
0
LINE
8
Layer 1
10
994.149935
20
316.538967
11
995.445085
21
314.289455
0
LINE
8
Layer 1
10
995.445085
20
314.289455
11
997.188786
21
312.367366
0
LINE
8
Layer 1
10
997.188786
20
312.367366
11
999.340939
21
310.809079
0
LINE
8
Layer 1
10
999.340939
20
310.809079
11
1001.861442
21
309.650975
0
LINE
8
Layer 1
10
1001.861442
20
309.650975
11
1004.710194
21
308.929434
0
LINE
8
Layer 1
10
1004.710194
20
308.929434
11
1007.847094
21
308.680836
0
LINE
8
Layer 1
10
1007.847094
20
308.680836
11
1009.900510
21
308.762485
0
LINE
8
Layer 1
10
1009.900510
20
308.762485
11
1011.832383
21
309.009911
0
LINE
8
Layer 1
10
1011.832383
20
309.009911
11
1013.650152
21
309.426837
0
LINE
8
Layer 1
10
1013.650152
20
309.426837
11
1015.361260
21
310.016982
0
LINE
8
Layer 1
10
1015.361260
20
310.016982
11
1016.973147
21
310.784068
0
LINE
8
Layer 1
10
1016.973147
20
310.784068
11
1018.493254
21
311.731815
0
LINE
8
Layer 1
10
1018.493254
20
311.731815
11
1019.929023
21
312.863944
0
LINE
8
Layer 1
10
1019.929023
20
312.863944
11
1021.287894
21
314.184176
0
LINE
8
Layer 1
10
1021.287894
20
314.184176
11
1022.544460
21
315.666465
0
LINE
8
Layer 1
10
1022.544460
20
315.666465
11
1023.621192
21
317.218620
0
LINE
8
Layer 1
10
1023.621192
20
317.218620
11
1024.526771
21
318.864207
0
LINE
8
Layer 1
10
1024.526771
20
318.864207
11
1025.269879
21
320.626790
0
LINE
8
Layer 1
10
1025.269879
20
320.626790
11
1025.859198
21
322.529934
0
LINE
8
Layer 1
10
1025.859198
20
322.529934
11
1026.303408
21
324.597203
0
LINE
8
Layer 1
10
1026.303408
20
324.597203
11
1026.611193
21
326.852162
0
LINE
8
Layer 1
10
1026.611193
20
326.852162
11
1026.791234
21
329.318376
0
LINE
8
Layer 1
10
1026.791234
20
329.318376
11
1026.780485
21
333.577769
0
LINE
8
Layer 1
10
1026.780485
20
333.577769
11
1026.334828
21
337.576704
0
LINE
8
Layer 1
10
1026.334828
20
337.576704
11
1025.469144
21
341.282937
0
LINE
8
Layer 1
10
1025.469144
20
341.282937
11
1024.198317
21
344.664226
0
LINE
8
Layer 1
10
1024.198317
20
344.664226
11
1022.537230
21
347.688327
0
LINE
8
Layer 1
10
1022.537230
20
347.688327
11
1020.500765
21
350.322998
0
LINE
8
Layer 1
10
1020.500765
20
350.322998
11
1018.103805
21
352.535995
0
LINE
8
Layer 1
10
1018.103805
20
352.535995
11
1015.361234
21
354.295076
0
LINE
8
Layer 1
10
1015.361234
20
354.295076
11
1012.357109
21
355.610829
0
LINE
8
Layer 1
10
1012.357109
20
355.610829
11
1009.240536
21
356.407336
0
LINE
8
Layer 1
10
1009.240536
20
356.407336
11
1005.806463
21
356.720978
0
LINE
8
Layer 1
10
1005.806463
20
356.720978
11
1001.849834
21
356.588136
0
LINE
8
Layer 1
10
1001.849834
20
356.588136
11
1001.850000
21
356.588000
0
LINE
8
Layer 1
10
1179.690000
20
356.588000
11
1174.934947
21
356.180445
0
LINE
8
Layer 1
10
1174.934947
20
356.180445
11
1170.429591
21
355.417769
0
LINE
8
Layer 1
10
1170.429591
20
355.417769
11
1166.208657
21
354.315270
0
LINE
8
Layer 1
10
1166.208657
20
354.315270
11
1162.306875
21
352.888244
0
LINE
8
Layer 1
10
1162.306875
20
352.888244
11
1158.758971
21
351.151987
0
LINE
8
Layer 1
10
1158.758971
20
351.151987
11
1155.599672
21
349.121796
0
LINE
8
Layer 1
10
1155.599672
20
349.121796
11
1152.863706
21
346.812969
0
LINE
8
Layer 1
10
1152.863706
20
346.812969
11
1150.585800
21
344.240800
0
LINE
8
Layer 1
10
1150.585800
20
344.240800
11
1149.264055
21
342.348959
0
LINE
8
Layer 1
10
1149.264055
20
342.348959
11
1148.127932
21
340.397174
0
LINE
8
Layer 1
10
1148.127932
20
340.397174
11
1147.174537
21
338.375107
0
LINE
8
Layer 1
10
1147.174537
20
338.375107
11
1146.400975
21
336.272424
0
LINE
8
Layer 1
10
1146.400975
20
336.272424
11
1145.804353
21
334.078787
0
LINE
8
Layer 1
10
1145.804353
20
334.078787
11
1145.381778
21
331.783862
0
LINE
8
Layer 1
10
1145.381778
20
331.783862
11
1145.130355
21
329.377312
0
LINE
8
Layer 1
10
1145.130355
20
329.377312
11
1145.047190
21
326.848800
0
LINE
8
Layer 1
10
1145.047190
20
326.848800
11
1145.139880
21
324.111251
0
LINE
8
Layer 1
10
1145.139880
20
324.111251
11
1145.436486
21
321.542734
0
LINE
8
Layer 1
10
1145.436486
20
321.542734
11
1145.944965
21
319.136170
0
LINE
8
Layer 1
10
1145.944965
20
319.136170
11
1146.673276
21
316.884480
0
LINE
8
Layer 1
10
1146.673276
20
316.884480
11
1147.629377
21
314.780583
0
LINE
8
Layer 1
10
1147.629377
20
314.780583
11
1148.821227
21
312.817401
0
LINE
8
Layer 1
10
1148.821227
20
312.817401
11
1150.256783
21
310.987854
0
LINE
8
Layer 1
10
1150.256783
20
310.987854
11
1151.944003
21
309.284863
0
LINE
8
Layer 1
10
1151.944003
20
309.284863
11
1153.890847
21
307.701347
0
LINE
8
Layer 1
10
1153.890847
20
307.701347
11
1156.105272
21
306.230229
0
LINE
8
Layer 1
10
1156.105272
20
306.230229
11
1158.595237
21
304.864427
0
LINE
8
Layer 1
10
1158.595237
20
304.864427
11
1161.368699
21
303.596864
0
LINE
8
Layer 1
10
1161.368699
20
303.596864
11
1164.433617
21
302.420459
0
LINE
8
Layer 1
10
1164.433617
20
302.420459
11
1167.797949
21
301.328133
0
LINE
8
Layer 1
10
1167.797949
20
301.328133
11
1175.456690
21
299.367400
0
LINE
8
Layer 1
10
1175.456690
20
299.367400
11
1180.155798
21
298.269930
0
LINE
8
Layer 1
10
1180.155798
20
298.269930
11
1183.548528
21
297.334518
0
LINE
8
Layer 1
10
1183.548528
20
297.334518
11
1186.008613
21
296.445407
0
LINE
8
Layer 1
10
1186.008613
20
296.445407
11
1187.909790
21
295.486840
0
LINE
8
Layer 1
10
1187.909790
20
295.486840
11
1189.251931
21
294.488589
0
LINE
8
Layer 1
10
1189.251931
20
294.488589
11
1190.259623
21
293.321665
0
LINE
8
Layer 1
10
1190.259623
20
293.321665
11
1190.929143
21
292.029065
0
LINE
8
Layer 1
10
1190.929143
20
292.029065
11
1191.256773
21
290.653784
0
LINE
8
Layer 1
10
1191.256773
20
290.653784
11
1191.238789
21
289.238815
0
LINE
8
Layer 1
10
1191.238789
20
289.238815
11
1190.871473
21
287.827155
0
LINE
8
Layer 1
10
1190.871473
20
287.827155
11
1190.151104
21
286.461798
0
LINE
8
Layer 1
10
1190.151104
20
286.461798
11
1189.073960
21
285.185740
0
LINE
8
Layer 1
10
1189.073960
20
285.185740
11
1187.394957
21
283.929521
0
LINE
8
Layer 1
10
1187.394957
20
283.929521
11
1185.325696
21
283.126399
0
LINE
8
Layer 1
10
1185.325696
20
283.126399
11
1182.555292
21
282.700307
0
LINE
8
Layer 1
10
1182.555292
20
282.700307
11
1178.772860
21
282.575180
0
LINE
8
Layer 1
10
1178.772860
20
282.575180
11
1173.057857
21
282.835354
0
LINE
8
Layer 1
10
1173.057857
20
282.835354
11
1170.746061
21
283.125845
0
LINE
8
Layer 1
10
1170.746061
20
283.125845
11
1169.036190
21
283.492403
0
LINE
8
Layer 1
10
1169.036190
20
283.492403
11
1168.698846
21
283.769665
0
LINE
8
Layer 1
10
1168.698846
20
283.769665
11
1168.507023
21
284.599245
0
LINE
8
Layer 1
10
1168.507023
20
284.599245
11
1168.401190
21
289.489633
0
LINE
8
Layer 1
10
1168.401190
20
289.489633
11
1168.401190
21
295.275193
0
LINE
8
Layer 1
10
1168.401190
20
295.275193
11
1157.288690
21
295.275193
0
LINE
8
Layer 1
10
1157.288690
20
295.275193
11
1146.176190
21
295.275193
0
LINE
8
Layer 1
10
1146.176190
20
295.275193
11
1146.176190
21
284.339093
0
LINE
8
Layer 1
10
1146.176190
20
284.339093
11
1146.268794
21
275.047793
0
LINE
8
Layer 1
10
1146.268794
20
275.047793
11
1146.458963
21
273.558977
0
LINE
8
Layer 1
10
1146.458963
20
273.558977
11
1146.811190
21
273.085493
0
LINE
8
Layer 1
10
1146.811190
20
273.085493
11
1150.241962
21
271.822658
0
LINE
8
Layer 1
10
1150.241962
20
271.822658
11
1155.948154
21
270.232402
0
LINE
8
Layer 1
10
1155.948154
20
270.232402
11
1162.527464
21
268.675219
0
LINE
8
Layer 1
10
1162.527464
20
268.675219
11
1168.577590
21
267.511603
0
LINE
8
Layer 1
10
1168.577590
20
267.511603
11
1171.123102
21
267.210639
0
LINE
8
Layer 1
10
1171.123102
20
267.210639
11
1174.382988
21
266.995665
0
LINE
8
Layer 1
10
1174.382988
20
266.995665
11
1182.027241
21
266.823686
0
LINE
8
Layer 1
10
1182.027241
20
266.823686
11
1189.473069
21
266.995665
0
LINE
8
Layer 1
10
1189.473069
20
266.995665
11
1192.484923
21
267.210639
0
LINE
8
Layer 1
10
1192.484923
20
267.210639
11
1194.683190
21
267.511603
0
LINE
8
Layer 1
10
1194.683190
20
267.511603
11
1199.480361
21
268.675701
0
LINE
8
Layer 1
10
1199.480361
20
268.675701
11
1203.817398
21
270.156885
0
LINE
8
Layer 1
10
1203.817398
20
270.156885
11
1207.693891
21
271.954745
0
LINE
8
Layer 1
10
1207.693891
20
271.954745
11
1211.109428
21
274.068865
0
LINE
8
Layer 1
10
1211.109428
20
274.068865
11
1214.063597
21
276.498835
0
LINE
8
Layer 1
10
1214.063597
20
276.498835
11
1216.555988
21
279.244239
0
LINE
8
Layer 1
10
1216.555988
20
279.244239
11
1218.586190
21
282.304666
0
LINE
8
Layer 1
10
1218.586190
20
282.304666
11
1220.153790
21
285.679703
0
LINE
8
Layer 1
10
1220.153790
20
285.679703
11
1220.793061
21
287.648506
0
LINE
8
Layer 1
10
1220.793061
20
287.648506
11
1221.305830
21
289.788461
0
LINE
8
Layer 1
10
1221.305830
20
289.788461
11
1221.935319
21
294.366854
0
LINE
8
Layer 1
10
1221.935319
20
294.366854
11
1222.009184
21
298.984947
0
LINE
8
Layer 1
10
1222.009184
20
298.984947
11
1221.827421
21
301.174526
0
LINE
8
Layer 1
10
1221.827421
20
301.174526
11
1221.494350
21
303.212803
0
LINE
8
Layer 1
10
1221.494350
20
303.212803
11
1220.658156
21
306.071408
0
LINE
8
Layer 1
10
1220.658156
20
306.071408
11
1219.382093
21
308.910172
0
LINE
8
Layer 1
10
1219.382093
20
308.910172
11
1217.768686
21
311.537276
0
LINE
8
Layer 1
10
1217.768686
20
311.537276
11
1215.920460
21
313.760903
0
LINE
8
Layer 1
10
1215.920460
20
313.760903
11
1213.875448
21
315.661425
0
LINE
8
Layer 1
10
1213.875448
20
315.661425
11
1211.671686
21
317.343252
0
LINE
8
Layer 1
10
1211.671686
20
317.343252
11
1209.213262
21
318.848967
0
LINE
8
Layer 1
10
1209.213262
20
318.848967
11
1206.404266
21
320.221150
0
LINE
8
Layer 1
10
1206.404266
20
320.221150
11
1203.148789
21
321.502384
0
LINE
8
Layer 1
10
1203.148789
20
321.502384
11
1199.350919
21
322.735250
0
LINE
8
Layer 1
10
1199.350919
20
322.735250
11
1194.914746
21
323.962329
0
LINE
8
Layer 1
10
1194.914746
20
323.962329
11
1189.744360
21
325.226203
0
LINE
8
Layer 1
10
1189.744360
20
325.226203
11
1182.826026
21
327.024817
0
LINE
8
Layer 1
10
1182.826026
20
327.024817
11
1180.441942
21
327.858599
0
LINE
8
Layer 1
10
1180.441942
20
327.858599
11
1178.662685
21
328.714292
0
LINE
8
Layer 1
10
1178.662685
20
328.714292
11
1177.404331
21
329.641092
0
LINE
8
Layer 1
10
1177.404331
20
329.641092
11
1176.582957
21
330.688195
0
LINE
8
Layer 1
10
1176.582957
20
330.688195
11
1176.114641
21
331.904796
0
LINE
8
Layer 1
10
1176.114641
20
331.904796
11
1175.915460
21
333.340093
0
LINE
8
Layer 1
10
1175.915460
20
333.340093
11
1176.002759
21
335.063608
0
LINE
8
Layer 1
10
1176.002759
20
335.063608
11
1176.494788
21
336.577935
0
LINE
8
Layer 1
10
1176.494788
20
336.577935
11
1177.379560
21
337.875635
0
LINE
8
Layer 1
10
1177.379560
20
337.875635
11
1178.645085
21
338.949265
0
LINE
8
Layer 1
10
1178.645085
20
338.949265
11
1180.279376
21
339.791385
0
LINE
8
Layer 1
10
1180.279376
20
339.791385
11
1182.270444
21
340.394552
0
LINE
8
Layer 1
10
1182.270444
20
340.394552
11
1184.606302
21
340.751325
0
LINE
8
Layer 1
10
1184.606302
20
340.751325
11
1187.274960
21
340.854263
0
LINE
8
Layer 1
10
1187.274960
20
340.854263
11
1189.907566
21
340.704332
0
LINE
8
Layer 1
10
1189.907566
20
340.704332
11
1192.804756
21
340.369193
0
LINE
8
Layer 1
10
1192.804756
20
340.369193
11
1195.291841
21
339.941449
0
LINE
8
Layer 1
10
1195.291841
20
339.941449
11
1196.694130
21
339.513703
0
LINE
8
Layer 1
10
1196.694130
20
339.513703
11
1196.901387
21
337.838008
0
LINE
8
Layer 1
10
1196.901387
20
337.838008
11
1196.976352
21
334.045643
0
LINE
8
Layer 1
10
1196.976352
20
334.045643
11
1196.976352
21
328.789253
0
LINE
8
Layer 1
10
1196.976352
20
328.789253
11
1207.559652
21
328.789253
0
LINE
8
Layer 1
10
1207.559652
20
328.789253
11
1218.142952
21
328.789253
0
LINE
8
Layer 1
10
1218.142952
20
328.789253
11
1218.142952
21
339.478453
0
LINE
8
Layer 1
10
1218.142952
20
339.478453
11
1218.142952
21
350.167653
0
LINE
8
Layer 1
10
1218.142952
20
350.167653
11
1214.721002
21
351.508213
0
LINE
8
Layer 1
10
1214.721002
20
351.508213
11
1210.873174
21
352.866684
0
LINE
8
Layer 1
10
1210.873174
20
352.866684
11
1206.811613
21
354.028371
0
LINE
8
Layer 1
10
1206.811613
20
354.028371
11
1202.567325
21
354.988313
0
LINE
8
Layer 1
10
1202.567325
20
354.988313
11
1198.171312
21
355.741548
0
LINE
8
Layer 1
10
1198.171312
20
355.741548
11
1193.654579
21
356.283117
0
LINE
8
Layer 1
10
1193.654579
20
356.283117
11
1189.048131
21
356.608057
0
LINE
8
Layer 1
10
1189.048131
20
356.608057
11
1184.382970
21
356.711410
0
LINE
8
Layer 1
10
1184.382970
20
356.711410
11
1179.690102
21
356.588213
0
LINE
8
Layer 1
10
1179.690102
20
356.588213
11
1179.690000
21
356.588000
0
LINE
8
Layer 1
10
923.749000
20
355.777000
11
919.687089
21
355.182239
0
LINE
8
Layer 1
10
919.687089
20
355.182239
11
914.801660
21
354.802452
0
LINE
8
Layer 1
10
914.801660
20
354.802452
11
908.375026
21
354.601260
0
LINE
8
Layer 1
10
908.375026
20
354.601260
11
899.689500
21
354.542280
0
LINE
8
Layer 1
10
899.689500
20
354.542280
11
885.825300
21
354.542280
0
LINE
8
Layer 1
10
885.825300
20
354.542280
11
885.825300
21
345.546440
0
LINE
8
Layer 1
10
885.825300
20
345.546440
11
885.825300
21
336.550600
0
LINE
8
Layer 1
10
885.825300
20
336.550600
11
888.506410
21
336.550600
0
LINE
8
Layer 1
10
888.506410
20
336.550600
11
890.404245
21
336.481698
0
LINE
8
Layer 1
10
890.404245
20
336.481698
11
891.650543
21
336.211052
0
LINE
8
Layer 1
10
891.650543
20
336.211052
11
892.480121
21
335.642749
0
LINE
8
Layer 1
10
892.480121
20
335.642749
11
893.127800
21
334.680880
0
LINE
8
Layer 1
10
893.127800
20
334.680880
11
893.481681
21
333.512853
0
LINE
8
Layer 1
10
893.481681
20
333.512853
11
893.683425
21
330.548970
0
LINE
8
Layer 1
10
893.683425
20
330.548970
11
893.868634
21
313.267280
0
LINE
8
Layer 1
10
893.868634
20
313.267280
11
893.881863
21
298.278618
0
LINE
8
Layer 1
10
893.881863
20
298.278618
11
893.762801
21
290.724780
0
LINE
8
Layer 1
10
893.762801
20
290.724780
11
893.387975
21
288.699062
0
LINE
8
Layer 1
10
893.387975
20
288.699062
11
893.068270
21
288.013005
0
LINE
8
Layer 1
10
893.068270
20
288.013005
11
892.616274
21
287.510089
0
LINE
8
Layer 1
10
892.616274
20
287.510089
11
891.998913
21
287.164269
0
LINE
8
Layer 1
10
891.998913
20
287.164269
11
891.183114
21
286.949501
0
LINE
8
Layer 1
10
891.183114
20
286.949501
11
888.823911
21
286.808940
0
LINE
8
Layer 1
10
888.823911
20
286.808940
11
885.825301
21
286.808940
0
LINE
8
Layer 1
10
885.825301
20
286.808940
11
885.825301
21
277.989490
0
LINE
8
Layer 1
10
885.825301
20
277.989490
11
885.825301
21
269.170040
0
LINE
8
Layer 1
10
885.825301
20
269.170040
11
910.696101
21
269.170040
0
LINE
8
Layer 1
10
910.696101
20
269.170040
11
935.566901
21
269.170040
0
LINE
8
Layer 1
10
935.566901
20
269.170040
11
935.566901
21
277.989490
0
LINE
8
Layer 1
10
935.566901
20
277.989490
11
935.566901
21
286.808940
0
LINE
8
Layer 1
10
935.566901
20
286.808940
11
932.779951
21
286.808940
0
LINE
8
Layer 1
10
932.779951
20
286.808940
11
930.619185
21
286.920837
0
LINE
8
Layer 1
10
930.619185
20
286.920837
11
929.872839
21
287.097295
0
LINE
8
Layer 1
10
929.872839
20
287.097295
11
929.305087
21
287.386614
0
LINE
8
Layer 1
10
929.305087
20
287.386614
11
928.882857
21
287.813186
0
LINE
8
Layer 1
10
928.882857
20
287.813186
11
928.573074
21
288.401402
0
LINE
8
Layer 1
10
928.573074
20
288.401402
11
928.158561
21
290.160330
0
LINE
8
Layer 1
10
928.158561
20
290.160330
11
927.902797
21
300.580518
0
LINE
8
Layer 1
10
927.902797
20
300.580518
11
927.805783
21
324.309230
0
LINE
8
Layer 1
10
927.805783
20
324.309230
11
927.805783
21
356.306230
0
LINE
8
Layer 1
10
927.805783
20
356.306230
11
927.029671
21
356.270952
0
LINE
8
Layer 1
10
927.029671
20
356.270952
11
923.748831
21
355.777063
0
LINE
8
Layer 1
10
923.748831
20
355.777063
11
923.749000
21
355.777000
0
LINE
8
Layer 1
10
1068.390000
20
355.777000
11
1064.328089
21
355.182239
0
LINE
8
Layer 1
10
1064.328089
20
355.182239
11
1059.442660
21
354.802452
0
LINE
8
Layer 1
10
1059.442660
20
354.802452
11
1053.016026
21
354.601260
0
LINE
8
Layer 1
10
1053.016026
20
354.601260
11
1044.330500
21
354.542280
0
LINE
8
Layer 1
10
1044.330500
20
354.542280
11
1030.466300
21
354.542280
0
LINE
8
Layer 1
10
1030.466300
20
354.542280
11
1030.466300
21
345.546440
0
LINE
8
Layer 1
10
1030.466300
20
345.546440
11
1030.466300
21
336.550600
0
LINE
8
Layer 1
10
1030.466300
20
336.550600
11
1033.147410
21
336.550600
0
LINE
8
Layer 1
10
1033.147410
20
336.550600
11
1035.045245
21
336.481698
0
LINE
8
Layer 1
10
1035.045245
20
336.481698
11
1036.291543
21
336.211052
0
LINE
8
Layer 1
10
1036.291543
20
336.211052
11
1037.121121
21
335.642749
0
LINE
8
Layer 1
10
1037.121121
20
335.642749
11
1037.768800
21
334.680880
0
LINE
8
Layer 1
10
1037.768800
20
334.680880
11
1038.122681
21
333.506238
0
LINE
8
Layer 1
10
1038.122681
20
333.506238
11
1038.324425
21
330.496045
0
LINE
8
Layer 1
10
1038.324425
20
330.496045
11
1038.509634
21
312.843880
0
LINE
8
Layer 1
10
1038.509634
20
312.843880
11
1038.491995
21
296.915968
0
LINE
8
Layer 1
10
1038.491995
20
296.915968
11
1038.262689
21
290.089680
0
LINE
8
Layer 1
10
1038.262689
20
290.089680
11
1037.805180
21
288.356657
0
LINE
8
Layer 1
10
1037.805180
20
288.356657
11
1037.477620
21
287.780361
0
LINE
8
Layer 1
10
1037.477620
20
287.780361
11
1037.036785
21
287.364468
0
LINE
8
Layer 1
10
1037.036785
20
287.364468
11
1036.447122
21
287.084174
0
LINE
8
Layer 1
10
1036.447122
20
287.084174
11
1035.673077
21
286.914674
0
LINE
8
Layer 1
10
1035.673077
20
286.914674
11
1033.429629
21
286.808840
0
LINE
8
Layer 1
10
1033.429629
20
286.808840
11
1030.466289
21
286.808840
0
LINE
8
Layer 1
10
1030.466289
20
286.808840
11
1030.466289
21
277.989390
0
LINE
8
Layer 1
10
1030.466289
20
277.989390
11
1030.466289
21
269.169940
0
LINE
8
Layer 1
10
1030.466289
20
269.169940
11
1055.337089
21
269.169940
0
LINE
8
Layer 1
10
1055.337089
20
269.169940
11
1080.207889
21
269.169940
0
LINE
8
Layer 1
10
1080.207889
20
269.169940
11
1080.207889
21
277.989390
0
LINE
8
Layer 1
10
1080.207889
20
277.989390
11
1080.207889
21
286.808840
0
LINE
8
Layer 1
10
1080.207889
20
286.808840
11
1077.420939
21
286.808840
0
LINE
8
Layer 1
10
1077.420939
20
286.808840
11
1075.309785
21
286.922390
0
LINE
8
Layer 1
10
1075.309785
20
286.922390
11
1074.569641
21
287.095334
0
LINE
8
Layer 1
10
1074.569641
20
287.095334
11
1073.998995
21
287.373284
0
LINE
8
Layer 1
10
1073.998995
20
287.373284
11
1073.567256
21
287.776911
0
LINE
8
Layer 1
10
1073.567256
20
287.776911
11
1073.243829
21
288.326886
0
LINE
8
Layer 1
10
1073.243829
20
288.326886
11
1072.799549
21
289.948560
0
LINE
8
Layer 1
10
1072.799549
20
289.948560
11
1072.543785
21
299.940986
0
LINE
8
Layer 1
10
1072.543785
20
299.940986
11
1072.446771
21
324.062160
0
LINE
8
Layer 1
10
1072.446771
20
324.062160
11
1072.446771
21
356.306060
0
LINE
8
Layer 1
10
1072.446771
20
356.306060
11
1071.670659
21
356.270782
0
LINE
8
Layer 1
10
1071.670659
20
356.270782
11
1068.389819
21
355.776893
0
LINE
8
Layer 1
10
1068.389819
20
355.776893
11
1068.390000
21
355.777000
0
LINE
8
Layer 1
10
1376.930000
20
286.914000
11
1376.499501
21
286.349005
0
LINE
8
Layer 1
10
1376.499501
20
286.349005
11
1376.105381
21
285.251535
0
LINE
8
Layer 1
10
1376.105381
20
285.251535
11
1375.095550
21
280.281770
0
LINE
8
Layer 1
10
1375.095550
20
280.281770
11
1374.240064
21
275.775029
0
LINE
8
Layer 1
10
1374.240064
20
275.775029
11
1373.649160
21
273.332040
0
LINE
8
Layer 1
10
1373.649160
20
273.332040
11
1372.868638
21
272.029515
0
LINE
8
Layer 1
10
1372.868638
20
272.029515
11
1371.585408
21
270.875820
0
LINE
8
Layer 1
10
1371.585408
20
270.875820
11
1369.799468
21
269.874262
0
LINE
8
Layer 1
10
1369.799468
20
269.874262
11
1367.510820
21
269.028150
0
LINE
8
Layer 1
10
1367.510820
20
269.028150
11
1364.097694
21
267.762560
0
LINE
8
Layer 1
10
1364.097694
20
267.762560
11
1360.314150
21
266.100090
0
LINE
8
Layer 1
10
1360.314150
20
266.100090
11
1355.234150
21
263.842310
0
LINE
8
Layer 1
10
1355.234150
20
263.842310
11
1354.464723
21
263.688245
0
LINE
8
Layer 1
10
1354.464723
20
263.688245
11
1353.662635
21
263.687969
0
LINE
8
Layer 1
10
1353.662635
20
263.687969
11
1352.785307
21
263.859673
0
LINE
8
Layer 1
10
1352.785307
20
263.859673
11
1351.790156
21
264.221546
0
LINE
8
Layer 1
10
1351.790156
20
264.221546
11
1349.276061
21
265.588559
0
LINE
8
Layer 1
10
1349.276061
20
265.588559
11
1345.779700
21
267.934530
0
LINE
8
Layer 1
10
1345.779700
20
267.934530
11
1341.890325
21
270.553906
0
LINE
8
Layer 1
10
1341.890325
20
270.553906
11
1339.853030
21
271.638700
0
LINE
8
Layer 1
10
1339.853030
20
271.638700
11
1339.345636
21
271.389688
0
LINE
8
Layer 1
10
1339.345636
20
271.389688
11
1338.459556
21
270.718170
0
LINE
8
Layer 1
10
1338.459556
20
270.718170
11
1336.034206
21
268.560714
0
LINE
8
Layer 1
10
1336.034206
20
268.560714
11
1333.542710
21
266.072528
0
LINE
8
Layer 1
10
1333.542710
20
266.072528
11
1331.950800
21
264.159810
0
LINE
8
Layer 1
10
1331.950800
20
264.159810
11
1331.582588
21
263.406849
0
LINE
8
Layer 1
10
1331.582588
20
263.406849
11
1331.601054
21
262.995228
0
LINE
8
Layer 1
10
1331.601054
20
262.995228
11
1331.809689
21
262.448836
0
LINE
8
Layer 1
10
1331.809689
20
262.448836
11
1332.962833
21
260.617698
0
LINE
8
Layer 1
10
1332.962833
20
260.617698
11
1335.372750
21
257.245360
0
LINE
8
Layer 1
10
1335.372750
20
257.245360
11
1338.234111
21
253.015884
0
LINE
8
Layer 1
10
1338.234111
20
253.015884
11
1339.027103
21
251.466485
0
LINE
8
Layer 1
10
1339.027103
20
251.466485
11
1339.425287
21
250.106016
0
LINE
8
Layer 1
10
1339.425287
20
250.106016
11
1339.451401
21
248.793502
0
LINE
8
Layer 1
10
1339.451401
20
248.793502
11
1339.128183
21
247.387971
0
LINE
8
Layer 1
10
1339.128183
20
247.387971
11
1338.478370
21
245.748448
0
LINE
8
Layer 1
10
1338.478370
20
245.748448
11
1337.524700
21
243.733960
0
LINE
8
Layer 1
10
1337.524700
20
243.733960
11
1335.765221
21
239.809304
0
LINE
8
Layer 1
10
1335.765221
20
239.809304
11
1334.349700
21
236.043400
0
LINE
8
Layer 1
10
1334.349700
20
236.043400
11
1333.636428
21
233.987643
0
LINE
8
Layer 1
10
1333.636428
20
233.987643
11
1332.956229
21
232.396560
0
LINE
8
Layer 1
10
1332.956229
20
232.396560
11
1332.196655
21
231.189123
0
LINE
8
Layer 1
10
1332.196655
20
231.189123
11
1331.245259
21
230.284302
0
LINE
8
Layer 1
10
1331.245259
20
230.284302
11
1329.989593
21
229.601071
0
LINE
8
Layer 1
10
1329.989593
20
229.601071
11
1328.317210
21
229.058399
0
LINE
8
Layer 1
10
1328.317210
20
229.058399
11
1323.272500
21
228.070620
0
LINE
8
Layer 1
10
1323.272500
20
228.070620
11
1318.928922
21
227.237180
0
LINE
8
Layer 1
10
1318.928922
20
227.237180
11
1316.675550
21
226.588950
0
LINE
8
Layer 1
10
1316.675550
20
226.588950
11
1316.221348
21
226.210816
0
LINE
8
Layer 1
10
1316.221348
20
226.210816
11
1315.978813
21
225.415963
0
LINE
8
Layer 1
10
1315.978813
20
225.415963
11
1315.864161
21
220.485890
0
LINE
8
Layer 1
10
1315.864161
20
220.485890
11
1315.978814
21
215.555816
0
LINE
8
Layer 1
10
1315.978814
20
215.555816
11
1316.221349
21
214.760963
0
LINE
8
Layer 1
10
1316.221349
20
214.760963
11
1316.675550
21
214.382830
0
LINE
8
Layer 1
10
1316.675550
20
214.382830
11
1318.928920
21
213.734600
0
LINE
8
Layer 1
10
1318.928920
20
213.734600
11
1323.272500
21
212.901160
0
LINE
8
Layer 1
10
1323.272500
20
212.901160
11
1327.937991
21
211.983939
0
LINE
8
Layer 1
10
1327.937991
20
211.983939
11
1329.483598
21
211.561708
0
LINE
8
Layer 1
10
1329.483598
20
211.561708
11
1330.433890
21
211.172550
0
LINE
8
Layer 1
10
1330.433890
20
211.172550
11
1331.582622
21
210.318166
0
LINE
8
Layer 1
10
1331.582622
20
210.318166
11
1332.559377
21
209.020604
0
LINE
8
Layer 1
10
1332.559377
20
209.020604
11
1333.469987
21
207.114500
0
LINE
8
Layer 1
10
1333.469987
20
207.114500
11
1334.420280
21
204.434490
0
LINE
8
Layer 1
10
1334.420280
20
204.434490
11
1335.663824
21
201.113967
0
LINE
8
Layer 1
10
1335.663824
20
201.113967
11
1337.277780
21
197.555320
0
LINE
8
Layer 1
10
1337.277780
20
197.555320
11
1338.289055
21
195.518028
0
LINE
8
Layer 1
10
1338.289055
20
195.518028
11
1338.978282
21
193.857767
0
LINE
8
Layer 1
10
1338.978282
20
193.857767
11
1339.321069
21
192.425711
0
LINE
8
Layer 1
10
1339.321069
20
192.425711
11
1339.293025
21
191.073031
0
LINE
8
Layer 1
10
1339.293025
20
191.073031
11
1338.869759
21
189.650900
0
LINE
8
Layer 1
10
1338.869759
20
189.650900
11
1338.026881
21
188.010490
0
LINE
8
Layer 1
10
1338.026881
20
188.010490
11
1334.984720
21
183.479520
0
LINE
8
Layer 1
10
1334.984720
20
183.479520
11
1332.444715
21
179.731251
0
LINE
8
Layer 1
10
1332.444715
20
179.731251
11
1331.386380
21
177.835070
0
LINE
8
Layer 1
10
1331.386380
20
177.835070
11
1332.608426
21
176.238750
0
LINE
8
Layer 1
10
1332.608426
20
176.238750
11
1335.341905
21
173.345970
0
LINE
8
Layer 1
10
1335.341905
20
173.345970
11
1338.187832
21
170.572253
0
LINE
8
Layer 1
10
1338.187832
20
170.572253
11
1339.747220
21
169.333120
0
LINE
8
Layer 1
10
1339.747220
20
169.333120
11
1340.225675
21
169.517777
0
LINE
8
Layer 1
10
1340.225675
20
169.517777
11
1341.484651
21
170.307669
0
LINE
8
Layer 1
10
1341.484651
20
170.307669
11
1348.460840
21
175.118680
0
LINE
8
Layer 1
10
1348.460840
20
175.118680
11
1351.205345
21
176.834614
0
LINE
8
Layer 1
10
1351.205345
20
176.834614
11
1352.323557
21
177.276069
0
LINE
8
Layer 1
10
1352.323557
20
177.276069
11
1353.404149
21
177.442605
0
LINE
8
Layer 1
10
1353.404149
20
177.442605
11
1354.545927
21
177.336290
0
LINE
8
Layer 1
10
1354.545927
20
177.336290
11
1355.847698
21
176.959189
0
LINE
8
Layer 1
10
1355.847698
20
176.959189
11
1359.326440
21
175.400902
0
LINE
8
Layer 1
10
1359.326440
20
175.400902
11
1363.431894
21
173.579683
0
LINE
8
Layer 1
10
1363.431894
20
173.579683
11
1367.193390
21
172.155342
0
LINE
8
Layer 1
10
1367.193390
20
172.155342
11
1369.786858
21
171.212762
0
LINE
8
Layer 1
10
1369.786858
20
171.212762
11
1371.563426
21
170.303257
0
LINE
8
Layer 1
10
1371.563426
20
170.303257
11
1372.724839
21
169.287919
0
LINE
8
Layer 1
10
1372.724839
20
169.287919
11
1373.472840
21
168.027842
0
LINE
8
Layer 1
10
1373.472840
20
168.027842
11
1374.191624
21
165.333499
0
LINE
8
Layer 1
10
1374.191624
20
165.333499
11
1375.095620
21
160.760612
0
LINE
8
Layer 1
10
1375.095620
20
160.760612
11
1375.955516
21
156.408213
0
LINE
8
Layer 1
10
1375.955516
20
156.408213
11
1376.577290
21
154.304772
0
LINE
8
Layer 1
10
1376.577290
20
154.304772
11
1377.028184
21
154.063891
0
LINE
8
Layer 1
10
1377.028184
20
154.063891
11
1378.041319
21
153.912306
0
LINE
8
Layer 1
10
1378.041319
20
153.912306
11
1382.574520
21
153.810883
0
LINE
8
Layer 1
10
1382.574520
20
153.810883
11
1387.473724
21
153.925536
0
LINE
8
Layer 1
10
1387.473724
20
153.925536
11
1388.264718
21
154.168071
0
LINE
8
Layer 1
10
1388.264718
20
154.168071
11
1388.642300
21
154.622272
0
LINE
8
Layer 1
10
1388.642300
20
154.622272
11
1389.290530
21
156.875642
0
LINE
8
Layer 1
10
1389.290530
20
156.875642
11
1390.123970
21
161.219222
0
LINE
8
Layer 1
10
1390.123970
20
161.219222
11
1391.041191
21
165.884713
0
LINE
8
Layer 1
10
1391.041191
20
165.884713
11
1391.463422
21
167.430320
0
LINE
8
Layer 1
10
1391.463422
20
167.430320
11
1391.852580
21
168.380612
0
LINE
8
Layer 1
10
1391.852580
20
168.380612
11
1392.706964
21
169.529344
0
LINE
8
Layer 1
10
1392.706964
20
169.529344
11
1394.004526
21
170.506099
0
LINE
8
Layer 1
10
1394.004526
20
170.506099
11
1395.910630
21
171.416709
0
LINE
8
Layer 1
10
1395.910630
20
171.416709
11
1398.590640
21
172.367002
0
LINE
8
Layer 1
10
1398.590640
20
172.367002
11
1401.919983
21
173.610546
0
LINE
8
Layer 1
10
1401.919983
20
173.610546
11
1405.434530
21
175.224502
0
LINE
8
Layer 1
10
1405.434530
20
175.224502
11
1408.349356
21
176.595928
0
LINE
8
Layer 1
10
1408.349356
20
176.595928
11
1410.232310
21
177.305892
0
LINE
8
Layer 1
10
1410.232310
20
177.305892
11
1411.739334
21
177.323531
0
LINE
8
Layer 1
10
1411.739334
20
177.323531
11
1413.530784
21
176.732628
0
LINE
8
Layer 1
10
1413.530784
20
176.732628
11
1415.957234
21
175.361205
0
LINE
8
Layer 1
10
1415.957234
20
175.361205
11
1419.369260
21
173.037282
0
LINE
8
Layer 1
10
1419.369260
20
173.037282
11
1423.307145
21
170.417906
0
LINE
8
Layer 1
10
1423.307145
20
170.417906
11
1425.366490
21
169.333112
0
LINE
8
Layer 1
10
1425.366490
20
169.333112
11
1425.967315
21
169.660672
0
LINE
8
Layer 1
10
1425.967315
20
169.660672
11
1427.024546
21
170.531455
0
LINE
8
Layer 1
10
1427.024546
20
170.531455
11
1429.846770
21
173.231309
0
LINE
8
Layer 1
10
1429.846770
20
173.231309
11
1432.510244
21
176.089913
0
LINE
8
Layer 1
10
1432.510244
20
176.089913
11
1433.369038
21
177.159132
0
LINE
8
Layer 1
10
1433.369038
20
177.159132
11
1433.692050
21
177.764502
0
LINE
8
Layer 1
10
1433.692050
20
177.764502
11
1432.616076
21
179.665093
0
LINE
8
Layer 1
10
1432.616076
20
179.665093
11
1430.058440
21
183.444232
0
LINE
8
Layer 1
10
1430.058440
20
183.444232
11
1427.795700
21
186.703571
0
LINE
8
Layer 1
10
1427.795700
20
186.703571
11
1426.429236
21
188.960798
0
LINE
8
Layer 1
10
1426.429236
20
188.960798
11
1425.757305
21
190.602870
0
LINE
8
Layer 1
10
1425.757305
20
190.602870
11
1425.578160
21
192.016742
0
LINE
8
Layer 1
10
1425.578160
20
192.016742
11
1426.195522
21
194.031986
0
LINE
8
Layer 1
10
1426.195522
20
194.031986
11
1427.659550
21
197.343692
0
LINE
8
Layer 1
10
1427.659550
20
197.343692
11
1429.476359
21
201.418276
0
LINE
8
Layer 1
10
1429.476359
20
201.418276
11
1430.869830
21
205.175362
0
LINE
8
Layer 1
10
1430.869830
20
205.175362
11
1431.676810
21
207.437000
0
LINE
8
Layer 1
10
1431.676810
20
207.437000
11
1432.483790
21
209.060331
0
LINE
8
Layer 1
10
1432.483790
20
209.060331
11
1433.409832
21
210.240485
0
LINE
8
Layer 1
10
1433.409832
20
210.240485
11
1434.574000
21
211.172592
0
LINE
8
Layer 1
10
1434.574000
20
211.172592
11
1437.039037
21
211.904605
0
LINE
8
Layer 1
10
1437.039037
20
211.904605
11
1441.805950
21
212.901202
0
LINE
8
Layer 1
10
1441.805950
20
212.901202
11
1446.480260
21
213.884570
0
LINE
8
Layer 1
10
1446.480260
20
213.884570
11
1448.720400
21
214.523982
0
LINE
8
Layer 1
10
1448.720400
20
214.523982
11
1448.961281
21
214.984799
0
LINE
8
Layer 1
10
1448.961281
20
214.984799
11
1449.112866
21
216.014471
0
LINE
8
Layer 1
10
1449.112866
20
216.014471
11
1449.214289
21
220.521212
0
LINE
8
Layer 1
10
1449.214289
20
220.521212
11
1449.104046
21
225.420416
0
LINE
8
Layer 1
10
1449.104046
20
225.420416
11
1448.871984
21
226.211410
0
LINE
8
Layer 1
10
1448.871984
20
226.211410
11
1448.438177
21
226.588992
0
LINE
8
Layer 1
10
1448.438177
20
226.588992
11
1446.202447
21
227.219583
0
LINE
8
Layer 1
10
1446.202447
20
227.219583
11
1441.982337
21
228.035382
0
LINE
8
Layer 1
10
1441.982337
20
228.035382
11
1437.559379
21
228.917327
0
LINE
8
Layer 1
10
1437.559379
20
228.917327
11
1434.856217
21
229.693442
0
LINE
8
Layer 1
10
1434.856217
20
229.693442
11
1433.640788
21
230.478373
0
LINE
8
Layer 1
10
1433.640788
20
230.478373
11
1432.673405
21
231.660179
0
LINE
8
Layer 1
10
1432.673405
20
231.660179
11
1431.765552
21
233.543132
0
LINE
8
Layer 1
10
1431.765552
20
233.543132
11
1430.728717
21
236.431502
0
LINE
8
Layer 1
10
1430.728717
20
236.431502
11
1429.348475
21
240.113623
0
LINE
8
Layer 1
10
1429.348475
20
240.113623
11
1427.730107
21
243.663452
0
LINE
8
Layer 1
10
1427.730107
20
243.663452
11
1426.753698
21
245.642384
0
LINE
8
Layer 1
10
1426.753698
20
245.642384
11
1426.090241
21
247.257927
0
LINE
8
Layer 1
10
1426.090241
20
247.257927
11
1425.764955
21
248.656017
0
LINE
8
Layer 1
10
1425.764955
20
248.656017
11
1425.803057
21
249.982586
0
LINE
8
Layer 1
10
1425.803057
20
249.982586
11
1426.229766
21
251.383569
0
LINE
8
Layer 1
10
1426.229766
20
251.383569
11
1427.070300
21
253.004902
0
LINE
8
Layer 1
10
1427.070300
20
253.004902
11
1430.093717
21
257.492352
0
LINE
8
Layer 1
10
1430.093717
20
257.492352
11
1432.633722
21
261.240621
0
LINE
8
Layer 1
10
1432.633722
20
261.240621
11
1433.692057
21
263.136802
0
LINE
8
Layer 1
10
1433.692057
20
263.136802
11
1432.470011
21
264.733122
0
LINE
8
Layer 1
10
1432.470011
20
264.733122
11
1429.736532
21
267.625902
0
LINE
8
Layer 1
10
1429.736532
20
267.625902
11
1426.890605
21
270.399619
0
LINE
8
Layer 1
10
1426.890605
20
270.399619
11
1425.331217
21
271.638752
0
LINE
8
Layer 1
10
1425.331217
20
271.638752
11
1424.409586
21
271.180141
0
LINE
8
Layer 1
10
1424.409586
20
271.180141
11
1422.720657
21
270.086532
0
LINE
8
Layer 1
10
1422.720657
20
270.086532
11
1416.191480
21
265.583653
0
LINE
8
Layer 1
10
1416.191480
20
265.583653
11
1414.061920
21
264.332463
0
LINE
8
Layer 1
10
1414.061920
20
264.332463
11
1412.370995
21
263.670383
0
LINE
8
Layer 1
10
1412.370995
20
263.670383
11
1410.880164
21
263.539124
0
LINE
8
Layer 1
10
1410.880164
20
263.539124
11
1409.350890
21
263.880395
0
LINE
8
Layer 1
10
1409.350890
20
263.880395
11
1407.544634
21
264.635904
0
LINE
8
Layer 1
10
1407.544634
20
264.635904
11
1405.222857
21
265.747362
0
LINE
8
Layer 1
10
1405.222857
20
265.747362
11
1401.002752
21
267.603854
0
LINE
8
Layer 1
10
1401.002752
20
267.603854
11
1397.708687
21
268.851812
0
LINE
8
Layer 1
10
1397.708687
20
268.851812
11
1395.869279
21
269.421631
0
LINE
8
Layer 1
10
1395.869279
20
269.421631
11
1394.430055
21
270.010467
0
LINE
8
Layer 1
10
1394.430055
20
270.010467
11
1393.318253
21
270.723327
0
LINE
8
Layer 1
10
1393.318253
20
270.723327
11
1392.461112
21
271.665217
0
LINE
8
Layer 1
10
1392.461112
20
271.665217
11
1391.785873
21
272.941144
0
LINE
8
Layer 1
10
1391.785873
20
272.941144
11
1391.219774
21
274.656114
0
LINE
8
Layer 1
10
1391.219774
20
274.656114
11
1390.123957
21
279.823212
0
LINE
8
Layer 1
10
1390.123957
20
279.823212
11
1388.990659
21
285.141339
0
LINE
8
Layer 1
10
1388.990659
20
285.141339
11
1388.571183
21
286.322044
0
LINE
8
Layer 1
10
1388.571183
20
286.322044
11
1388.148397
21
286.914052
0
LINE
8
Layer 1
10
1388.148397
20
286.914052
11
1387.579542
21
287.216118
0
LINE
8
Layer 1
10
1387.579542
20
287.216118
11
1386.640269
21
287.399122
0
LINE
8
Layer 1
10
1386.640269
20
287.399122
11
1382.539227
21
287.513775
0
LINE
8
Layer 1
10
1382.539227
20
287.513775
11
1378.438185
21
287.399122
0
LINE
8
Layer 1
10
1378.438185
20
287.399122
11
1377.498912
21
287.216119
0
LINE
8
Layer 1
10
1377.498912
20
287.216119
11
1376.930057
21
286.914052
0
LINE
8
Layer 1
10
1376.930057
20
286.914052
11
1376.930000
21
286.914000
0
LINE
8
Layer 1
10
1388.113100
20
249.554800
11
1392.189260
21
248.438381
0
LINE
8
Layer 1
10
1392.189260
20
248.438381
11
1395.983895
21
246.827936
0
LINE
8
Layer 1
10
1395.983895
20
246.827936
11
1399.466823
21
244.751989
0
LINE
8
Layer 1
10
1399.466823
20
244.751989
11
1402.607863
21
242.239065
0
LINE
8
Layer 1
10
1402.607863
20
242.239065
11
1405.376831
21
239.317689
0
LINE
8
Layer 1
10
1405.376831
20
239.317689
11
1407.743548
21
236.016387
0
LINE
8
Layer 1
10
1407.743548
20
236.016387
11
1409.677832
21
232.363682
0
LINE
8
Layer 1
10
1409.677832
20
232.363682
11
1411.149500
21
228.388100
0
LINE
8
Layer 1
10
1411.149500
20
228.388100
11
1411.782845
21
225.318380
0
LINE
8
Layer 1
10
1411.782845
20
225.318380
11
1412.088770
21
221.716181
0
LINE
8
Layer 1
10
1412.088770
20
221.716181
11
1412.057351
21
218.054442
0
LINE
8
Layer 1
10
1412.057351
20
218.054442
11
1411.678667
21
214.806100
0
LINE
8
Layer 1
10
1411.678667
20
214.806100
11
1411.176836
21
212.730048
0
LINE
8
Layer 1
10
1411.176836
20
212.730048
11
1410.534756
21
210.712440
0
LINE
8
Layer 1
10
1410.534756
20
210.712440
11
1408.850931
21
206.874675
0
LINE
8
Layer 1
10
1408.850931
20
206.874675
11
1406.669358
21
203.337041
0
LINE
8
Layer 1
10
1406.669358
20
203.337041
11
1404.032207
21
200.143775
0
LINE
8
Layer 1
10
1404.032207
20
200.143775
11
1400.981644
21
197.339112
0
LINE
8
Layer 1
10
1400.981644
20
197.339112
11
1397.559838
21
194.967287
0
LINE
8
Layer 1
10
1397.559838
20
194.967287
11
1393.808957
21
193.072538
0
LINE
8
Layer 1
10
1393.808957
20
193.072538
11
1391.823290
21
192.317891
0
LINE
8
Layer 1
10
1391.823290
20
192.317891
11
1389.771167
21
191.699100
0
LINE
8
Layer 1
10
1389.771167
20
191.699100
11
1386.566944
21
191.197494
0
LINE
8
Layer 1
10
1386.566944
20
191.197494
11
1382.578891
21
191.020002
0
LINE
8
Layer 1
10
1382.578891
20
191.020002
11
1378.623926
21
191.173240
0
LINE
8
Layer 1
10
1378.623926
20
191.173240
11
1375.518967
21
191.663822
0
LINE
8
Layer 1
10
1375.518967
20
191.663822
11
1371.463674
21
192.984535
0
LINE
8
Layer 1
10
1371.463674
20
192.984535
11
1368.026847
21
194.635976
0
LINE
8
Layer 1
10
1368.026847
20
194.635976
11
1364.887680
21
196.803355
0
LINE
8
Layer 1
10
1364.887680
20
196.803355
11
1361.725367
21
199.671882
0
LINE
8
Layer 1
10
1361.725367
20
199.671882
11
1359.675189
21
201.911886
0
LINE
8
Layer 1
10
1359.675189
20
201.911886
11
1357.891661
21
204.263510
0
LINE
8
Layer 1
10
1357.891661
20
204.263510
11
1356.376852
21
206.722621
0
LINE
8
Layer 1
10
1356.376852
20
206.722621
11
1355.132827
21
209.285085
0
LINE
8
Layer 1
10
1355.132827
20
209.285085
11
1354.161654
21
211.946767
0
LINE
8
Layer 1
10
1354.161654
20
211.946767
11
1353.465400
21
214.703533
0
LINE
8
Layer 1
10
1353.465400
20
214.703533
11
1353.046132
21
217.551250
0
LINE
8
Layer 1
10
1353.046132
20
217.551250
11
1352.905917
21
220.485782
0
LINE
8
Layer 1
10
1352.905917
20
220.485782
11
1353.104035
21
223.905069
0
LINE
8
Layer 1
10
1353.104035
20
223.905069
11
1353.682233
21
227.204262
0
LINE
8
Layer 1
10
1353.682233
20
227.204262
11
1354.616275
21
230.363310
0
LINE
8
Layer 1
10
1354.616275
20
230.363310
11
1355.881923
21
233.362163
0
LINE
8
Layer 1
10
1355.881923
20
233.362163
11
1357.454943
21
236.180770
0
LINE
8
Layer 1
10
1357.454943
20
236.180770
11
1359.311097
21
238.799081
0
LINE
8
Layer 1
10
1359.311097
20
238.799081
11
1361.426151
21
241.197043
0
LINE
8
Layer 1
10
1361.426151
20
241.197043
11
1363.775867
21
243.354607
0
LINE
8
Layer 1
10
1363.775867
20
243.354607
11
1366.336010
21
245.251722
0
LINE
8
Layer 1
10
1366.336010
20
245.251722
11
1369.082343
21
246.868337
0
LINE
8
Layer 1
10
1369.082343
20
246.868337
11
1371.990630
21
248.184401
0
LINE
8
Layer 1
10
1371.990630
20
248.184401
11
1375.036636
21
249.179863
0
LINE
8
Layer 1
10
1375.036636
20
249.179863
11
1378.196123
21
249.834674
0
LINE
8
Layer 1
10
1378.196123
20
249.834674
11
1381.444857
21
250.128781
0
LINE
8
Layer 1
10
1381.444857
20
250.128781
11
1384.758600
21
250.042134
0
LINE
8
Layer 1
10
1384.758600
20
250.042134
11
1388.113117
21
249.554682
0
LINE
8
Layer 1
10
1388.113117
20
249.554682
11
1388.113100
21
249.554800
 0 
ENDSEC
 0 
EOF