0
SECTION
2
HEADER
9
$INSUNITS
70
4
9
$ACADVER
1
AC1014
9
$HANDSEED
5
FFFF
0
ENDSEC
0
SECTION
2
TABLES
0
TABLE
2
VPORT
5
8
100
AcDbSymbolTable
0
ENDTAB
0
TABLE
2
LTYPE
5
5
100
AcDbSymbolTable
0
LTYPE
5
14
100
AcDbSymbolTableRecord
100
AcDbLinetypeTableRecord
2
BYBLOCK
70
0
0
LTYPE
5
15
100
AcDbSymbolTableRecord
100
AcDbLinetypeTableRecord
2
BYLAYER
70
0
0
ENDTAB
0
TABLE
2
LAYER
5
2
100
AcDbSymbolTable
70
2
0
LAYER
5
50
100
AcDbSymbolTableRecord
100
AcDbLayerTableRecord
2
0
70
0
6
CONTINUOUS
0
ENDTAB
0
TABLE
2
STYLE
5
3
100
AcDbSymbolTable
70
1
0
STYLE
5
11
100
AcDbSymbolTableRecord
100
AcDbTextStyleTableRecord
2
STANDARD
70
0
0
ENDTAB
0
TABLE
2
VIEW
5
6
100
AcDbSymbolTable
70
0
0
ENDTAB
0
TABLE
2
UCS
5
7
100
AcDbSymbolTable
70
0
0
ENDTAB
0
TABLE
2
APPID
5
9
100
AcDbSymbolTable
70
2
0
APPID
5
12
100
AcDbSymbolTableRecord
100
AcDbRegAppTableRecord
2
ACAD
70
0
0
ENDTAB
0
TABLE
2
DIMSTYLE
5
A
100
AcDbSymbolTable
70
1
0
ENDTAB
0
TABLE
2
BLOCK_RECORD
5
1
100
AcDbSymbolTable
70
1
0
BLOCK_RECORD
5
1F
100
AcDbSymbolTableRecord
100
AcDbBlockTableRecord
2
*MODEL_SPACE
0
BLOCK_RECORD
5
1B
100
AcDbSymbolTableRecord
100
AcDbBlockTableRecord
2
*PAPER_SPACE
0
ENDTAB
0
ENDSEC
0
SECTION
2
BLOCKS
0
BLOCK
5
20
100
AcDbEntity
100
AcDbBlockBegin
2
*MODEL_SPACE
0
ENDBLK
5
21
100
AcDbEntity
100
AcDbBlockEnd
0
BLOCK
5
1C
100
AcDbEntity
100
AcDbBlockBegin
2
*PAPER_SPACE
0
ENDBLK
5
1D
100
AcDbEntity
100
AcDbBlockEnd
0
ENDSEC
0
SECTION
2
ENTITIES
0
LWPOLYLINE
5
100
100
AcDbEntity
8
0
100
AcDbPolyline
90
120
70
1
43
0.0
10
2.4289075171856962
20
-84.965289432055471
10
2.3629003942029407
20
-69.965289432055485
10
-1.7470598129870432
20
-69.983375208645512
10
-1.6810526900041123
20
-84.983375208645541
42
-0.040292247496215863
10
-15.289446926299501
20
-83.613592272356456
10
-12.235336273010031
20
-68.927654608804033
10
-16.259244233174918
20
-68.090836391912404
10
-19.313354886464211
20
-82.776774055464912
42
-0.040292247496215863
10
-32.339579172199109
20
-78.6075799078248
10
-26.298830033435053
20
-64.877550527564722
10
-30.060821659862953
20
-63.222401288768907
10
-36.101570798626888
20
-76.952430669029127
42
-0.04029224749621553
10
-47.976316625755459
20
-70.166039100303067
10
-39.21293872561121
20
-57.991986171243362
10
-42.548596932188573
20
-55.590843874565977
10
-51.311974832332623
20
-67.764896803625859
42
-0.040292247496215974
10
-61.516258826857126
20
-58.657905690086835
10
-50.413253830921661
20
-48.57189374281468
10
-53.176794347757095
20
-45.529699828579595
10
-64.279799343692503
20
-55.615711775851892
42
-0.040292247496215641
10
-72.367645329464722
20
-44.586140329353498
10
-59.410267834189519
20
-37.028976484019708
10
-61.480910679758658
20
-33.478689424345042
10
-74.43828817503379
20
-41.035853269679009
42
-0.040292247496215641
10
-80.056218472684691
20
-28.565746688188991
10
-65.81076805100885
20
-23.867715268130137
10
-67.098016196913548
20
-19.964499643691116
10
-81.343466618589332
20
-24.662531063750208
42
-0.040292247496215974
10
-84.245950716291063
20
-11.29689284308988
10
-69.335021908897076
20
-9.6633203650184711
10
-69.782616434259396
20
-5.5777654283096645
10
-84.693545241653382
20
-7.2113379063811633
42
-0.04029224749621553
10
-84.753730656672403
20
6.4656894277584565
10
-69.829002603018196
20
4.9634080078002594
10
-69.417381479282952
20
9.0527439013769815
10
-84.342109532937215
20
10.555025321335021
42
-0.04029224749621553
10
-81.55736587383555
20
23.94569004479354
10
-67.271120806656768
20
19.373211633603972
10
-66.018273852108507
20
23.287604882688576
10
-80.304518919287361
20
27.860083293877921
42
-0.040292247496215974
10
-74.796552846650357
20
40.379149102701959
10
-61.773168228392414
20
32.936312948035763
10
-59.733850866771576
20
36.504685784300463
10
-72.757235485029639
20
43.947521938966581
42
-0.04029224749621553
10
-64.766771546385201
20
55.04784558416749
10
-53.575431777998837
20
45.059939340673907
10
-50.83877196373863
20
48.126336748221306
10
-62.0301117321251
20
58.114242991714818
42
-0.04029224749621553
10
-51.906371544091989
20
67.310687064734935
10
-43.036191875462066
20
55.214230162546237
10
-39.721794774396464
20
57.644635860459239
10
-48.591974443026601
20
69.741092762647838
42
-0.040292247496215863
10
-36.777414030916937
20
76.631728528061473
10
-30.616063877406987
20
62.95539417904358
10
-26.868784547094386
20
64.643587775942919
10
-33.030134700604457
20
78.319922124960783
42
-0.04029224749621553
10
-20.041107046978421
20
82.603595734880386
10
-16.857866975735117
20
67.945105376418681
10
-12.841479504351403
20
68.817304711268207
10
-16.024719575594883
20
83.475795069729926
42
-0.040292247496215641
10
-2.4289075171856855
20
84.965289432055471
10
-2.3629003942029327
20
69.965289432055471
10
1.747059812987052
20
69.983375208645512
10
1.6810526900041012
20
84.983375208645541
42
-0.040292247496215863
10
15.289446926299492
20
83.613592272356456
10
12.23533627301002
20
68.927654608804033
10
16.259244233174904
20
68.090836391912404
10
19.313354886464161
20
82.776774055464927
42
-0.040292247496215863
10
32.339579172199066
20
78.607579907824828
10
26.298830033435014
20
64.877550527564722
10
30.060821659862917
20
63.222401288768921
10
36.101570798626739
20
76.952430669029184
42
-0.040292247496215974
10
47.976316625755459
20
70.166039100303067
10
39.212938725611203
20
57.991986171243354
10
42.548596932188559
20
55.590843874565977
10
51.311974832332766
20
67.764896803625774
42
-0.04029224749621553
10
61.51625882685714
20
58.657905690086842
10
50.413253830921654
20
48.571893742814694
10
53.176794347757095
20
45.529699828579609
10
64.279799343692503
20
55.615711775851864
42
-0.04029224749621553
10
72.367645329464693
20
44.586140329353512
10
59.410267834189497
20
37.028976484019736
10
61.480910679758637
20
33.47868942434507
10
74.43828817503379
20
41.035853269679016
42
-0.040292247496215641
10
80.056218472684691
20
28.565746688189002
10
65.81076805100885
20
23.867715268130144
10
67.098016196913548
20
19.964499643691124
10
81.343466618589332
20
24.662531063750237
42
-0.040292247496215974
10
84.245950716291063
20
11.296892843089912
10
69.335021908897076
20
9.663320365018496
10
69.782616434259396
20
5.5777654283096876
10
84.693545241653368
20
7.2113379063813232
42
-0.040292247496215863
10
84.753730656672403
20
-6.4656894277584076
10
69.829002603018196
20
-4.9634080078002203
10
69.417381479282952
20
-9.0527439013769424
10
84.342109532937215
20
-10.555025321334961
42
-0.040292247496215641
10
81.55736587383555
20
-23.945690044793526
10
67.271120806656768
20
-19.373211633603965
10
66.018273852108507
20
-23.287604882688573
10
80.304518919287332
20
-27.860083293878006
42
-0.040292247496215641
10
74.796552846650371
20
-40.379149102701945
10
61.773168228392414
20
-32.936312948035734
10
59.733850866771583
20
-36.504685784300435
10
72.757235485029696
20
-43.947521938966432
42
-0.040292247496215974
10
64.766771546385201
20
-55.047845584167483
10
53.575431777998844
20
-45.0599393406739
10
50.838771963738637
20
-48.126336748221277
10
62.0301117321251
20
-58.114242991714804
42
-0.04029224749621553
10
51.906371544092011
20
-67.310687064734921
10
43.036191875462073
20
-55.214230162546237
10
39.721794774396486
20
-57.644635860459239
10
48.591974443026558
20
-69.741092762647867
42
-0.040292247496215641
10
36.777414030916958
20
-76.631728528061473
10
30.616063877407012
20
-62.955394179043566
10
26.868784547094414
20
-64.643587775942905
10
33.030134700604513
20
-78.319922124960783
42
-0.040292247496215641
10
20.041107046978439
20
-82.603595734880386
10
16.857866975735131
20
-67.945105376418681
10
12.841479504351421
20
-68.817304711268207
10
16.024719575594894
20
-83.475795069729926
42
-0.040292247496215641
0
LWPOLYLINE
5
101
100
AcDbEntity
8
0
100
AcDbPolyline
90
120
70
1
43
0.0
10
261.91776528959826
20
-69.955041596417558
10
257.80776942230415
20
-69.949213146764194
10
257.78649768684807
20
-84.949213146764208
42
-0.040292247496215863
10
244.18630393133409
20
-83.500272569837819
10
247.32578619060047
20
-68.832481201316128
10
243.30681539680316
20
-67.972263927248548
10
240.16733313753687
20
-82.640055295770352
42
-0.04029224749621553
10
227.16558793130929
20
-78.395138267685923
10
233.28607027474848
20
-64.700608397318803
10
229.53377286329842
20
-63.023597921494257
10
223.4132905198594
20
-76.718127791861562
42
-0.040292247496215863
10
211.5782325177257
20
-69.862757556118169
10
220.41222049759676
20
-57.74000585288583
10
217.09058987089497
20
-55.319495580286912
10
208.25660189102408
20
-67.442247283519436
42
-0.040292247496215974
10
198.10547991858667
20
-58.276036415135195
10
209.26688586999171
20
-48.254885299885579
10
206.52109322537726
20
-45.196663144321789
10
195.3596872739723
20
-55.217814259571618
42
-0.040292247496215863
10
187.33615407191434
20
-44.141370157854695
10
200.33717099640899
20
-36.659792021142401
10
198.28722064822648
20
-33.097516965789964
10
185.2862037237318
20
-40.579095102502464
42
-0.040292247496215641
10
179.74092619416717
20
-28.076511525373693
10
194.01334726635025
20
-23.461487232368064
10
192.74883188156832
20
-19.550847790838105
10
178.47641080938519
20
-24.165872083843961
42
-0.040292247496215863
10
175.65174418954965
20
-10.78357192767599
10
190.57179612189199
20
-9.2368001853249133
10
190.14798109064367
20
-5.148710066542308
10
175.22792915830124
20
-6.6954818088935948
42
-0.040292247496215863
10
175.24732493373588
20
6.9816641940882267
10
190.1629298624417
20
5.392582038409703
10
190.59833793528267
20
9.4794536794213098
10
175.68273300657677
20
11.06853583509967
42
-0.04029224749621553
10
178.54534348882382
20
24.442770774336857
10
192.80461790549526
20
19.787285236094093
10
194.08021966032265
20
23.694322497636556
10
179.82094524365112
20
28.34980803587916
42
-0.040292247496215863
10
185.40166061830732
20
40.83661366782772
10
198.38140580734571
20
33.318191804540056
10
200.44145132645727
20
36.874638410239122
10
187.46170613741867
20
44.393060273526629
42
-0.040292247496215863
10
195.51662236336801
20
55.446703273729049
10
206.64956117628475
20
45.39393619821297
10
209.4040165853001
20
48.444358365675377
10
198.27107777238319
20
58.497125441191343
42
-0.040292247496215863
10
208.44815635877529
20
67.634508569274828
10
217.24772594767842
20
55.486750441258785
10
220.57620832788007
20
57.897830084216849
10
211.77663873897677
20
70.045588212232815
42
-0.040292247496215974
10
223.63109251654518
20
76.867363979471264
10
229.71270946537993
20
63.155530120560393
10
233.46974816492263
20
64.82189148897308
10
227.38813121608763
20
78.533725347883916
42
-0.040292247496215863
10
240.40186367077209
20
82.741749418736987
10
243.49973213603849
20
68.065112765244592
10
247.52112653548036
20
68.913927871223279
10
244.42325807021373
20
83.590564524715717
42
-0.040292247496215863
10
258.02750664692786
20
85.000926054947357
10
258.00623491147161
20
70.000926054947385
10
262.11623077876567
20
69.995097605294021
10
262.13750251422181
20
84.995097605294049
42
-0.040292247496215974
10
275.73769626973581
20
83.546157028367645
10
272.59821401046941
20
68.87836565984594
10
276.61718480426669
20
68.018148385778389
10
279.75666706353286
20
82.685939754300207
42
-0.040292247496215863
10
292.75841226976058
20
78.441022726215749
10
286.63792992632131
20
64.746492855848643
10
290.39022733777136
20
63.069482380024112
10
296.51070968121047
20
76.76401225039136
42
-0.040292247496215863
10
308.34576768334421
20
69.908642014647967
10
299.51177970347311
20
57.785890311415649
10
302.8334103301749
20
55.365380038816745
10
311.66739831004583
20
67.488131742049262
42
-0.040292247496215974
10
321.81852028248329
20
58.321920873665007
10
310.65711433107816
20
48.300769758415413
10
313.40290697569264
20
45.24254760285163
10
324.56431292709749
20
55.263698718101473
42
-0.040292247496215974
10
332.58784612915548
20
44.187254616384521
10
319.58682920466083
20
36.705676479672263
10
321.63677955284351
20
33.143401424319833
10
334.6377964773381
20
40.624979561032355
42
-0.040292247496215863
10
340.18307400690276
20
28.122395983903509
10
325.91065293471962
20
23.507371690897916
10
327.17516831950155
20
19.596732249367946
10
341.44758939168463
20
24.211756542373788
42
-0.040292247496215863
10
344.27225601152026
20
10.829456386205823
10
329.35220407917791
20
9.2826846438547701
10
329.77601911042626
20
5.1945945250721675
10
344.69607104276861
20
6.7413662674233787
42
-0.040292247496215641
10
344.67667526733402
20
-6.935779735558377
10
329.7610703386282
20
-5.3466975798798302
10
329.32566226578723
20
-9.4335692208914352
10
344.2412671944931
20
-11.022651376569755
42
-0.040292247496215863
10
341.37865671224603
20
-24.396886315807045
10
327.11938229557461
20
-19.741400777564252
10
325.84378054074716
20
-23.648438039106708
10
340.10305495741875
20
-28.303923577349316
42
-0.040292247496215863
10
334.52233958276258
20
-40.790729209297893
10
321.54259439372424
20
-33.272307346010194
10
319.48254887461258
20
-36.82875395170926
10
332.46229406365131
20
-44.347175814996675
42
-0.040292247496216307
10
324.40737783770192
20
-55.400818815199237
10
313.27443902478512
20
-45.348051739683122
10
310.51998361576977
20
-48.398473907145529
10
321.65292242868674
20
-58.451240982661503
42
-0.040292247496215974
10
311.47584384229458
20
-67.58862411074503
10
302.67627425339151
20
-55.440865982728965
10
299.34779187318981
20
-57.851945625687037
10
308.1473614620931
20
-69.999703753703017
42
-0.040292247496215863
10
296.29290768452472
20
-76.821479520941438
10
290.21129073569
20
-63.109645662030552
10
286.4542520361473
20
-64.776007030443253
10
292.53586898498224
20
-78.487840889354104
42
-0.040292247496215863
10
279.52213653029781
20
-82.695864960207189
10
276.42426806503141
20
-68.019228306714766
10
272.40287366558954
20
-68.868043412693453
10
275.50074213085617
20
-83.544680066185876
42
-0.040292247496215974
10
261.89649355414201
20
-84.95504159641753
0
CIRCLE
5
102
100
AcDbEntity
8
0
100
AcDbCircle
10
259.96200010053496
20
0.022942229264917596
30
0
40
62.5
210
0
220
0
230
1
0
CIRCLE
5
103
100
AcDbEntity
8
0
100
AcDbCircle
10
0
20
0
30
0
40
18.25
210
0
220
0
230
1
0
LINE
5
104
100
AcDbEntity
8
0
100
AcDbLine
10
0
20
0
30
0
11
95
21
0
31
0
0
LWPOLYLINE
5
105
100
AcDbEntity
8
0
100
AcDbPolyline
90
4
70
1
43
0.0
10
7.5247543655669595
20
-42.675002630529015
10
10.997717918905591
20
-62.371157690773188
42
0.31529878887898349
10
62.371157690773188
20
-10.997717918905586
10
42.675002630528986
20
-7.5247543655671532
42
-0.31529878887898249
0
LWPOLYLINE
5
106
100
AcDbEntity
8
0
100
AcDbPolyline
90
4
70
1
43
0.0
10
42.675002630529022
20
7.5247543655669595
42
0.31529878887898249
10
7.5247543655671638
20
42.675002630528979
10
10.997717918905586
20
62.371157690773217
42
-0.31529878887898355
10
62.371157690773202
20
10.997717918905588
0
LWPOLYLINE
5
107
100
AcDbEntity
8
0
100
AcDbPolyline
90
4
70
1
43
0.0
10
-7.5247543655669578
20
42.675002630529022
42
0.31529878887898338
10
-42.675002630528986
20
7.5247543655670217
10
-62.371157690773188
20
10.997717918905593
42
-0.31529878887898349
10
-10.997717918905586
20
62.371157690773174
0
LWPOLYLINE
5
108
100
AcDbEntity
8
0
100
AcDbPolyline
90
4
70
1
43
0.0
10
-42.675002630529022
20
-7.5247543655669533
42
0.31529878887898338
10
-7.5247543655670253
20
-42.675002630528986
10
-10.997717918905593
20
-62.371157690773174
42
-0.31529878887898349
10
-62.371157690773167
20
-10.997717918905579
0
LWPOLYLINE
5
109
100
AcDbEntity
8
0
100
AcDbPolyline
90
12
70
1
43
0.0
10
496.84211482427816
20
-144.70333446450124
10
496.84211482427816
20
35.296665535498747
10
521.84211482427816
20
35.296665535498775
10
521.84211482427816
20
9.406665535498572
10
506.84211482427804
20
9.406665535498572
10
506.84211482427821
20
5.2966655354987511
10
521.84211482427816
20
5.2966655354985734
10
521.8421148242785
20
-90.593334464501424
10
506.8421148242785
20
-90.59333446450141
10
506.84211482427861
20
-94.703334464501253
10
521.8421148242785
20
-94.703334464501424
10
521.84211482427861
20
-144.70333446450124
0
LINE
5
110
100
AcDbEntity
8
0
100
AcDbLine
10
1.0385985634488147e-08
20
225.42876180097932
30
0
11
1.8654752651340263e-08
21
405.42876180097937
31
0
0
LINE
5
111
100
AcDbEntity
8
0
100
AcDbLine
10
750.00000001038597
20
225.42876176643006
30
0
11
749.99999990877359
21
608.00000006861649
31
0
0
LINE
5
112
100
AcDbEntity
8
0
100
AcDbLine
10
24.999998083946643
20
225.00000000641506
30
0
11
24.999998083946661
21
412
31
0
0
LINE
5
113
100
AcDbEntity
8
0
100
AcDbLine
10
1.8654752651340263e-08
20
405.42876180097937
30
0
11
24.999998083946661
21
405.42876180097977
31
0
0
LINE
5
114
100
AcDbEntity
8
0
100
AcDbLine
10
24.999998083946643
20
225.00000000641506
30
0
11
49.999998083946899
21
225.00000000641506
31
0
0
LINE
5
115
100
AcDbEntity
8
0
100
AcDbLine
10
1.0385985634488147e-08
20
225.42876180097932
30
0
11
25.000000010385961
21
225.42876180097946
31
0
0
LINE
5
116
100
AcDbEntity
8
0
100
AcDbLine
10
49.999998083946899
20
225.00000000641506
30
0
11
49.999998083946913
21
419.00000000000006
31
0
0
LINE
5
117
100
AcDbEntity
8
0
100
AcDbLine
10
24.999998083946661
20
412
30
0
11
49.999998083946906
21
412
31
0
0
LINE
5
118
100
AcDbEntity
8
0
100
AcDbLine
10
49.999998083946899
20
225.00000000641506
30
0
11
74.999998083946892
21
225.00000000641506
31
0
0
LINE
5
119
100
AcDbEntity
8
0
100
AcDbLine
10
74.999998083946892
20
225.00000000641506
30
0
11
74.999998083946906
21
426
31
0
0
LINE
5
120
100
AcDbEntity
8
0
100
AcDbLine
10
49.999998083946913
20
419.00000000000006
30
0
11
74.999998083946906
21
419.00000000000006
31
0
0
LINE
5
121
100
AcDbEntity
8
0
100
AcDbLine
10
74.999998083946892
20
225.00000000641506
30
0
11
99.999998083946892
21
225.00000000641506
31
0
0
LINE
5
122
100
AcDbEntity
8
0
100
AcDbLine
10
99.999998083946892
20
225.00000000641506
30
0
11
99.999998083946878
21
433.00000000000006
31
0
0
LINE
5
123
100
AcDbEntity
8
0
100
AcDbLine
10
74.999998083946906
20
426
30
0
11
99.999998083946892
21
426
31
0
0
LINE
5
124
100
AcDbEntity
8
0
100
AcDbLine
10
99.999998083946892
20
225.00000000641506
30
0
11
124.99999808394689
21
225.00000000641506
31
0
0
LINE
5
125
100
AcDbEntity
8
0
100
AcDbLine
10
124.99999808394689
20
225.00000000641506
30
0
11
124.99999808394688
21
440
31
0
0
LINE
5
126
100
AcDbEntity
8
0
100
AcDbLine
10
99.999998083946878
20
433.00000000000006
30
0
11
124.99999808394688
21
433.00000000000006
31
0
0
LINE
5
127
100
AcDbEntity
8
0
100
AcDbLine
10
124.99999808394689
20
225.00000000641506
30
0
11
149.99999808394688
21
225.00000000641506
31
0
0
LINE
5
128
100
AcDbEntity
8
0
100
AcDbLine
10
149.99999808394688
20
225.00000000641506
30
0
11
149.99999808394688
21
447
31
0
0
LINE
5
129
100
AcDbEntity
8
0
100
AcDbLine
10
124.99999808394688
20
440
30
0
11
149.99999808394688
21
440
31
0
0
LINE
5
130
100
AcDbEntity
8
0
100
AcDbLine
10
149.99999808394688
20
225.00000000641506
30
0
11
174.99999808394688
21
225.00000000641506
31
0
0
LINE
5
131
100
AcDbEntity
8
0
100
AcDbLine
10
174.99999808394688
20
225.00000000641506
30
0
11
174.99999808394688
21
454
31
0
0
LINE
5
132
100
AcDbEntity
8
0
100
AcDbLine
10
149.99999808394688
20
447
30
0
11
174.99999808394688
21
447
31
0
0
LINE
5
133
100
AcDbEntity
8
0
100
AcDbLine
10
174.99999808394688
20
225.00000000641506
30
0
11
199.99999808394688
21
225.00000000641506
31
0
0
LINE
5
134
100
AcDbEntity
8
0
100
AcDbLine
10
199.99999808394688
20
225.00000000641506
30
0
11
199.99999808394688
21
461
31
0
0
LINE
5
135
100
AcDbEntity
8
0
100
AcDbLine
10
174.99999808394688
20
454
30
0
11
199.99999808394688
21
454
31
0
0
LINE
5
136
100
AcDbEntity
8
0
100
AcDbLine
10
199.99999808394688
20
225.00000000641506
30
0
11
224.99999808394688
21
225.00000000641506
31
0
0
LINE
5
137
100
AcDbEntity
8
0
100
AcDbLine
10
224.99999808394688
20
225.00000000641506
30
0
11
224.99999808394688
21
468.00000000000006
31
0
0
LINE
5
138
100
AcDbEntity
8
0
100
AcDbLine
10
199.99999808394688
20
461
30
0
11
224.99999808394688
21
461
31
0
0
LINE
5
139
100
AcDbEntity
8
0
100
AcDbLine
10
224.99999808394688
20
225.00000000641506
30
0
11
249.99999808394691
21
225.00000000641506
31
0
0
LINE
5
140
100
AcDbEntity
8
0
100
AcDbLine
10
249.99999808394691
20
225.00000000641506
30
0
11
249.99999808394691
21
475
31
0
0
LINE
5
141
100
AcDbEntity
8
0
100
AcDbLine
10
224.99999808394688
20
468.00000000000006
30
0
11
249.99999808394691
21
468.00000000000006
31
0
0
LINE
5
142
100
AcDbEntity
8
0
100
AcDbLine
10
249.99999808394691
20
225.00000000641506
30
0
11
274.99999808394693
21
225.00000000641506
31
0
0
LINE
5
143
100
AcDbEntity
8
0
100
AcDbLine
10
274.99999808394693
20
225.00000000641506
30
0
11
274.99999808394693
21
482
31
0
0
LINE
5
144
100
AcDbEntity
8
0
100
AcDbLine
10
249.99999808394691
20
475
30
0
11
274.99999808394693
21
475
31
0
0
LINE
5
145
100
AcDbEntity
8
0
100
AcDbLine
10
274.99999808394693
20
225.00000000641506
30
0
11
299.99999808394693
21
225.00000000641506
31
0
0
LINE
5
146
100
AcDbEntity
8
0
100
AcDbLine
10
299.99999808394693
20
225.00000000641506
30
0
11
299.99999808394688
21
489
31
0
0
LINE
5
147
100
AcDbEntity
8
0
100
AcDbLine
10
274.99999808394693
20
482
30
0
11
299.99999808394693
21
482
31
0
0
LINE
5
148
100
AcDbEntity
8
0
100
AcDbLine
10
299.99999808394693
20
225.00000000641506
30
0
11
324.99999808394693
21
225.00000000641506
31
0
0
LINE
5
149
100
AcDbEntity
8
0
100
AcDbLine
10
324.99999808394693
20
225.00000000641506
30
0
11
324.99999808394682
21
496
31
0
0
LINE
5
150
100
AcDbEntity
8
0
100
AcDbLine
10
299.99999808394688
20
489
30
0
11
324.99999808394682
21
489
31
0
0
LINE
5
151
100
AcDbEntity
8
0
100
AcDbLine
10
324.99999808394693
20
225.00000000641506
30
0
11
349.99999808394682
21
225.00000000641509
31
0
0
LINE
5
152
100
AcDbEntity
8
0
100
AcDbLine
10
349.99999808394682
20
225.00000000641509
30
0
11
349.99999808394682
21
503.00000000000006
31
0
0
LINE
5
153
100
AcDbEntity
8
0
100
AcDbLine
10
324.99999808394682
20
496
30
0
11
349.99999808394682
21
496
31
0
0
LINE
5
154
100
AcDbEntity
8
0
100
AcDbLine
10
349.99999808394682
20
225.00000000641509
30
0
11
374.99999808394682
21
225.00000000641509
31
0
0
LINE
5
155
100
AcDbEntity
8
0
100
AcDbLine
10
374.99999808394682
20
225.00000000641509
30
0
11
374.99999808394796
21
510
31
0
0
LINE
5
156
100
AcDbEntity
8
0
100
AcDbLine
10
349.99999808394682
20
503.00000000000006
30
0
11
374.99999808394796
21
503.00000000000006
31
0
0
LINE
5
157
100
AcDbEntity
8
0
100
AcDbLine
10
374.99999808394682
20
225.00000000641509
30
0
11
399.99999808394682
21
225.00000000641563
31
0
0
LINE
5
158
100
AcDbEntity
8
0
100
AcDbLine
10
399.99999808394682
20
225.00000000641563
30
0
11
399.99999808394682
21
516.99999999999977
31
0
0
LINE
5
159
100
AcDbEntity
8
0
100
AcDbLine
10
374.99999808394796
20
510
30
0
11
399.9999980839471
21
510
31
0
0
LINE
5
160
100
AcDbEntity
8
0
100
AcDbLine
10
399.99999808394682
20
225.00000000641563
30
0
11
424.99999808394682
21
225.00000000641563
31
0
0
LINE
5
161
100
AcDbEntity
8
0
100
AcDbLine
10
424.99999808394682
20
225.00000000641563
30
0
11
424.99999808394682
21
524
31
0
0
LINE
5
162
100
AcDbEntity
8
0
100
AcDbLine
10
399.99999808394682
20
516.99999999999977
30
0
11
424.99999808394682
21
517.00000000000011
31
0
0
LINE
5
163
100
AcDbEntity
8
0
100
AcDbLine
10
424.99999808394682
20
225.00000000641563
30
0
11
449.99999808394682
21
225.00000000641589
31
0
0
LINE
5
164
100
AcDbEntity
8
0
100
AcDbLine
10
449.99999808394682
20
225.00000000641589
30
0
11
449.99999808394682
21
531
31
0
0
LINE
5
165
100
AcDbEntity
8
0
100
AcDbLine
10
424.99999808394682
20
524
30
0
11
449.99999808394682
21
524
31
0
0
LINE
5
166
100
AcDbEntity
8
0
100
AcDbLine
10
449.99999808394682
20
225.00000000641589
30
0
11
474.99999808394682
21
225.00000000641589
31
0
0
LINE
5
167
100
AcDbEntity
8
0
100
AcDbLine
10
474.99999808394682
20
225.00000000641589
30
0
11
474.99999808394682
21
538
31
0
0
LINE
5
168
100
AcDbEntity
8
0
100
AcDbLine
10
449.99999808394682
20
531
30
0
11
474.99999808394682
21
531
31
0
0
LINE
5
169
100
AcDbEntity
8
0
100
AcDbLine
10
474.99999808394682
20
225.00000000641589
30
0
11
499.99999808394682
21
225.00000000641589
31
0
0
LINE
5
170
100
AcDbEntity
8
0
100
AcDbLine
10
499.99999808394682
20
225.00000000641589
30
0
11
499.99999808394682
21
545
31
0
0
LINE
5
171
100
AcDbEntity
8
0
100
AcDbLine
10
474.99999808394682
20
538
30
0
11
499.99999808394682
21
538
31
0
0
LINE
5
172
100
AcDbEntity
8
0
100
AcDbLine
10
499.99999808394682
20
225.00000000641589
30
0
11
524.99999808394682
21
225.00000000641577
31
0
0
LINE
5
173
100
AcDbEntity
8
0
100
AcDbLine
10
524.99999808394682
20
225.00000000641577
30
0
11
524.99999808394682
21
552
31
0
0
LINE
5
174
100
AcDbEntity
8
0
100
AcDbLine
10
499.99999808394682
20
545
30
0
11
524.99999808394682
21
545
31
0
0
LINE
5
175
100
AcDbEntity
8
0
100
AcDbLine
10
524.99999808394682
20
225.00000000641577
30
0
11
549.99999808394682
21
225.00000000641577
31
0
0
LINE
5
176
100
AcDbEntity
8
0
100
AcDbLine
10
549.99999808394682
20
225.00000000641577
30
0
11
549.99999808394682
21
559
31
0
0
LINE
5
177
100
AcDbEntity
8
0
100
AcDbLine
10
524.99999808394682
20
552
30
0
11
550
21
552
31
0
0
LINE
5
178
100
AcDbEntity
8
0
100
AcDbLine
10
549.99999808394682
20
225.00000000641577
30
0
11
574.99999808394682
21
225.00000000641566
31
0
0
LINE
5
179
100
AcDbEntity
8
0
100
AcDbLine
10
574.99999808394682
20
225.00000000641566
30
0
11
574.99999808394682
21
566
31
0
0
LINE
5
180
100
AcDbEntity
8
0
100
AcDbLine
10
549.99999808394682
20
559
30
0
11
574.99999808394682
21
559
31
0
0
LINE
5
181
100
AcDbEntity
8
0
100
AcDbLine
10
574.99999808394682
20
225.00000000641566
30
0
11
599.99999808394682
21
225.00000000641566
31
0
0
LINE
5
182
100
AcDbEntity
8
0
100
AcDbLine
10
599.99999808394682
20
225.00000000641566
30
0
11
599.99999808394682
21
573
31
0
0
LINE
5
183
100
AcDbEntity
8
0
100
AcDbLine
10
574.99999808394682
20
566
30
0
11
599.99999808394682
21
566
31
0
0
LINE
5
184
100
AcDbEntity
8
0
100
AcDbLine
10
599.99999808394682
20
225.00000000641566
30
0
11
624.99999808394682
21
225.00000000641566
31
0
0
LINE
5
185
100
AcDbEntity
8
0
100
AcDbLine
10
624.99999808394682
20
225.00000000641566
30
0
11
624.99999808394682
21
580
31
0
0
LINE
5
186
100
AcDbEntity
8
0
100
AcDbLine
10
599.99999808394682
20
573
30
0
11
624.99999808394682
21
573
31
0
0
LINE
5
187
100
AcDbEntity
8
0
100
AcDbLine
10
624.99999808394682
20
225.00000000641566
30
0
11
649.99999808394693
21
225.00000000641566
31
0
0
LINE
5
188
100
AcDbEntity
8
0
100
AcDbLine
10
649.99999808394693
20
225.00000000641566
30
0
11
649.99999808394693
21
587
31
0
0
LINE
5
189
100
AcDbEntity
8
0
100
AcDbLine
10
624.99999808394682
20
580
30
0
11
649.99999808394693
21
580
31
0
0
LINE
5
190
100
AcDbEntity
8
0
100
AcDbLine
10
649.99999808394693
20
225.00000000641566
30
0
11
674.99999808394693
21
225.00000000641563
31
0
0
LINE
5
191
100
AcDbEntity
8
0
100
AcDbLine
10
674.99999808394693
20
225.00000000641563
30
0
11
674.99999808394693
21
594
31
0
0
LINE
5
192
100
AcDbEntity
8
0
100
AcDbLine
10
649.99999808394693
20
587
30
0
11
674.99999808394693
21
587
31
0
0
LINE
5
193
100
AcDbEntity
8
0
100
AcDbLine
10
674.99999808394693
20
225.00000000641563
30
0
11
699.99999808394728
21
225.00000000641509
31
0
0
LINE
5
194
100
AcDbEntity
8
0
100
AcDbLine
10
699.99999808394728
20
225.00000000641509
30
0
11
699.99999808394716
21
601
31
0
0
LINE
5
195
100
AcDbEntity
8
0
100
AcDbLine
10
674.99999808394693
20
594
30
0
11
699.99999808394693
21
594
31
0
0
LINE
5
196
100
AcDbEntity
8
0
100
AcDbLine
10
699.99999808394728
20
225.00000000641509
30
0
11
724.99999808394693
21
225.00000000641509
31
0
0
LINE
5
197
100
AcDbEntity
8
0
100
AcDbLine
10
724.99999808394693
20
225.00000000641509
30
0
11
724.9999980839483
21
608.00000006197729
31
0
0
LINE
5
198
100
AcDbEntity
8
0
100
AcDbLine
10
699.99999808394716
20
601
30
0
11
724.99999808394796
21
601
31
0
0
LINE
5
199
100
AcDbEntity
8
0
100
AcDbLine
10
724.99999808394693
20
225.00000000641509
30
0
11
749.99999808394693
21
225.00000001305554
31
0
0
LINE
5
200
100
AcDbEntity
8
0
100
AcDbLine
10
724.9999980839483
20
608.00000006197729
30
0
11
749.99999990877359
21
608.00000006861649
31
0
0
LWPOLYLINE
5
201
100
AcDbEntity
8
0
100
AcDbPolyline
90
4
70
1
43
0.0
10
24.999998083946892
20
275.42876180097932
10
15.00109909300078
20
275.42876180097937
10
15.00109909300078
20
279.53876180097933
10
24.999998083946892
20
279.53876180097939
0
LWPOLYLINE
5
202
100
AcDbEntity
8
0
100
AcDbPolyline
90
4
70
1
43
0.0
10
24.999998083946902
20
375.42876177139584
10
14.998666664257314
20
375.42876177139578
10
14.998666664257312
20
379.53876177139585
10
24.999998083946902
20
379.53876177139585
0
LINE
5
203
100
AcDbEntity
8
0
100
AcDbLine
10
49.999998083946906
20
375.42876177139584
30
0
11
39.998666664257321
21
375.42876177139578
31
0
0
LINE
5
204
100
AcDbEntity
8
0
100
AcDbLine
10
39.998666664257321
20
375.42876177139578
30
0
11
39.998666664257307
21
379.53876177139585
31
0
0
LINE
5
205
100
AcDbEntity
8
0
100
AcDbLine
10
39.998666664257307
20
379.53876177139585
30
0
11
49.999998083946906
21
379.53876177139585
31
0
0
LINE
5
206
100
AcDbEntity
8
0
100
AcDbLine
10
49.999998083946899
20
275.42876180097932
30
0
11
40.001099093000782
21
275.42876180097937
31
0
0
LINE
5
207
100
AcDbEntity
8
0
100
AcDbLine
10
40.001099093000782
20
275.42876180097937
30
0
11
40.001099093000782
21
279.53876180097933
31
0
0
LINE
5
208
100
AcDbEntity
8
0
100
AcDbLine
10
40.001099093000782
20
279.53876180097933
30
0
11
49.999998083946899
21
279.53876180097939
31
0
0
LINE
5
209
100
AcDbEntity
8
0
100
AcDbLine
10
74.999998083946906
20
375.42876177139584
30
0
11
64.998666664257314
21
375.42876177139578
31
0
0
LINE
5
210
100
AcDbEntity
8
0
100
AcDbLine
10
64.998666664257314
20
375.42876177139578
30
0
11
64.998666664257314
21
379.53876177139585
31
0
0
LINE
5
211
100
AcDbEntity
8
0
100
AcDbLine
10
64.998666664257314
20
379.53876177139585
30
0
11
74.999998083946906
21
379.53876177139585
31
0
0
LINE
5
212
100
AcDbEntity
8
0
100
AcDbLine
10
74.999998083946892
20
275.42876180097932
30
0
11
65.001099093000775
21
275.42876180097937
31
0
0
LINE
5
213
100
AcDbEntity
8
0
100
AcDbLine
10
65.001099093000775
20
275.42876180097937
30
0
11
65.001099093000775
21
279.53876180097933
31
0
0
LINE
5
214
100
AcDbEntity
8
0
100
AcDbLine
10
65.001099093000775
20
279.53876180097933
30
0
11
74.999998083946892
21
279.53876180097939
31
0
0
LINE
5
215
100
AcDbEntity
8
0
100
AcDbLine
10
99.999998083946906
20
375.42876177139584
30
0
11
89.998666664257314
21
375.42876177139578
31
0
0
LINE
5
216
100
AcDbEntity
8
0
100
AcDbLine
10
89.998666664257314
20
375.42876177139578
30
0
11
89.998666664257314
21
379.53876177139585
31
0
0
LINE
5
217
100
AcDbEntity
8
0
100
AcDbLine
10
89.998666664257314
20
379.53876177139585
30
0
11
99.999998083946906
21
379.53876177139585
31
0
0
LINE
5
218
100
AcDbEntity
8
0
100
AcDbLine
10
99.999998083946892
20
275.42876180097932
30
0
11
90.001099093000775
21
275.42876180097937
31
0
0
LINE
5
219
100
AcDbEntity
8
0
100
AcDbLine
10
90.001099093000775
20
275.42876180097937
30
0
11
90.001099093000775
21
279.53876180097933
31
0
0
LINE
5
220
100
AcDbEntity
8
0
100
AcDbLine
10
90.001099093000775
20
279.53876180097933
30
0
11
99.999998083946892
21
279.53876180097939
31
0
0
LINE
5
221
100
AcDbEntity
8
0
100
AcDbLine
10
124.99999808394691
20
375.42876177139584
30
0
11
114.99866666425731
21
375.42876177139578
31
0
0
LINE
5
222
100
AcDbEntity
8
0
100
AcDbLine
10
114.99866666425731
20
375.42876177139578
30
0
11
114.99866666425731
21
379.53876177139585
31
0
0
LINE
5
223
100
AcDbEntity
8
0
100
AcDbLine
10
114.99866666425731
20
379.53876177139585
30
0
11
124.99999808394691
21
379.53876177139585
31
0
0
LINE
5
224
100
AcDbEntity
8
0
100
AcDbLine
10
124.99999808394689
20
275.42876180097932
30
0
11
115.00109909300078
21
275.42876180097937
31
0
0
LINE
5
225
100
AcDbEntity
8
0
100
AcDbLine
10
115.00109909300078
20
275.42876180097937
30
0
11
115.00109909300078
21
279.53876180097933
31
0
0
LINE
5
226
100
AcDbEntity
8
0
100
AcDbLine
10
115.00109909300078
20
279.53876180097933
30
0
11
124.99999808394689
21
279.53876180097939
31
0
0
LINE
5
227
100
AcDbEntity
8
0
100
AcDbLine
10
149.99999808394691
20
375.42876177139584
30
0
11
139.99866666425731
21
375.42876177139578
31
0
0
LINE
5
228
100
AcDbEntity
8
0
100
AcDbLine
10
139.99866666425731
20
375.42876177139578
30
0
11
139.99866666425731
21
379.53876177139585
31
0
0
LINE
5
229
100
AcDbEntity
8
0
100
AcDbLine
10
139.99866666425731
20
379.53876177139585
30
0
11
149.99999808394691
21
379.53876177139585
31
0
0
LINE
5
230
100
AcDbEntity
8
0
100
AcDbLine
10
149.99999808394688
20
275.42876180097932
30
0
11
140.00109909300076
21
275.42876180097937
31
0
0
LINE
5
231
100
AcDbEntity
8
0
100
AcDbLine
10
140.00109909300076
20
275.42876180097937
30
0
11
140.00109909300076
21
279.53876180097933
31
0
0
LINE
5
232
100
AcDbEntity
8
0
100
AcDbLine
10
140.00109909300076
20
279.53876180097933
30
0
11
149.99999808394688
21
279.53876180097939
31
0
0
LINE
5
233
100
AcDbEntity
8
0
100
AcDbLine
10
174.99999808394691
20
375.42876177139584
30
0
11
164.99866666425731
21
375.42876177139578
31
0
0
LINE
5
234
100
AcDbEntity
8
0
100
AcDbLine
10
164.99866666425731
20
375.42876177139578
30
0
11
164.99866666425731
21
379.53876177139585
31
0
0
LINE
5
235
100
AcDbEntity
8
0
100
AcDbLine
10
164.99866666425731
20
379.53876177139585
30
0
11
174.99999808394691
21
379.53876177139585
31
0
0
LINE
5
236
100
AcDbEntity
8
0
100
AcDbLine
10
174.99999808394688
20
275.42876180097932
30
0
11
165.00109909300079
21
275.42876180097937
31
0
0
LINE
5
237
100
AcDbEntity
8
0
100
AcDbLine
10
165.00109909300079
20
275.42876180097937
30
0
11
165.00109909300079
21
279.53876180097933
31
0
0
LINE
5
238
100
AcDbEntity
8
0
100
AcDbLine
10
165.00109909300079
20
279.53876180097933
30
0
11
174.99999808394688
21
279.53876180097939
31
0
0
LINE
5
239
100
AcDbEntity
8
0
100
AcDbLine
10
199.99999808394691
20
375.42876177139584
30
0
11
189.99866666425731
21
375.42876177139578
31
0
0
LINE
5
240
100
AcDbEntity
8
0
100
AcDbLine
10
189.99866666425731
20
375.42876177139578
30
0
11
189.99866666425731
21
379.53876177139585
31
0
0
LINE
5
241
100
AcDbEntity
8
0
100
AcDbLine
10
189.99866666425731
20
379.53876177139585
30
0
11
199.99999808394691
21
379.53876177139585
31
0
0
LINE
5
242
100
AcDbEntity
8
0
100
AcDbLine
10
199.99999808394688
20
275.42876180097932
30
0
11
190.00109909300079
21
275.42876180097937
31
0
0
LINE
5
243
100
AcDbEntity
8
0
100
AcDbLine
10
190.00109909300079
20
275.42876180097937
30
0
11
190.00109909300079
21
279.53876180097933
31
0
0
LINE
5
244
100
AcDbEntity
8
0
100
AcDbLine
10
190.00109909300079
20
279.53876180097933
30
0
11
199.99999808394688
21
279.53876180097939
31
0
0
LINE
5
245
100
AcDbEntity
8
0
100
AcDbLine
10
224.99999808394691
20
375.42876177139584
30
0
11
214.99866666425731
21
375.42876177139578
31
0
0
LINE
5
246
100
AcDbEntity
8
0
100
AcDbLine
10
214.99866666425731
20
375.42876177139578
30
0
11
214.99866666425731
21
379.53876177139585
31
0
0
LINE
5
247
100
AcDbEntity
8
0
100
AcDbLine
10
214.99866666425731
20
379.53876177139585
30
0
11
224.99999808394691
21
379.53876177139585
31
0
0
LINE
5
248
100
AcDbEntity
8
0
100
AcDbLine
10
224.99999808394688
20
275.42876180097932
30
0
11
215.00109909300079
21
275.42876180097937
31
0
0
LINE
5
249
100
AcDbEntity
8
0
100
AcDbLine
10
215.00109909300079
20
275.42876180097937
30
0
11
215.00109909300079
21
279.53876180097933
31
0
0
LINE
5
250
100
AcDbEntity
8
0
100
AcDbLine
10
215.00109909300079
20
279.53876180097933
30
0
11
224.99999808394688
21
279.53876180097939
31
0
0
LINE
5
251
100
AcDbEntity
8
0
100
AcDbLine
10
249.99999808394691
20
375.42876177139584
30
0
11
239.99866666425731
21
375.42876177139578
31
0
0
LINE
5
252
100
AcDbEntity
8
0
100
AcDbLine
10
239.99866666425731
20
375.42876177139578
30
0
11
239.99866666425731
21
379.53876177139585
31
0
0
LINE
5
253
100
AcDbEntity
8
0
100
AcDbLine
10
239.99866666425731
20
379.53876177139585
30
0
11
249.99999808394691
21
379.53876177139585
31
0
0
LINE
5
254
100
AcDbEntity
8
0
100
AcDbLine
10
249.99999808394688
20
275.42876180097932
30
0
11
240.00109909300079
21
275.42876180097937
31
0
0
LINE
5
255
100
AcDbEntity
8
0
100
AcDbLine
10
240.00109909300079
20
275.42876180097937
30
0
11
240.00109909300079
21
279.53876180097933
31
0
0
LINE
5
256
100
AcDbEntity
8
0
100
AcDbLine
10
240.00109909300079
20
279.53876180097933
30
0
11
249.99999808394688
21
279.53876180097939
31
0
0
LINE
5
257
100
AcDbEntity
8
0
100
AcDbLine
10
274.99999808394693
20
375.42876177139584
30
0
11
264.99866666425731
21
375.42876177139578
31
0
0
LINE
5
258
100
AcDbEntity
8
0
100
AcDbLine
10
264.99866666425731
20
375.42876177139578
30
0
11
264.99866666425731
21
379.53876177139585
31
0
0
LINE
5
259
100
AcDbEntity
8
0
100
AcDbLine
10
264.99866666425731
20
379.53876177139585
30
0
11
274.99999808394693
21
379.53876177139585
31
0
0
LINE
5
260
100
AcDbEntity
8
0
100
AcDbLine
10
274.99999808394688
20
275.42876180097932
30
0
11
265.00109909300079
21
275.42876180097937
31
0
0
LINE
5
261
100
AcDbEntity
8
0
100
AcDbLine
10
265.00109909300079
20
275.42876180097937
30
0
11
265.00109909300079
21
279.53876180097933
31
0
0
LINE
5
262
100
AcDbEntity
8
0
100
AcDbLine
10
265.00109909300079
20
279.53876180097933
30
0
11
274.99999808394688
21
279.53876180097939
31
0
0
LINE
5
263
100
AcDbEntity
8
0
100
AcDbLine
10
299.99999808394693
20
375.42876177139584
30
0
11
289.99866666425731
21
375.42876177139578
31
0
0
LINE
5
264
100
AcDbEntity
8
0
100
AcDbLine
10
289.99866666425731
20
375.42876177139578
30
0
11
289.99866666425731
21
379.53876177139585
31
0
0
LINE
5
265
100
AcDbEntity
8
0
100
AcDbLine
10
289.99866666425731
20
379.53876177139585
30
0
11
299.99999808394693
21
379.53876177139585
31
0
0
LINE
5
266
100
AcDbEntity
8
0
100
AcDbLine
10
299.99999808394688
20
275.42876180097932
30
0
11
290.00109909300079
21
275.42876180097937
31
0
0
LINE
5
267
100
AcDbEntity
8
0
100
AcDbLine
10
290.00109909300079
20
275.42876180097937
30
0
11
290.00109909300079
21
279.53876180097933
31
0
0
LINE
5
268
100
AcDbEntity
8
0
100
AcDbLine
10
290.00109909300079
20
279.53876180097933
30
0
11
299.99999808394688
21
279.53876180097939
31
0
0
LINE
5
269
100
AcDbEntity
8
0
100
AcDbLine
10
324.99999808394693
20
375.42876177139584
30
0
11
314.99866666425731
21
375.42876177139578
31
0
0
LINE
5
270
100
AcDbEntity
8
0
100
AcDbLine
10
314.99866666425731
20
375.42876177139578
30
0
11
314.99866666425731
21
379.53876177139585
31
0
0
LINE
5
271
100
AcDbEntity
8
0
100
AcDbLine
10
314.99866666425731
20
379.53876177139585
30
0
11
324.99999808394693
21
379.53876177139585
31
0
0
LINE
5
272
100
AcDbEntity
8
0
100
AcDbLine
10
324.99999808394693
20
275.42876180097932
30
0
11
315.00109909300079
21
275.42876180097937
31
0
0
LINE
5
273
100
AcDbEntity
8
0
100
AcDbLine
10
315.00109909300079
20
275.42876180097937
30
0
11
315.00109909300079
21
279.53876180097933
31
0
0
LINE
5
274
100
AcDbEntity
8
0
100
AcDbLine
10
315.00109909300079
20
279.53876180097933
30
0
11
324.99999808394693
21
279.53876180097939
31
0
0
LINE
5
275
100
AcDbEntity
8
0
100
AcDbLine
10
349.99999808394693
20
375.42876177139584
30
0
11
339.99866666425731
21
375.42876177139578
31
0
0
LINE
5
276
100
AcDbEntity
8
0
100
AcDbLine
10
339.99866666425731
20
375.42876177139578
30
0
11
339.99866666425731
21
379.53876177139585
31
0
0
LINE
5
277
100
AcDbEntity
8
0
100
AcDbLine
10
339.99866666425731
20
379.53876177139585
30
0
11
349.99999808394693
21
379.53876177139585
31
0
0
LINE
5
278
100
AcDbEntity
8
0
100
AcDbLine
10
349.99999808394693
20
275.42876180097932
30
0
11
340.00109909300079
21
275.42876180097937
31
0
0
LINE
5
279
100
AcDbEntity
8
0
100
AcDbLine
10
340.00109909300079
20
275.42876180097937
30
0
11
340.00109909300079
21
279.53876180097933
31
0
0
LINE
5
280
100
AcDbEntity
8
0
100
AcDbLine
10
340.00109909300079
20
279.53876180097933
30
0
11
349.99999808394693
21
279.53876180097939
31
0
0
LINE
5
281
100
AcDbEntity
8
0
100
AcDbLine
10
374.99999808394693
20
375.42876177139584
30
0
11
364.99866666425731
21
375.42876177139578
31
0
0
LINE
5
282
100
AcDbEntity
8
0
100
AcDbLine
10
364.99866666425731
20
375.42876177139578
30
0
11
364.99866666425731
21
379.53876177139585
31
0
0
LINE
5
283
100
AcDbEntity
8
0
100
AcDbLine
10
364.99866666425731
20
379.53876177139585
30
0
11
374.99999808394693
21
379.53876177139585
31
0
0
LINE
5
284
100
AcDbEntity
8
0
100
AcDbLine
10
374.99999808394693
20
275.42876180097932
30
0
11
365.00109909300079
21
275.42876180097937
31
0
0
LINE
5
285
100
AcDbEntity
8
0
100
AcDbLine
10
365.00109909300079
20
275.42876180097937
30
0
11
365.00109909300079
21
279.53876180097933
31
0
0
LINE
5
286
100
AcDbEntity
8
0
100
AcDbLine
10
365.00109909300079
20
279.53876180097933
30
0
11
374.99999808394693
21
279.53876180097939
31
0
0
LINE
5
287
100
AcDbEntity
8
0
100
AcDbLine
10
399.99999808394693
20
375.42876177139584
30
0
11
389.99866666425731
21
375.42876177139578
31
0
0
LINE
5
288
100
AcDbEntity
8
0
100
AcDbLine
10
389.99866666425731
20
375.42876177139578
30
0
11
389.99866666425731
21
379.53876177139585
31
0
0
LINE
5
289
100
AcDbEntity
8
0
100
AcDbLine
10
389.99866666425731
20
379.53876177139585
30
0
11
399.99999808394693
21
379.53876177139585
31
0
0
LINE
5
290
100
AcDbEntity
8
0
100
AcDbLine
10
399.99999808394693
20
275.42876180097932
30
0
11
390.00109909300079
21
275.42876180097937
31
0
0
LINE
5
291
100
AcDbEntity
8
0
100
AcDbLine
10
390.00109909300079
20
275.42876180097937
30
0
11
390.00109909300079
21
279.53876180097933
31
0
0
LINE
5
292
100
AcDbEntity
8
0
100
AcDbLine
10
390.00109909300079
20
279.53876180097933
30
0
11
399.99999808394693
21
279.53876180097939
31
0
0
LINE
5
293
100
AcDbEntity
8
0
100
AcDbLine
10
424.99999808394693
20
375.42876177139584
30
0
11
414.99866666425731
21
375.42876177139578
31
0
0
LINE
5
294
100
AcDbEntity
8
0
100
AcDbLine
10
414.99866666425731
20
375.42876177139578
30
0
11
414.99866666425731
21
379.53876177139585
31
0
0
LINE
5
295
100
AcDbEntity
8
0
100
AcDbLine
10
414.99866666425731
20
379.53876177139585
30
0
11
424.99999808394693
21
379.53876177139585
31
0
0
LINE
5
296
100
AcDbEntity
8
0
100
AcDbLine
10
424.99999808394693
20
275.42876180097932
30
0
11
415.00109909300079
21
275.42876180097937
31
0
0
LINE
5
297
100
AcDbEntity
8
0
100
AcDbLine
10
415.00109909300079
20
275.42876180097937
30
0
11
415.00109909300079
21
279.53876180097933
31
0
0
LINE
5
298
100
AcDbEntity
8
0
100
AcDbLine
10
415.00109909300079
20
279.53876180097933
30
0
11
424.99999808394693
21
279.53876180097939
31
0
0
LINE
5
299
100
AcDbEntity
8
0
100
AcDbLine
10
449.99999808394693
20
375.42876177139584
30
0
11
439.99866666425731
21
375.42876177139578
31
0
0
LINE
5
300
100
AcDbEntity
8
0
100
AcDbLine
10
439.99866666425731
20
375.42876177139578
30
0
11
439.99866666425731
21
379.53876177139585
31
0
0
LINE
5
301
100
AcDbEntity
8
0
100
AcDbLine
10
439.99866666425731
20
379.53876177139585
30
0
11
449.99999808394693
21
379.53876177139585
31
0
0
LINE
5
302
100
AcDbEntity
8
0
100
AcDbLine
10
449.99999808394693
20
275.42876180097932
30
0
11
440.00109909300079
21
275.42876180097937
31
0
0
LINE
5
303
100
AcDbEntity
8
0
100
AcDbLine
10
440.00109909300079
20
275.42876180097937
30
0
11
440.00109909300079
21
279.53876180097933
31
0
0
LINE
5
304
100
AcDbEntity
8
0
100
AcDbLine
10
440.00109909300079
20
279.53876180097933
30
0
11
449.99999808394693
21
279.53876180097939
31
0
0
LINE
5
305
100
AcDbEntity
8
0
100
AcDbLine
10
474.99999808394693
20
375.42876177139584
30
0
11
464.99866666425731
21
375.42876177139578
31
0
0
LINE
5
306
100
AcDbEntity
8
0
100
AcDbLine
10
464.99866666425731
20
375.42876177139578
30
0
11
464.99866666425731
21
379.53876177139585
31
0
0
LINE
5
307
100
AcDbEntity
8
0
100
AcDbLine
10
464.99866666425731
20
379.53876177139585
30
0
11
474.99999808394693
21
379.53876177139585
31
0
0
LINE
5
308
100
AcDbEntity
8
0
100
AcDbLine
10
474.99999808394693
20
275.42876180097932
30
0
11
465.00109909300079
21
275.42876180097937
31
0
0
LINE
5
309
100
AcDbEntity
8
0
100
AcDbLine
10
465.00109909300079
20
275.42876180097937
30
0
11
465.00109909300079
21
279.53876180097933
31
0
0
LINE
5
310
100
AcDbEntity
8
0
100
AcDbLine
10
465.00109909300079
20
279.53876180097933
30
0
11
474.99999808394693
21
279.53876180097939
31
0
0
LINE
5
311
100
AcDbEntity
8
0
100
AcDbLine
10
499.99999808394693
20
375.42876177139584
30
0
11
489.99866666425731
21
375.42876177139578
31
0
0
LINE
5
312
100
AcDbEntity
8
0
100
AcDbLine
10
489.99866666425731
20
375.42876177139578
30
0
11
489.99866666425731
21
379.53876177139585
31
0
0
LINE
5
313
100
AcDbEntity
8
0
100
AcDbLine
10
489.99866666425731
20
379.53876177139585
30
0
11
499.99999808394693
21
379.53876177139585
31
0
0
LINE
5
314
100
AcDbEntity
8
0
100
AcDbLine
10
499.99999808394693
20
275.42876180097932
30
0
11
490.00109909300079
21
275.42876180097937
31
0
0
LINE
5
315
100
AcDbEntity
8
0
100
AcDbLine
10
490.00109909300079
20
275.42876180097937
30
0
11
490.00109909300079
21
279.53876180097933
31
0
0
LINE
5
316
100
AcDbEntity
8
0
100
AcDbLine
10
490.00109909300079
20
279.53876180097933
30
0
11
499.99999808394693
21
279.53876180097939
31
0
0
LINE
5
317
100
AcDbEntity
8
0
100
AcDbLine
10
524.99999808394693
20
375.42876177139584
30
0
11
514.99866666425737
21
375.42876177139578
31
0
0
LINE
5
318
100
AcDbEntity
8
0
100
AcDbLine
10
514.99866666425737
20
375.42876177139578
30
0
11
514.99866666425737
21
379.53876177139585
31
0
0
LINE
5
319
100
AcDbEntity
8
0
100
AcDbLine
10
514.99866666425737
20
379.53876177139585
30
0
11
524.99999808394693
21
379.53876177139585
31
0
0
LINE
5
320
100
AcDbEntity
8
0
100
AcDbLine
10
524.99999808394693
20
275.42876180097932
30
0
11
515.00109909300079
21
275.42876180097937
31
0
0
LINE
5
321
100
AcDbEntity
8
0
100
AcDbLine
10
515.00109909300079
20
275.42876180097937
30
0
11
515.00109909300079
21
279.53876180097933
31
0
0
LINE
5
322
100
AcDbEntity
8
0
100
AcDbLine
10
515.00109909300079
20
279.53876180097933
30
0
11
524.99999808394693
21
279.53876180097939
31
0
0
LINE
5
323
100
AcDbEntity
8
0
100
AcDbLine
10
549.99999808394693
20
375.42876177139584
30
0
11
539.99866666425737
21
375.42876177139578
31
0
0
LINE
5
324
100
AcDbEntity
8
0
100
AcDbLine
10
539.99866666425737
20
375.42876177139578
30
0
11
539.99866666425737
21
379.53876177139585
31
0
0
LINE
5
325
100
AcDbEntity
8
0
100
AcDbLine
10
539.99866666425737
20
379.53876177139585
30
0
11
549.99999808394693
21
379.53876177139585
31
0
0
LINE
5
326
100
AcDbEntity
8
0
100
AcDbLine
10
549.99999808394693
20
275.42876180097932
30
0
11
540.00109909300079
21
275.42876180097937
31
0
0
LINE
5
327
100
AcDbEntity
8
0
100
AcDbLine
10
540.00109909300079
20
275.42876180097937
30
0
11
540.00109909300079
21
279.53876180097933
31
0
0
LINE
5
328
100
AcDbEntity
8
0
100
AcDbLine
10
540.00109909300079
20
279.53876180097933
30
0
11
549.99999808394693
21
279.53876180097939
31
0
0
LINE
5
329
100
AcDbEntity
8
0
100
AcDbLine
10
574.99999808394693
20
375.42876177139584
30
0
11
564.99866666425737
21
375.42876177139578
31
0
0
LINE
5
330
100
AcDbEntity
8
0
100
AcDbLine
10
564.99866666425737
20
375.42876177139578
30
0
11
564.99866666425737
21
379.53876177139585
31
0
0
LINE
5
331
100
AcDbEntity
8
0
100
AcDbLine
10
564.99866666425737
20
379.53876177139585
30
0
11
574.99999808394693
21
379.53876177139585
31
0
0
LINE
5
332
100
AcDbEntity
8
0
100
AcDbLine
10
574.99999808394693
20
275.42876180097932
30
0
11
565.00109909300079
21
275.42876180097937
31
0
0
LINE
5
333
100
AcDbEntity
8
0
100
AcDbLine
10
565.00109909300079
20
275.42876180097937
30
0
11
565.00109909300079
21
279.53876180097933
31
0
0
LINE
5
334
100
AcDbEntity
8
0
100
AcDbLine
10
565.00109909300079
20
279.53876180097933
30
0
11
574.99999808394693
21
279.53876180097939
31
0
0
LINE
5
335
100
AcDbEntity
8
0
100
AcDbLine
10
599.99999808394693
20
375.42876177139584
30
0
11
589.99866666425737
21
375.42876177139578
31
0
0
LINE
5
336
100
AcDbEntity
8
0
100
AcDbLine
10
589.99866666425737
20
375.42876177139578
30
0
11
589.99866666425737
21
379.53876177139585
31
0
0
LINE
5
337
100
AcDbEntity
8
0
100
AcDbLine
10
589.99866666425737
20
379.53876177139585
30
0
11
599.99999808394693
21
379.53876177139585
31
0
0
LINE
5
338
100
AcDbEntity
8
0
100
AcDbLine
10
599.99999808394693
20
275.42876180097932
30
0
11
590.00109909300079
21
275.42876180097937
31
0
0
LINE
5
339
100
AcDbEntity
8
0
100
AcDbLine
10
590.00109909300079
20
275.42876180097937
30
0
11
590.00109909300079
21
279.53876180097933
31
0
0
LINE
5
340
100
AcDbEntity
8
0
100
AcDbLine
10
590.00109909300079
20
279.53876180097933
30
0
11
599.99999808394693
21
279.53876180097939
31
0
0
LINE
5
341
100
AcDbEntity
8
0
100
AcDbLine
10
624.99999808394693
20
375.42876177139584
30
0
11
614.99866666425737
21
375.42876177139578
31
0
0
LINE
5
342
100
AcDbEntity
8
0
100
AcDbLine
10
614.99866666425737
20
375.42876177139578
30
0
11
614.99866666425737
21
379.53876177139585
31
0
0
LINE
5
343
100
AcDbEntity
8
0
100
AcDbLine
10
614.99866666425737
20
379.53876177139585
30
0
11
624.99999808394693
21
379.53876177139585
31
0
0
LINE
5
344
100
AcDbEntity
8
0
100
AcDbLine
10
624.99999808394693
20
275.42876180097932
30
0
11
615.00109909300079
21
275.42876180097937
31
0
0
LINE
5
345
100
AcDbEntity
8
0
100
AcDbLine
10
615.00109909300079
20
275.42876180097937
30
0
11
615.00109909300079
21
279.53876180097933
31
0
0
LINE
5
346
100
AcDbEntity
8
0
100
AcDbLine
10
615.00109909300079
20
279.53876180097933
30
0
11
624.99999808394693
21
279.53876180097939
31
0
0
LINE
5
347
100
AcDbEntity
8
0
100
AcDbLine
10
649.99999808394693
20
375.42876177139584
30
0
11
639.99866666425737
21
375.42876177139578
31
0
0
LINE
5
348
100
AcDbEntity
8
0
100
AcDbLine
10
639.99866666425737
20
375.42876177139578
30
0
11
639.99866666425737
21
379.53876177139585
31
0
0
LINE
5
349
100
AcDbEntity
8
0
100
AcDbLine
10
639.99866666425737
20
379.53876177139585
30
0
11
649.99999808394693
21
379.53876177139585
31
0
0
LINE
5
350
100
AcDbEntity
8
0
100
AcDbLine
10
649.99999808394693
20
275.42876180097932
30
0
11
640.00109909300068
21
275.42876180097937
31
0
0
LINE
5
351
100
AcDbEntity
8
0
100
AcDbLine
10
640.00109909300068
20
275.42876180097937
30
0
11
640.00109909300079
21
279.53876180097933
31
0
0
LINE
5
352
100
AcDbEntity
8
0
100
AcDbLine
10
640.00109909300079
20
279.53876180097933
30
0
11
649.99999808394693
21
279.53876180097939
31
0
0
LINE
5
353
100
AcDbEntity
8
0
100
AcDbLine
10
674.99999808394693
20
375.42876177139584
30
0
11
664.99866666425737
21
375.42876177139578
31
0
0
LINE
5
354
100
AcDbEntity
8
0
100
AcDbLine
10
664.99866666425737
20
375.42876177139578
30
0
11
664.99866666425737
21
379.53876177139585
31
0
0
LINE
5
355
100
AcDbEntity
8
0
100
AcDbLine
10
664.99866666425737
20
379.53876177139585
30
0
11
674.99999808394693
21
379.53876177139585
31
0
0
LINE
5
356
100
AcDbEntity
8
0
100
AcDbLine
10
674.99999808394693
20
275.42876180097932
30
0
11
665.00109909300068
21
275.42876180097937
31
0
0
LINE
5
357
100
AcDbEntity
8
0
100
AcDbLine
10
665.00109909300068
20
275.42876180097937
30
0
11
665.00109909300079
21
279.53876180097933
31
0
0
LINE
5
358
100
AcDbEntity
8
0
100
AcDbLine
10
665.00109909300079
20
279.53876180097933
30
0
11
674.99999808394693
21
279.53876180097939
31
0
0
LINE
5
359
100
AcDbEntity
8
0
100
AcDbLine
10
699.99999808394693
20
375.42876177139584
30
0
11
689.99866666425737
21
375.42876177139578
31
0
0
LINE
5
360
100
AcDbEntity
8
0
100
AcDbLine
10
689.99866666425737
20
375.42876177139578
30
0
11
689.99866666425737
21
379.53876177139585
31
0
0
LINE
5
361
100
AcDbEntity
8
0
100
AcDbLine
10
689.99866666425737
20
379.53876177139585
30
0
11
699.99999808394693
21
379.53876177139585
31
0
0
LINE
5
362
100
AcDbEntity
8
0
100
AcDbLine
10
699.99999808394693
20
275.42876180097932
30
0
11
690.00109909300068
21
275.42876180097937
31
0
0
LINE
5
363
100
AcDbEntity
8
0
100
AcDbLine
10
690.00109909300068
20
275.42876180097937
30
0
11
690.00109909300079
21
279.53876180097933
31
0
0
LINE
5
364
100
AcDbEntity
8
0
100
AcDbLine
10
690.00109909300079
20
279.53876180097933
30
0
11
699.99999808394693
21
279.53876180097939
31
0
0
LINE
5
365
100
AcDbEntity
8
0
100
AcDbLine
10
724.99999808394693
20
375.42876177139584
30
0
11
714.99866666425737
21
375.42876177139578
31
0
0
LINE
5
366
100
AcDbEntity
8
0
100
AcDbLine
10
714.99866666425737
20
375.42876177139578
30
0
11
714.99866666425737
21
379.53876177139585
31
0
0
LINE
5
367
100
AcDbEntity
8
0
100
AcDbLine
10
714.99866666425737
20
379.53876177139585
30
0
11
724.99999808394693
21
379.53876177139585
31
0
0
LINE
5
368
100
AcDbEntity
8
0
100
AcDbLine
10
724.99999808394693
20
275.42876180097932
30
0
11
715.00109909300068
21
275.42876180097937
31
0
0
LINE
5
369
100
AcDbEntity
8
0
100
AcDbLine
10
715.00109909300068
20
275.42876180097937
30
0
11
715.00109909300079
21
279.53876180097933
31
0
0
LINE
5
370
100
AcDbEntity
8
0
100
AcDbLine
10
715.00109909300079
20
279.53876180097933
30
0
11
724.99999808394693
21
279.53876180097939
31
0
0
LINE
5
371
100
AcDbEntity
8
0
100
AcDbLine
10
749.99999808394693
20
375.42876177139584
30
0
11
739.99866666425737
21
375.42876177139578
31
0
0
LINE
5
372
100
AcDbEntity
8
0
100
AcDbLine
10
739.99866666425737
20
375.42876177139578
30
0
11
739.99866666425737
21
379.53876177139585
31
0
0
LINE
5
373
100
AcDbEntity
8
0
100
AcDbLine
10
739.99866666425737
20
379.53876177139585
30
0
11
749.99999808394693
21
379.53876177139585
31
0
0
LINE
5
374
100
AcDbEntity
8
0
100
AcDbLine
10
749.99999808394693
20
275.42876180097932
30
0
11
740.00109909300068
21
275.42876180097937
31
0
0
LINE
5
375
100
AcDbEntity
8
0
100
AcDbLine
10
740.00109909300068
20
275.42876180097937
30
0
11
740.00109909300079
21
279.53876180097933
31
0
0
LINE
5
376
100
AcDbEntity
8
0
100
AcDbLine
10
740.00109909300079
20
279.53876180097933
30
0
11
749.99999808394693
21
279.53876180097939
31
0
0
LWPOLYLINE
5
377
100
AcDbEntity
8
0
100
AcDbPolyline
90
4
70
1
43
0.0
10
749.9999999428934
20
479.53876177139585
10
739.99999999126135
20
479.53876177139585
10
739.99999999126135
20
483.64876177139587
10
749.9999999428934
20
483.64876177139587
0
LINE
5
378
100
AcDbEntity
8
0
100
AcDbLine
10
724.9999999428934
20
479.53876177139585
30
0
11
714.99999999126135
21
479.53876177139585
31
0
0
LINE
5
379
100
AcDbEntity
8
0
100
AcDbLine
10
714.99999999126135
20
479.53876177139585
30
0
11
714.99999999126135
21
483.64876177139587
31
0
0
LINE
5
380
100
AcDbEntity
8
0
100
AcDbLine
10
714.99999999126135
20
483.64876177139587
30
0
11
724.9999999428934
21
483.64876177139587
31
0
0
LINE
5
381
100
AcDbEntity
8
0
100
AcDbLine
10
699.9999999428934
20
479.53876177139585
30
0
11
689.99999999126135
21
479.53876177139585
31
0
0
LINE
5
382
100
AcDbEntity
8
0
100
AcDbLine
10
689.99999999126135
20
479.53876177139585
30
0
11
689.99999999126135
21
483.64876177139587
31
0
0
LINE
5
383
100
AcDbEntity
8
0
100
AcDbLine
10
689.99999999126135
20
483.64876177139587
30
0
11
699.9999999428934
21
483.64876177139587
31
0
0
LINE
5
384
100
AcDbEntity
8
0
100
AcDbLine
10
674.9999999428934
20
479.53876177139585
30
0
11
664.99999999126135
21
479.53876177139585
31
0
0
LINE
5
385
100
AcDbEntity
8
0
100
AcDbLine
10
664.99999999126135
20
479.53876177139585
30
0
11
664.99999999126135
21
483.64876177139587
31
0
0
LINE
5
386
100
AcDbEntity
8
0
100
AcDbLine
10
664.99999999126135
20
483.64876177139587
30
0
11
674.9999999428934
21
483.64876177139587
31
0
0
LINE
5
387
100
AcDbEntity
8
0
100
AcDbLine
10
649.9999999428934
20
479.53876177139585
30
0
11
639.99999999126135
21
479.53876177139585
31
0
0
LINE
5
388
100
AcDbEntity
8
0
100
AcDbLine
10
639.99999999126135
20
479.53876177139585
30
0
11
639.99999999126135
21
483.64876177139587
31
0
0
LINE
5
389
100
AcDbEntity
8
0
100
AcDbLine
10
639.99999999126135
20
483.64876177139587
30
0
11
649.9999999428934
21
483.64876177139587
31
0
0
LINE
5
390
100
AcDbEntity
8
0
100
AcDbLine
10
624.9999999428934
20
479.53876177139585
30
0
11
614.99999999126135
21
479.53876177139585
31
0
0
LINE
5
391
100
AcDbEntity
8
0
100
AcDbLine
10
614.99999999126135
20
479.53876177139585
30
0
11
614.99999999126135
21
483.64876177139587
31
0
0
LINE
5
392
100
AcDbEntity
8
0
100
AcDbLine
10
614.99999999126135
20
483.64876177139587
30
0
11
624.9999999428934
21
483.64876177139587
31
0
0
LINE
5
393
100
AcDbEntity
8
0
100
AcDbLine
10
599.9999999428934
20
479.53876177139585
30
0
11
589.99999999126135
21
479.53876177139585
31
0
0
LINE
5
394
100
AcDbEntity
8
0
100
AcDbLine
10
589.99999999126135
20
479.53876177139585
30
0
11
589.99999999126135
21
483.64876177139587
31
0
0
LINE
5
395
100
AcDbEntity
8
0
100
AcDbLine
10
589.99999999126135
20
483.64876177139587
30
0
11
599.9999999428934
21
483.64876177139587
31
0
0
LINE
5
396
100
AcDbEntity
8
0
100
AcDbLine
10
574.9999999428934
20
479.53876177139585
30
0
11
564.99999999126135
21
479.53876177139585
31
0
0
LINE
5
397
100
AcDbEntity
8
0
100
AcDbLine
10
564.99999999126135
20
479.53876177139585
30
0
11
564.99999999126135
21
483.64876177139587
31
0
0
LINE
5
398
100
AcDbEntity
8
0
100
AcDbLine
10
564.99999999126135
20
483.64876177139587
30
0
11
574.9999999428934
21
483.64876177139587
31
0
0
LINE
5
399
100
AcDbEntity
8
0
100
AcDbLine
10
549.9999999428934
20
479.53876177139585
30
0
11
539.99999999126135
21
479.53876177139585
31
0
0
LINE
5
400
100
AcDbEntity
8
0
100
AcDbLine
10
539.99999999126135
20
479.53876177139585
30
0
11
539.99999999126135
21
483.64876177139587
31
0
0
LINE
5
401
100
AcDbEntity
8
0
100
AcDbLine
10
539.99999999126135
20
483.64876177139587
30
0
11
549.9999999428934
21
483.64876177139587
31
0
0
LINE
5
402
100
AcDbEntity
8
0
100
AcDbLine
10
524.9999999428934
20
479.53876177139585
30
0
11
514.99999999126135
21
479.53876177139585
31
0
0
LINE
5
403
100
AcDbEntity
8
0
100
AcDbLine
10
514.99999999126135
20
479.53876177139585
30
0
11
514.99999999126135
21
483.64876177139587
31
0
0
LINE
5
404
100
AcDbEntity
8
0
100
AcDbLine
10
514.99999999126135
20
483.64876177139587
30
0
11
524.9999999428934
21
483.64876177139587
31
0
0
LINE
5
405
100
AcDbEntity
8
0
100
AcDbLine
10
499.9999999428934
20
479.53876177139585
30
0
11
489.99999999126135
21
479.53876177139585
31
0
0
LINE
5
406
100
AcDbEntity
8
0
100
AcDbLine
10
489.99999999126135
20
479.53876177139585
30
0
11
489.99999999126135
21
483.64876177139587
31
0
0
LINE
5
407
100
AcDbEntity
8
0
100
AcDbLine
10
489.99999999126135
20
483.64876177139587
30
0
11
499.9999999428934
21
483.64876177139587
31
0
0
LINE
5
408
100
AcDbEntity
8
0
100
AcDbLine
10
474.9999999428934
20
479.53876177139585
30
0
11
464.99999999126135
21
479.53876177139585
31
0
0
LINE
5
409
100
AcDbEntity
8
0
100
AcDbLine
10
464.99999999126135
20
479.53876177139585
30
0
11
464.99999999126135
21
483.64876177139587
31
0
0
LINE
5
410
100
AcDbEntity
8
0
100
AcDbLine
10
464.99999999126135
20
483.64876177139587
30
0
11
474.9999999428934
21
483.64876177139587
31
0
0
LINE
5
411
100
AcDbEntity
8
0
100
AcDbLine
10
449.9999999428934
20
479.53876177139585
30
0
11
439.99999999126135
21
479.53876177139585
31
0
0
LINE
5
412
100
AcDbEntity
8
0
100
AcDbLine
10
439.99999999126135
20
479.53876177139585
30
0
11
439.99999999126135
21
483.64876177139587
31
0
0
LINE
5
413
100
AcDbEntity
8
0
100
AcDbLine
10
439.99999999126135
20
483.64876177139587
30
0
11
449.9999999428934
21
483.64876177139587
31
0
0
LINE
5
414
100
AcDbEntity
8
0
100
AcDbLine
10
424.9999999428934
20
479.53876177139585
30
0
11
414.99999999126135
21
479.53876177139585
31
0
0
LINE
5
415
100
AcDbEntity
8
0
100
AcDbLine
10
414.99999999126135
20
479.53876177139585
30
0
11
414.99999999126135
21
483.64876177139587
31
0
0
LINE
5
416
100
AcDbEntity
8
0
100
AcDbLine
10
414.99999999126135
20
483.64876177139587
30
0
11
424.9999999428934
21
483.64876177139587
31
0
0
LINE
5
417
100
AcDbEntity
8
0
100
AcDbLine
10
399.9999999428934
20
479.53876177139585
30
0
11
389.99999999126135
21
479.53876177139585
31
0
0
LINE
5
418
100
AcDbEntity
8
0
100
AcDbLine
10
389.99999999126135
20
479.53876177139585
30
0
11
389.99999999126135
21
483.64876177139587
31
0
0
LINE
5
419
100
AcDbEntity
8
0
100
AcDbLine
10
389.99999999126135
20
483.64876177139587
30
0
11
399.9999999428934
21
483.64876177139587
31
0
0
LINE
5
420
100
AcDbEntity
8
0
100
AcDbLine
10
374.9999999428934
20
479.53876177139585
30
0
11
364.99999999126135
21
479.53876177139585
31
0
0
LINE
5
421
100
AcDbEntity
8
0
100
AcDbLine
10
364.99999999126135
20
479.53876177139585
30
0
11
364.99999999126135
21
483.64876177139587
31
0
0
LINE
5
422
100
AcDbEntity
8
0
100
AcDbLine
10
364.99999999126135
20
483.64876177139587
30
0
11
374.9999999428934
21
483.64876177139587
31
0
0
LWPOLYLINE
5
423
100
AcDbEntity
8
0
100
AcDbPolyline
90
4
70
1
43
0.0
10
749.99999992454207
20
583.64876177139581
10
739.99999999126135
20
583.64876177139581
10
739.99999999126135
20
587.75876177139583
10
749.99999992454207
20
587.75876177139583
0
LINE
5
424
100
AcDbEntity
8
0
100
AcDbLine
10
724.99999992454207
20
583.64876177139581
30
0
11
714.99999999126135
21
583.64876177139581
31
0
0
LINE
5
425
100
AcDbEntity
8
0
100
AcDbLine
10
714.99999999126135
20
583.64876177139581
30
0
11
714.99999999126135
21
587.75876177139583
31
0
0
LINE
5
426
100
AcDbEntity
8
0
100
AcDbLine
10
714.99999999126135
20
587.75876177139583
30
0
11
724.99999992454207
21
587.75876177139583
31
0
0
LINE
5
427
100
AcDbEntity
8
0
100
AcDbLine
10
699.99999992454207
20
583.64876177139581
30
0
11
689.99999999126135
21
583.64876177139581
31
0
0
LINE
5
428
100
AcDbEntity
8
0
100
AcDbLine
10
689.99999999126135
20
583.64876177139581
30
0
11
689.99999999126135
21
587.75876177139583
31
0
0
LINE
5
429
100
AcDbEntity
8
0
100
AcDbLine
10
689.99999999126135
20
587.75876177139583
30
0
11
699.99999992454207
21
587.75876177139583
31
0
0
LINE
5
430
100
AcDbEntity
8
0
100
AcDbLine
10
349.9999999428934
20
479.53876177139585
30
0
11
339.99999999126135
21
479.53876177139585
31
0
0
LINE
5
431
100
AcDbEntity
8
0
100
AcDbLine
10
339.99999999126135
20
479.53876177139585
30
0
11
339.99999999126135
21
483.64876177139587
31
0
0
LINE
5
432
100
AcDbEntity
8
0
100
AcDbLine
10
339.99999999126135
20
483.64876177139587
30
0
11
349.9999999428934
21
483.64876177139587
31
0
0
LINE
5
433
100
AcDbEntity
8
0
100
AcDbLine
10
324.9999999428934
20
479.53876177139585
30
0
11
314.99999999126135
21
479.53876177139585
31
0
0
LINE
5
434
100
AcDbEntity
8
0
100
AcDbLine
10
314.99999999126135
20
479.53876177139585
30
0
11
314.99999999126135
21
483.64876177139587
31
0
0
LINE
5
435
100
AcDbEntity
8
0
100
AcDbLine
10
314.99999999126135
20
483.64876177139587
30
0
11
324.9999999428934
21
483.64876177139587
31
0
0
ARC
5
436
100
AcDbEntity
8
0
100
AcDbCircle
10
-305.80904833410506
20
-31.227140498544035
30
0
40
1434.4634746904014
210
0
220
0
230
1
100
AcDbArc
50
189.98223578330288
51
260.01992714806852
0
ARC
5
437
100
AcDbEntity
8
0
100
AcDbCircle
10
-305.80904833410506
20
-31.227140498544035
30
0
40
1434.4634746904014
210
0
220
-0
230
1
100
AcDbArc
50
9.9822357833028832
51
80.019927148068518
0
ARC
5
438
100
AcDbEntity
8
0
100
AcDbCircle
10
-305.80904833410506
20
-31.227140498544035
30
0
40
1434.4634746904014
210
0
220
0
230
1
100
AcDbArc
50
99.982235783302897
51
170.01992714806852
0
ENDSEC
0
SECTION
2
OBJECTS
0
DICTIONARY
5
C
100
AcDbDictionary
3
ACAD_GROUP
350
D
3
ACAD_MLINESTYLE
350
17
0
DICTIONARY
5
D
100
AcDbDictionary
0
DICTIONARY
5
1A
330
C
100
AcDbDictionary
0
DICTIONARY
5
17
100
AcDbDictionary
0
ENDSEC
0
EOF
