  0
SECTION
  2
HEADER
  9
$ACADVER
  1
AC1024
  9
$ACADMAINTVER
 70
     6
  9
$DWGCODEPAGE
  3
ANSI_1252
  9
$INSBASE
 10
0.0
 20
0.0
 30
0.0
  9
$EXTMIN
 10
1.000000000000000E+20
 20
1.000000000000000E+20
 30
1.000000000000000E+20
  9
$EXTMAX
 10
-1.000000000000000E+20
 20
-1.000000000000000E+20
 30
-1.000000000000000E+20
  9
$LIMMIN
 10
0.0
 20
0.0
  9
$LIMMAX
 10
12.0
 20
9.0
  9
$ORTHOMODE
 70
     0
  9
$REGENMODE
 70
     1
  9
$FILLMODE
 70
     1
  9
$QTEXTMODE
 70
     0
  9
$MIRRTEXT
 70
     1
  9
$LTSCALE
 40
1.0
  9
$ATTMODE
 70
     1
  9
$TEXTSIZE
 40
0.2
  9
$TRACEWID
 40
0.05
  9
$TEXTSTYLE
  7
Standard
  9
$CLAYER
  8
0
  9
$CELTYPE
  6
ByLayer
  9
$CECOLOR
 62
   256
  9
$CELTSCALE
 40
1.0
  9
$DISPSILH
 70
     0
  9
$DIMSCALE
 40
1.0
  9
$DIMASZ
 40
0.18
  9
$DIMEXO
 40
0.0625
  9
$DIMDLI
 40
0.38
  9
$DIMRND
 40
0.0
  9
$DIMDLE
 40
0.0
  9
$DIMEXE
 40
0.18
  9
$DIMTP
 40
0.0
  9
$DIMTM
 40
0.0
  9
$DIMTXT
 40
0.18
  9
$DIMCEN
 40
0.09
  9
$DIMTSZ
 40
0.0
  9
$DIMTOL
 70
     0
  9
$DIMLIM
 70
     0
  9
$DIMTIH
 70
     1
  9
$DIMTOH
 70
     1
  9
$DIMSE1
 70
     0
  9
$DIMSE2
 70
     0
  9
$DIMTAD
 70
     0
  9
$DIMZIN
 70
     0
  9
$DIMBLK
  1

  9
$DIMASO
 70
     1
  9
$DIMSHO
 70
     1
  9
$DIMPOST
  1

  9
$DIMAPOST
  1

  9
$DIMALT
 70
     0
  9
$DIMALTD
 70
     2
  9
$DIMALTF
 40
25.4
  9
$DIMLFAC
 40
1.0
  9
$DIMTOFL
 70
     0
  9
$DIMTVP
 40
0.0
  9
$DIMTIX
 70
     0
  9
$DIMSOXD
 70
     0
  9
$DIMSAH
 70
     0
  9
$DIMBLK1
  1

  9
$DIMBLK2
  1

  9
$DIMSTYLE
  2
Standard
  9
$DIMCLRD
 70
     0
  9
$DIMCLRE
 70
     0
  9
$DIMCLRT
 70
     0
  9
$DIMTFAC
 40
1.0
  9
$DIMGAP
 40
0.09
  9
$DIMJUST
 70
     0
  9
$DIMSD1
 70
     0
  9
$DIMSD2
 70
     0
  9
$DIMTOLJ
 70
     1
  9
$DIMTZIN
 70
     0
  9
$DIMALTZ
 70
     0
  9
$DIMALTTZ
 70
     0
  9
$DIMUPT
 70
     0
  9
$DIMDEC
 70
     4
  9
$DIMTDEC
 70
     4
  9
$DIMALTU
 70
     2
  9
$DIMALTTD
 70
     2
  9
$DIMTXSTY
  7
Standard
  9
$DIMAUNIT
 70
     0
  9
$DIMADEC
 70
     0
  9
$DIMALTRND
 40
0.0
  9
$DIMAZIN
 70
     0
  9
$DIMDSEP
 70
    46
  9
$DIMATFIT
 70
     3
  9
$DIMFRAC
 70
     0
  9
$DIMLDRBLK
  1

  9
$DIMLUNIT
 70
     2
  9
$DIMLWD
 70
    -2
  9
$DIMLWE
 70
    -2
  9
$DIMTMOVE
 70
     0
  9
$DIMFXL
 40
1.0
  9
$DIMFXLON
 70
     0
  9
$DIMJOGANG
 40
0.7853981633974483
  9
$DIMTFILL
 70
     0
  9
$DIMTFILLCLR
 70
     0
  9
$DIMARCSYM
 70
     0
  9
$DIMLTYPE
  6

  9
$DIMLTEX1
  6

  9
$DIMLTEX2
  6

  9
$DIMTXTDIRECTION
 70
     0
  9
$LUNITS
 70
     2
  9
$LUPREC
 70
     4
  9
$SKETCHINC
 40
0.1
  9
$FILLETRAD
 40
0.5
  9
$AUNITS
 70
     0
  9
$AUPREC
 70
     0
  9
$MENU
  1
.
  9
$ELEVATION
 40
0.0
  9
$PELEVATION
 40
0.0
  9
$THICKNESS
 40
0.0
  9
$LIMCHECK
 70
     0
  9
$CHAMFERA
 40
0.5
  9
$CHAMFERB
 40
0.5
  9
$CHAMFERC
 40
1.0
  9
$CHAMFERD
 40
0.0
  9
$SKPOLY
 70
     0
  9
$TDCREATE
 40
2460056.445569387
  9
$TDUCREATE
 40
2460056.112236053
  9
$TDUPDATE
 40
2460056.44556956
  9
$TDUUPDATE
 40
2460056.112236227
  9
$TDINDWG
 40
0.0000000116
  9
$TDUSRTIMER
 40
0.0000000116
  9
$USRTIMER
 70
     1
  9
$ANGBASE
 50
0.0
  9
$ANGDIR
 70
     0
  9
$PDMODE
 70
     0
  9
$PDSIZE
 40
0.0
  9
$PLINEWID
 40
0.0
  9
$SPLFRAME
 70
     0
  9
$SPLINETYPE
 70
     6
  9
$SPLINESEGS
 70
     8
  9
$HANDSEED
  5
79
  9
$SURFTAB1
 70
     6
  9
$SURFTAB2
 70
     6
  9
$SURFTYPE
 70
     6
  9
$SURFU
 70
     6
  9
$SURFV
 70
     6
  9
$UCSBASE
  2

  9
$UCSNAME
  2

  9
$UCSORG
 10
0.0
 20
0.0
 30
0.0
  9
$UCSXDIR
 10
1.0
 20
0.0
 30
0.0
  9
$UCSYDIR
 10
0.0
 20
1.0
 30
0.0
  9
$UCSORTHOREF
  2

  9
$UCSORTHOVIEW
 70
     0
  9
$UCSORGTOP
 10
0.0
 20
0.0
 30
0.0
  9
$UCSORGBOTTOM
 10
0.0
 20
0.0
 30
0.0
  9
$UCSORGLEFT
 10
0.0
 20
0.0
 30
0.0
  9
$UCSORGRIGHT
 10
0.0
 20
0.0
 30
0.0
  9
$UCSORGFRONT
 10
0.0
 20
0.0
 30
0.0
  9
$UCSORGBACK
 10
0.0
 20
0.0
 30
0.0
  9
$PUCSBASE
  2

  9
$PUCSNAME
  2

  9
$PUCSORG
 10
0.0
 20
0.0
 30
0.0
  9
$PUCSXDIR
 10
1.0
 20
0.0
 30
0.0
  9
$PUCSYDIR
 10
0.0
 20
1.0
 30
0.0
  9
$PUCSORTHOREF
  2

  9
$PUCSORTHOVIEW
 70
     0
  9
$PUCSORGTOP
 10
0.0
 20
0.0
 30
0.0
  9
$PUCSORGBOTTOM
 10
0.0
 20
0.0
 30
0.0
  9
$PUCSORGLEFT
 10
0.0
 20
0.0
 30
0.0
  9
$PUCSORGRIGHT
 10
0.0
 20
0.0
 30
0.0
  9
$PUCSORGFRONT
 10
0.0
 20
0.0
 30
0.0
  9
$PUCSORGBACK
 10
0.0
 20
0.0
 30
0.0
  9
$USERI1
 70
     0
  9
$USERI2
 70
     0
  9
$USERI3
 70
     0
  9
$USERI4
 70
     0
  9
$USERI5
 70
     0
  9
$USERR1
 40
0.0
  9
$USERR2
 40
0.0
  9
$USERR3
 40
0.0
  9
$USERR4
 40
0.0
  9
$USERR5
 40
0.0
  9
$WORLDVIEW
 70
     1
  9
$SHADEDGE
 70
     3
  9
$SHADEDIF
 70
    70
  9
$TILEMODE
 70
     1
  9
$MAXACTVP
 70
    64
  9
$PINSBASE
 10
0.0
 20
0.0
 30
0.0
  9
$PLIMCHECK
 70
     0
  9
$PEXTMIN
 10
1.000000000000000E+20
 20
1.000000000000000E+20
 30
1.000000000000000E+20
  9
$PEXTMAX
 10
-1.000000000000000E+20
 20
-1.000000000000000E+20
 30
-1.000000000000000E+20
  9
$PLIMMIN
 10
0.0
 20
0.0
  9
$PLIMMAX
 10
12.0
 20
9.0
  9
$UNITMODE
 70
     0
  9
$VISRETAIN
 70
     1
  9
$PLINEGEN
 70
     0
  9
$PSLTSCALE
 70
     1
  9
$TREEDEPTH
 70
  3020
  9
$CMLSTYLE
  2
Standard
  9
$CMLJUST
 70
     0
  9
$CMLSCALE
 40
1.0
  9
$PROXYGRAPHICS
 70
     1
  9
$MEASUREMENT
 70
     0
  9
$CELWEIGHT
370
    -1
  9
$ENDCAPS
280
     0
  9
$JOINSTYLE
280
     0
  9
$LWDISPLAY
290
     1
  9
$INSUNITS
 70
     1
  9
$HYPERLINKBASE
  1

  9
$STYLESHEET
  1

  9
$XEDIT
290
     1
  9
$CEPSNTYPE
380
     0
  9
$PSTYLEMODE
290
     1
  9
$FINGERPRINTGUID
  2
{27E6FECB-D1E4-49FB-9747-0D98E948A308}
  9
$VERSIONGUID
  2
{FAEB1C32-E019-11D5-929B-00C0DF256EC4}
  9
$EXTNAMES
290
     1
  9
$PSVPSCALE
 40
0.0
  9
$OLESTARTUP
290
     0
  9
$SORTENTS
280
   127
  9
$INDEXCTL
280
     0
  9
$HIDETEXT
280
     1
  9
$XCLIPFRAME
280
     2
  9
$HALOGAP
280
     0
  9
$OBSCOLOR
 70
   257
  9
$OBSLTYPE
280
     0
  9
$INTERSECTIONDISPLAY
280
     0
  9
$INTERSECTIONCOLOR
 70
   257
  9
$DIMASSOC
280
     2
  9
$PROJECTNAME
  1

  9
$CAMERADISPLAY
290
     0
  9
$LENSLENGTH
 40
50.0
  9
$CAMERAHEIGHT
 40
0.0
  9
$STEPSPERSEC
 40
2.0
  9
$STEPSIZE
 40
6.0
  9
$3DDWFPREC
 40
2.0
  9
$PSOLWIDTH
 40
0.25
  9
$PSOLHEIGHT
 40
4.0
  9
$LOFTANG1
 40
1.570796326794897
  9
$LOFTANG2
 40
1.570796326794897
  9
$LOFTMAG1
 40
0.0
  9
$LOFTMAG2
 40
0.0
  9
$LOFTPARAM
 70
     7
  9
$LOFTNORMALS
280
     1
  9
$LATITUDE
 40
37.795
  9
$LONGITUDE
 40
-122.394
  9
$NORTHDIRECTION
 40
0.0
  9
$TIMEZONE
 70
 -8000
  9
$LIGHTGLYPHDISPLAY
280
     1
  9
$TILEMODELIGHTSYNCH
280
     1
  9
$CMATERIAL
347
3C
  9
$SOLIDHIST
280
     1
  9
$SHOWHIST
280
     1
  9
$DWFFRAME
280
     2
  9
$DGNFRAME
280
     2
  9
$REALWORLDSCALE
290
     1
  9
$INTERFERECOLOR
 62
   256
  9
$CSHADOW
280
     0
  9
$SHADOWPLANELOCATION
 40
0.0
  0
ENDSEC
  0
SECTION
  2
CLASSES
  0
CLASS
  1
ACDBDICTIONARYWDFLT
  2
AcDbDictionaryWithDefault
  3
ObjectDBX Classes
 90
        0
 91
        4
280
     0
281
     0
  0
CLASS
  1
VISUALSTYLE
  2
AcDbVisualStyle
  3
ObjectDBX Classes
 90
     4095
 91
        4
280
     0
281
     0
  0
CLASS
  1
MATERIAL
  2
AcDbMaterial
  3
ObjectDBX Classes
 90
     1153
 91
        4
280
     0
281
     0
  0
CLASS
  1
SUN
  2
AcDbSun
  3
SCENEOE
 90
     1024
 91
        4
280
     0
281
     0
  0
ENDSEC
  0
SECTION
  2
TABLES
  0
TABLE
  2
VPORT
  5
8
330
0
100
AcDbSymbolTable
 70
     1
  0
VPORT
  5
29
330
8
100
AcDbSymbolTableRecord
100
AcDbViewportTableRecord
  2
*Active
 70
     0
 10
0.0
 20
0.0
 11
1.0
 21
1.0
 12
0.0
 22
0.0
 13
0.0
 23
0.0
 14
0.5
 24
0.5
 15
0.5
 25
0.5
 16
0.0
 26
0.0
 36
1.0
 17
104.9999999737534
 27
148.4999999628701
 37
0.0
 40
296.9999999257402
 41
0.7070707070707533
 42
50.0
 43
0.0
 44
0.0
 50
0.0
 51
0.0
 71
     0
 72
   100
 73
     1
 74
     3
 75
     0
 76
     0
 77
     0
 78
     0
281
     0
 65
     1
110
0.0
120
0.0
130
0.0
111
1.0
121
0.0
131
0.0
112
0.0
122
1.0
132
0.0
 79
     0
146
0.0
 60
     3
 61
     5
292
     1
282
     1
141
0.0
142
0.0
 63
   250
361
3F
  0
ENDTAB
  0
TABLE
  2
LTYPE
  5
5
330
0
100
AcDbSymbolTable
 70
     1
  0
LTYPE
  5
14
330
5
100
AcDbSymbolTableRecord
100
AcDbLinetypeTableRecord
  2
ByBlock
 70
     0
  3

 72
    65
 73
     0
 40
0.0
  0
LTYPE
  5
15
330
5
100
AcDbSymbolTableRecord
100
AcDbLinetypeTableRecord
  2
ByLayer
 70
     0
  3

 72
    65
 73
     0
 40
0.0
  0
LTYPE
  5
16
330
5
100
AcDbSymbolTableRecord
100
AcDbLinetypeTableRecord
  2
Continuous
 70
     0
  3
Solid line
 72
    65
 73
     0
 40
0.0
  0
ENDTAB
  0
TABLE
  2
LAYER
  5
2
330
0
100
AcDbSymbolTable
 70
     4
  0
LAYER
  5
10
330
2
100
AcDbSymbolTableRecord
100
AcDbLayerTableRecord
  2
0
 70
     0
 62
     7
  6
Continuous
370
    -3
390
F
347
3E
  0
LAYER
  5
40
330
2
100
AcDbSymbolTableRecord
100
AcDbLayerTableRecord
  2
dog bone slots
 70
     0
 62
     7
  6
Continuous
370
    -3
390
F
347
3E
  0
LAYER
  5
5A
330
2
100
AcDbSymbolTableRecord
100
AcDbLayerTableRecord
  2
frame
 70
     0
 62
     7
  6
Continuous
370
    -3
390
F
347
3E
  0
LAYER
  5
71
330
2
100
AcDbSymbolTableRecord
100
AcDbLayerTableRecord
  2
frame2
 70
     0
 62
     7
  6
Continuous
370
    -3
390
F
347
3E
  0
ENDTAB
  0
TABLE
  2
STYLE
  5
3
330
0
100
AcDbSymbolTable
 70
     1
  0
STYLE
  5
11
330
3
100
AcDbSymbolTableRecord
100
AcDbTextStyleTableRecord
  2
Standard
 70
     0
 40
0.0
 41
1.0
 50
0.0
 71
     0
 42
0.2
  3
txt
  4

  0
ENDTAB
  0
TABLE
  2
VIEW
  5
6
330
0
100
AcDbSymbolTable
 70
     0
  0
ENDTAB
  0
TABLE
  2
UCS
  5
7
330
0
100
AcDbSymbolTable
 70
     0
  0
ENDTAB
  0
TABLE
  2
APPID
  5
9
330
0
100
AcDbSymbolTable
 70
     1
  0
APPID
  5
12
330
9
100
AcDbSymbolTableRecord
100
AcDbRegAppTableRecord
  2
ACAD
 70
     0
  0
ENDTAB
  0
TABLE
  2
DIMSTYLE
  5
A
330
0
100
AcDbSymbolTable
 70
     1
100
AcDbDimStyleTable
  0
DIMSTYLE
105
27
330
A
100
AcDbSymbolTableRecord
100
AcDbDimStyleTableRecord
  2
Standard
 70
     0
178
     0
340
11
  0
ENDTAB
  0
TABLE
  2
BLOCK_RECORD
  5
1
330
0
100
AcDbSymbolTable
 70
     9
  0
BLOCK_RECORD
  5
1F
330
1
100
AcDbSymbolTableRecord
100
AcDbBlockTableRecord
  2
*Model_Space
340
22
 70
     0
280
     1
281
     0
  0
BLOCK_RECORD
  5
1B
330
1
100
AcDbSymbolTableRecord
100
AcDbBlockTableRecord
  2
*Paper_Space
340
1E
 70
     0
280
     1
281
     0
  0
BLOCK_RECORD
  5
23
330
1
100
AcDbSymbolTableRecord
100
AcDbBlockTableRecord
  2
*Paper_Space0
340
26
 70
     0
280
     1
281
     0
  0
BLOCK_RECORD
  5
41
330
1
100
AcDbSymbolTableRecord
100
AcDbBlockTableRecord
  2
block 2
340
0
102
{BLKREFS
331
42
102
}
 70
     0
280
     1
281
     0
  0
BLOCK_RECORD
  5
46
330
1
100
AcDbSymbolTableRecord
100
AcDbBlockTableRecord
  2
block 3
340
0
102
{BLKREFS
331
47
102
}
 70
     0
280
     1
281
     0
  0
BLOCK_RECORD
  5
4B
330
1
100
AcDbSymbolTableRecord
100
AcDbBlockTableRecord
  2
block 4
340
0
102
{BLKREFS
331
4C
102
}
 70
     0
280
     1
281
     0
  0
BLOCK_RECORD
  5
50
330
1
100
AcDbSymbolTableRecord
100
AcDbBlockTableRecord
  2
block 5
340
0
102
{BLKREFS
331
51
102
}
 70
     0
280
     1
281
     0
  0
BLOCK_RECORD
  5
55
330
1
100
AcDbSymbolTableRecord
100
AcDbBlockTableRecord
  2
block 6
340
0
102
{BLKREFS
331
56
102
}
 70
     0
280
     1
281
     0
  0
BLOCK_RECORD
  5
5B
330
1
100
AcDbSymbolTableRecord
100
AcDbBlockTableRecord
  2
block 7
340
0
102
{BLKREFS
331
5C
102
}
 70
     0
280
     1
281
     0
  0
BLOCK_RECORD
  5
66
330
1
100
AcDbSymbolTableRecord
100
AcDbBlockTableRecord
  2
block 8
340
0
102
{BLKREFS
331
67
102
}
 70
     0
280
     1
281
     0
  0
BLOCK_RECORD
  5
72
330
1
100
AcDbSymbolTableRecord
100
AcDbBlockTableRecord
  2
block 9
340
0
102
{BLKREFS
331
73
102
}
 70
     0
280
     1
281
     0
  0
ENDTAB
  0
ENDSEC
  0
SECTION
  2
BLOCKS
  0
BLOCK
  5
20
330
1F
100
AcDbEntity
  8
0
100
AcDbBlockBegin
  2
*Model_Space
 70
     0
 10
0.0
 20
0.0
 30
0.0
  3
*Model_Space
  1

  0
ENDBLK
  5
21
330
1F
100
AcDbEntity
  8
0
100
AcDbBlockEnd
  0
BLOCK
  5
1C
330
1B
100
AcDbEntity
 67
     1
  8
0
100
AcDbBlockBegin
  2
*Paper_Space
 70
     0
 10
0.0
 20
0.0
 30
0.0
  3
*Paper_Space
  1

  0
ENDBLK
  5
1D
330
1B
100
AcDbEntity
 67
     1
  8
0
100
AcDbBlockEnd
  0
BLOCK
  5
24
330
23
100
AcDbEntity
  8
0
100
AcDbBlockBegin
  2
*Paper_Space0
 70
     0
 10
0.0
 20
0.0
 30
0.0
  3
*Paper_Space0
  1

  0
ENDBLK
  5
25
330
23
100
AcDbEntity
  8
0
100
AcDbBlockEnd
  0
BLOCK
  5
43
330
41
100
AcDbEntity
  8
0
100
AcDbBlockBegin
  2
block 2
 70
     0
 10
0.0
 20
0.0
 30
0.0
  3
block 2
  1

  0
SPLINE
  5
45
330
41
100
AcDbEntity
  8
dog bone slots
 62
     8
420
  8421504
370
    18
100
AcDbSpline
210
0.0
220
0.0
230
1.0
 70
    11
 71
     3
 72
   272
 73
   268
 74
     0
 42
0.0000000001
 43
0.0000000001
 12
1.0
 22
0.0
 32
0.0
 13
1.0
 23
0.0
 33
0.0
 40
0.0
 40
0.0
 40
0.0
 40
0.0
 40
1.0
 40
1.0
 40
1.0
 40
2.0
 40
2.0
 40
2.0
 40
3.0
 40
3.0
 40
3.0
 40
4.0
 40
4.0
 40
4.0
 40
5.0
 40
5.0
 40
5.0
 40
6.0
 40
6.0
 40
6.0
 40
7.0
 40
7.0
 40
7.0
 40
8.0
 40
8.0
 40
8.0
 40
9.0
 40
9.0
 40
9.0
 40
10.0
 40
10.0
 40
10.0
 40
11.0
 40
11.0
 40
11.0
 40
12.0
 40
12.0
 40
12.0
 40
13.0
 40
13.0
 40
13.0
 40
14.0
 40
14.0
 40
14.0
 40
15.0
 40
15.0
 40
15.0
 40
16.0
 40
16.0
 40
16.0
 40
17.0
 40
17.0
 40
17.0
 40
18.0
 40
18.0
 40
18.0
 40
19.0
 40
19.0
 40
19.0
 40
20.0
 40
20.0
 40
20.0
 40
21.0
 40
21.0
 40
21.0
 40
22.0
 40
22.0
 40
22.0
 40
23.0
 40
23.0
 40
23.0
 40
24.0
 40
24.0
 40
24.0
 40
25.0
 40
25.0
 40
25.0
 40
26.0
 40
26.0
 40
26.0
 40
27.0
 40
27.0
 40
27.0
 40
28.0
 40
28.0
 40
28.0
 40
29.0
 40
29.0
 40
29.0
 40
30.0
 40
30.0
 40
30.0
 40
31.0
 40
31.0
 40
31.0
 40
32.0
 40
32.0
 40
32.0
 40
33.0
 40
33.0
 40
33.0
 40
34.0
 40
34.0
 40
34.0
 40
35.0
 40
35.0
 40
35.0
 40
36.0
 40
36.0
 40
36.0
 40
37.0
 40
37.0
 40
37.0
 40
38.0
 40
38.0
 40
38.0
 40
39.0
 40
39.0
 40
39.0
 40
40.0
 40
40.0
 40
40.0
 40
41.0
 40
41.0
 40
41.0
 40
42.0
 40
42.0
 40
42.0
 40
43.0
 40
43.0
 40
43.0
 40
44.0
 40
44.0
 40
44.0
 40
45.0
 40
45.0
 40
45.0
 40
46.0
 40
46.0
 40
46.0
 40
47.0
 40
47.0
 40
47.0
 40
48.0
 40
48.0
 40
48.0
 40
49.0
 40
49.0
 40
49.0
 40
50.0
 40
50.0
 40
50.0
 40
51.0
 40
51.0
 40
51.0
 40
52.0
 40
52.0
 40
52.0
 40
53.0
 40
53.0
 40
53.0
 40
54.0
 40
54.0
 40
54.0
 40
55.0
 40
55.0
 40
55.0
 40
56.0
 40
56.0
 40
56.0
 40
57.0
 40
57.0
 40
57.0
 40
58.0
 40
58.0
 40
58.0
 40
59.0
 40
59.0
 40
59.0
 40
60.0
 40
60.0
 40
60.0
 40
61.0
 40
61.0
 40
61.0
 40
62.0
 40
62.0
 40
62.0
 40
63.0
 40
63.0
 40
63.0
 40
64.0
 40
64.0
 40
64.0
 40
65.0
 40
65.0
 40
65.0
 40
66.0
 40
66.0
 40
66.0
 40
67.0
 40
67.0
 40
67.0
 40
68.0
 40
68.0
 40
68.0
 40
69.0
 40
69.0
 40
69.0
 40
70.0
 40
70.0
 40
70.0
 40
71.0
 40
71.0
 40
71.0
 40
72.0
 40
72.0
 40
72.0
 40
73.0
 40
73.0
 40
73.0
 40
74.0
 40
74.0
 40
74.0
 40
75.0
 40
75.0
 40
75.0
 40
76.0
 40
76.0
 40
76.0
 40
77.0
 40
77.0
 40
77.0
 40
78.0
 40
78.0
 40
78.0
 40
79.0
 40
79.0
 40
79.0
 40
80.0
 40
80.0
 40
80.0
 40
81.0
 40
81.0
 40
81.0
 40
82.0
 40
82.0
 40
82.0
 40
83.0
 40
83.0
 40
83.0
 40
84.0
 40
84.0
 40
84.0
 40
85.0
 40
85.0
 40
85.0
 40
86.0
 40
86.0
 40
86.0
 40
87.0
 40
87.0
 40
87.0
 40
88.0
 40
88.0
 40
88.0
 40
89.0
 40
89.0
 40
89.0
 40
89.0
 10
-682.7509994466936
 20
-337.4388473721146
 30
0.0
 10
-682.7509994466936
 20
-337.4388473721146
 30
0.0
 10
-627.1594917597976
 20
-408.6230639366844
 30
0.0
 10
-627.1594917597976
 20
-408.6230639366844
 30
0.0
 10
-627.1594917597976
 20
-408.6230639366844
 30
0.0
 10
-621.3210884433078
 20
-461.1333815778909
 30
0.0
 10
-621.3210884433078
 20
-461.1333815778909
 30
0.0
 10
-621.3210884433078
 20
-461.1333815778909
 30
0.0
 10
-619.8607813718536
 20
-524.0077005455339
 30
0.0
 10
-619.8607813718536
 20
-524.0077005455339
 30
0.0
 10
-619.8607813718536
 20
-524.0077005455339
 30
0.0
 10
-619.1017923868806
 20
-554.9597302958595
 30
0.0
 10
-619.1017923868806
 20
-554.9597302958595
 30
0.0
 10
-619.1017923868806
 20
-554.9597302958595
 30
0.0
 10
-676.5468992518626
 20
-554.9707545988263
 30
0.0
 10
-676.5468992518626
 20
-554.9707545988263
 30
0.0
 10
-676.5468992518626
 20
-554.9707545988263
 30
0.0
 10
-798.8954001978495
 20
-555.012922562076
 30
0.0
 10
-798.8954001978495
 20
-555.012922562076
 30
0.0
 10
-798.8954001978495
 20
-555.012922562076
 30
0.0
 10
-823.1682510768798
 20
-555.031319359786
 30
0.0
 10
-823.1682510768798
 20
-555.031319359786
 30
0.0
 10
-823.1682510768798
 20
-555.031319359786
 30
0.0
 10
-833.1908951173435
 20
-545.031068439977
 30
0.0
 10
-833.1908951173435
 20
-545.031068439977
 30
0.0
 10
-833.1908951173435
 20
-545.031068439977
 30
0.0
 10
-833.1908951173435
 20
-545.0017851283525
 30
0.0
 10
-833.1908951173435
 20
-545.0017851283525
 30
0.0
 10
-833.7955093750048
 20
-544.4527230353895
 30
0.0
 10
-834.1899728080657
 20
-543.6797297358878
 30
0.0
 10
-834.1899728080657
 20
-542.7986465655353
 30
0.0
 10
-834.1899728080657
 20
-541.9179940321169
 30
0.0
 10
-833.7955093750048
 20
-541.1450007326152
 30
0.0
 10
-833.1908951173435
 20
-540.5963692765893
 30
0.0
 10
-833.1908951173435
 20
-540.5963692765893
 30
0.0
 10
-833.1908951173435
 20
-445.1326319358371
 30
0.0
 10
-833.1908951173435
 20
-445.1326319358371
 30
0.0
 10
-833.1908951173435
 20
-445.1326319358371
 30
0.0
 10
-834.2046144638776
 20
-427.3326848374225
 30
0.0
 10
-834.2046144638776
 20
-427.3326848374225
 30
0.0
 10
-834.2046144638776
 20
-427.3326848374225
 30
0.0
 10
-834.2046144638776
 20
-415.5302183418941
 30
0.0
 10
-834.2046144638776
 20
-415.5302183418941
 30
0.0
 10
-834.1994468206508
 20
-415.5302183418941
 30
0.0
 10
-834.1951404512938
 20
-415.5332328004418
 30
0.0
 10
-834.1899728080657
 20
-415.5332328004418
 30
0.0
 10
-832.5328818796605
 20
-415.5332328004418
 30
0.0
 10
-831.1901559142847
 20
-414.1896455611944
 30
0.0
 10
-831.1901559142847
 20
-412.5329852697268
 30
0.0
 10
-831.1901559142847
 20
-410.8763249782554
 30
0.0
 10
-832.5328818796605
 20
-409.5327377390079
 30
0.0
 10
-834.1899728080657
 20
-409.5327377390079
 30
0.0
 10
-834.1951404512938
 20
-409.5327377390079
 30
0.0
 10
-834.1994468206508
 20
-409.5357521975594
 30
0.0
 10
-834.2046144638776
 20
-409.5357521975594
 30
0.0
 10
-834.2046144638776
 20
-409.5357521975594
 30
0.0
 10
-834.2046144638776
 20
-409.5327377390079
 30
0.0
 10
-834.2046144638776
 20
-409.5327377390079
 30
0.0
 10
-834.2046144638776
 20
-409.5327377390079
 30
0.0
 10
-851.9692493335688
 20
-409.5327377390079
 30
0.0
 10
-851.9692493335688
 20
-409.5327377390079
 30
0.0
 10
-853.626340261974
 20
-409.5327377390079
 30
0.0
 10
-854.9690662273507
 20
-410.8763249782554
 30
0.0
 10
-854.9690662273507
 20
-412.5329852697268
 30
0.0
 10
-854.9690662273507
 20
-414.1896455611944
 30
0.0
 10
-853.626340261974
 20
-415.5332328004418
 30
0.0
 10
-851.9692493335688
 20
-415.5332328004418
 30
0.0
 10
-851.9692493335688
 20
-415.5332328004418
 30
0.0
 10
-851.9692493335688
 20
-427.3326848374225
 30
0.0
 10
-851.9692493335688
 20
-427.3326848374225
 30
0.0
 10
-851.9692493335688
 20
-427.3326848374225
 30
0.0
 10
-852.9915814188166
 20
-445.1326319358371
 30
0.0
 10
-852.9915814188166
 20
-445.1326319358371
 30
0.0
 10
-852.9915814188166
 20
-445.1326319358371
 30
0.0
 10
-852.9915814188166
 20
-540.5808663469056
 30
0.0
 10
-852.9915814188166
 20
-540.5808663469056
 30
0.0
 10
-852.3749093269566
 20
-541.130359076803
 30
0.0
 10
-851.9692493335688
 20
-541.9080893825981
 30
0.0
 10
-851.9692493335688
 20
-542.7986465655353
 30
0.0
 10
-851.9692493335688
 20
-543.6896343854066
 30
0.0
 10
-852.3749093269566
 20
-544.4677953281388
 30
0.0
 10
-852.9915814188166
 20
-545.0168574210992
 30
0.0
 10
-852.9915814188166
 20
-545.0168574210992
 30
0.0
 10
-852.9915814188166
 20
-545.031068439977
 30
0.0
 10
-852.9915814188166
 20
-545.031068439977
 30
0.0
 10
-852.9915814188166
 20
-545.031068439977
 30
0.0
 10
-862.9237917027925
 20
-555.031319359786
 30
0.0
 10
-862.9237917027925
 20
-555.031319359786
 30
0.0
 10
-862.9237917027925
 20
-555.031319359786
 30
0.0
 10
-910.7268514502665
 20
-555.0131292627818
 30
0.0
 10
-910.7268514502665
 20
-555.0131292627818
 30
0.0
 10
-910.7268514502665
 20
-555.0131292627818
 30
0.0
 10
-1019.407762881427
 20
-554.9876355513192
 30
0.0
 10
-1019.407762881427
 20
-554.9876355513192
 30
0.0
 10
-1019.407762881427
 20
-554.9876355513192
 30
0.0
 10
-1070.248070485899
 20
-555.031319359786
 30
0.0
 10
-1070.248070485899
 20
-555.031319359786
 30
0.0
 10
-1070.248070485899
 20
-555.031319359786
 30
0.0
 10
-1071.840049108918
 20
-539.3116070426768
 30
0.0
 10
-1071.840049108918
 20
-539.3116070426768
 30
0.0
 10
-1071.840049108918
 20
-539.3116070426768
 30
0.0
 10
-1090.771400010973
 20
-434.7368876940602
 30
0.0
 10
-1090.771400010973
 20
-434.7368876940602
 30
0.0
 10
-1090.771400010973
 20
-434.7368876940602
 30
0.0
 10
-1089.375722925814
 20
-386.3538977973688
 30
0.0
 10
-1089.375722925814
 20
-386.3538977973688
 30
0.0
 10
-1089.375722925814
 20
-386.3538977973688
 30
0.0
 10
-1054.852007654781
 20
-344.4592629352526
 30
0.0
 10
-1054.852007654781
 20
-344.4592629352526
 30
0.0
 10
-1054.852007654781
 20
-344.4592629352526
 30
0.0
 10
-1001.506587968874
 20
-293.8563730683046
 30
0.0
 10
-1001.506587968874
 20
-293.8563730683046
 30
0.0
 10
-1001.506587968874
 20
-293.8563730683046
 30
0.0
 10
-995.3954645631999
 20
-299.9538440699483
 30
0.0
 10
-995.3954645631999
 20
-299.9538440699483
 30
0.0
 10
-995.3954645631999
 20
-299.9538440699483
 30
0.0
 10
-995.3954645631999
 20
-299.983127381573
 30
0.0
 10
-995.3954645631999
 20
-299.983127381573
 30
0.0
 10
-994.7908503055905
 20
-300.532189474586
 30
0.0
 10
-994.3963868725997
 20
-301.3051827741294
 30
0.0
 10
-994.3963868726779
 20
-302.186265944482
 30
0.0
 10
-994.3963868727556
 20
-303.0669184778977
 30
0.0
 10
-994.7908503058837
 20
-303.8399117773596
 30
0.0
 10
-995.3954645635977
 20
-304.3885432333362
 30
0.0
 10
-995.3954645635977
 20
-304.3885432333362
 30
0.0
 10
-995.3954645679186
 20
-379.0695534555808
 30
0.0
 10
-995.3954645679186
 20
-379.0695534555808
 30
0.0
 10
-995.3954645679186
 20
-379.0695534555808
 30
0.0
 10
-994.3817452229868
 20
-396.8695005540872
 30
0.0
 10
-994.3817452229868
 20
-396.8695005540872
 30
0.0
 10
-994.3817452229868
 20
-396.8695005540872
 30
0.0
 10
-994.3817452240446
 20
-408.6719670496187
 30
0.0
 10
-994.3817452240446
 20
-408.6719670496187
 30
0.0
 10
-994.3869128672728
 20
-408.6719670496187
 30
0.0
 10
-994.3912192366288
 20
-408.6689525910679
 30
0.0
 10
-994.3963868798567
 20
-408.6689525910679
 30
0.0
 10
-996.0534778082615
 20
-408.6689525909126
 30
0.0
 10
-997.3962037737579
 20
-410.0125398300432
 30
0.0
 10
-997.3962037739058
 20
-411.6692001215114
 30
0.0
 10
-997.3962037740547
 20
-413.3258604129823
 30
0.0
 10
-996.0534778088017
 20
-414.6694476523464
 30
0.0
 10
-994.3963868803966
 20
-414.6694476525017
 30
0.0
 10
-994.3912192371687
 20
-414.6694476525017
 30
0.0
 10
-994.3869128678115
 20
-414.6664331939534
 30
0.0
 10
-994.381745224585
 20
-414.6664331939534
 30
0.0
 10
-994.381745224585
 20
-414.6664331939534
 30
0.0
 10
-994.381745224585
 20
-414.6694476525017
 30
0.0
 10
-994.381745224585
 20
-414.6694476525017
 30
0.0
 10
-994.381745224585
 20
-414.6694476525017
 30
0.0
 10
-976.6171103548935
 20
-414.6694476540925
 30
0.0
 10
-976.6171103548935
 20
-414.6694476540925
 30
0.0
 10
-974.9600194264887
 20
-414.6694476542478
 30
0.0
 10
-973.6172934609887
 20
-413.3258604151133
 30
0.0
 10
-973.6172934608408
 20
-411.6692001236419
 30
0.0
 10
-973.6172934606925
 20
-410.0125398321743
 30
0.0
 10
-974.9600194259486
 20
-408.6689525928139
 30
0.0
 10
-976.6171103543538
 20
-408.6689525926586
 30
0.0
 10
-976.6171103543538
 20
-408.6689525926586
 30
0.0
 10
-976.6171103532956
 20
-396.8695005556779
 30
0.0
 10
-976.6171103532956
 20
-396.8695005556779
 30
0.0
 10
-976.6171103532956
 20
-396.8695005556779
 30
0.0
 10
-975.5947782664458
 20
-379.0695534573621
 30
0.0
 10
-975.5947782664458
 20
-379.0695534573621
 30
0.0
 10
-975.5947782664458
 20
-379.0695534573621
 30
0.0
 10
-975.5947782621246
 20
-278.4931531688915
 30
0.0
 10
-975.5947782621246
 20
-278.4931531688915
 30
0.0
 10
-976.2114503539387
 20
-277.9436604389376
 30
0.0
 10
-976.6171103472515
 20
-277.1659301331001
 30
0.0
 10
-976.6171103471748
 20
-276.275372950163
 30
0.0
 10
-976.6171103470965
 20
-275.3843851302884
 30
0.0
 10
-976.2114503536387
 20
-274.6062241876019
 30
0.0
 10
-975.5947782617254
 20
-274.0571620946947
 30
0.0
 10
-975.5947782617254
 20
-274.0571620946947
 30
0.0
 10
-975.5947782617254
 20
-274.04295107582
 30
0.0
 10
-975.5947782617254
 20
-274.04295107582
 30
0.0
 10
-975.5947782617254
 20
-274.04295107582
 30
0.0
 10
-965.6625679768508
 20
-264.0427001568966
 30
0.0
 10
-965.6625679768508
 20
-264.0427001568966
 30
0.0
 10
-965.6625679768508
 20
-264.0427001568966
 30
0.0
 10
-941.4462855654447
 20
-256.2570670531056
 30
0.0
 10
-941.4462855654447
 20
-256.2570670531056
 30
0.0
 10
-941.4462855654447
 20
-256.2570670531056
 30
0.0
 10
-916.5937112449013
 20
-267.0064884382554
 30
0.0
 10
-916.5937112449013
 20
-267.0064884382554
 30
0.0
 10
-916.5937112449013
 20
-267.0064884382554
 30
0.0
 10
-895.1652173266766
 20
-267.5804757980159
 30
0.0
 10
-895.1652173266766
 20
-267.5804757980159
 30
0.0
 10
-895.1652173266766
 20
-267.5804757980159
 30
0.0
 10
-848.1017679026359
 20
-266.7745301623095
 30
0.0
 10
-848.1017679026359
 20
-266.7745301623095
 30
0.0
 10
-848.1017679026359
 20
-266.7745301623095
 30
0.0
 10
-837.9897925362297
 20
-266.6013452127174
 30
0.0
 10
-837.9897925362297
 20
-266.6013452127174
 30
0.0
 10
-837.9897925362297
 20
-266.6013452127174
 30
0.0
 10
-805.2278301962948
 20
-266.0403114144158
 30
0.0
 10
-805.2278301962948
 20
-266.0403114144158
 30
0.0
 10
-805.2278301962948
 20
-266.0403114144158
 30
0.0
 10
-749.0038718778915
 20
-285.7256214706177
 30
0.0
 10
-749.0038718778915
 20
-285.7256214706177
 30
0.0
 10
-749.0038718778915
 20
-285.7256214706177
 30
0.0
 10
-716.7968971964495
 20
-302.8168763378546
 30
0.0
 10
-716.7968971964495
 20
-302.8168763378546
 30
0.0
 10
-716.7968971964495
 20
-302.8168763378546
 30
0.0
 10
-706.7742531568855
 20
-312.8171272585633
 30
0.0
 10
-706.7742531568855
 20
-312.8171272585633
 30
0.0
 10
-706.7742531568855
 20
-312.8171272585633
 30
0.0
 10
-706.7742531568855
 20
-312.8464105701879
 30
0.0
 10
-706.7742531568855
 20
-312.8464105701879
 30
0.0
 10
-706.1696388992735
 20
-313.3954726632041
 30
0.0
 10
-705.7751754662836
 20
-314.1684659627443
 30
0.0
 10
-705.7751754663603
 20
-315.0495491330969
 30
0.0
 10
-705.7751754664387
 20
-315.930201666512
 30
0.0
 10
-706.1696388995706
 20
-316.7031949659816
 30
0.0
 10
-706.7742531572817
 20
-317.2518264219511
 30
0.0
 10
-706.7742531572817
 20
-317.2518264219511
 30
0.0
 10
-706.7742531616026
 20
-398.5286585526489
 30
0.0
 10
-706.7742531616026
 20
-398.5286585526489
 30
0.0
 10
-706.7742531616026
 20
-398.5286585526489
 30
0.0
 10
-705.7605338166653
 20
-416.328605651152
 30
0.0
 10
-705.7605338166653
 20
-416.328605651152
 30
0.0
 10
-705.7605338166653
 20
-416.328605651152
 30
0.0
 10
-705.7605338177277
 20
-428.1310721466804
 30
0.0
 10
-705.7605338177277
 20
-428.1310721466804
 30
0.0
 10
-705.7657014609558
 20
-428.1310721466804
 30
0.0
 10
-705.7700078303127
 20
-428.1280576881327
 30
0.0
 10
-705.7751754735397
 20
-428.1280576881327
 30
0.0
 10
-707.4322664019445
 20
-428.1280576879877
 30
0.0
 10
-708.7749923674415
 20
-429.4716449271119
 30
0.0
 10
-708.7749923675898
 20
-431.1283052185796
 30
0.0
 10
-708.7749923677375
 20
-432.784965510051
 30
0.0
 10
-707.4322664024816
 20
-434.1285527494216
 30
0.0
 10
-705.7751754740767
 20
-434.1285527495667
 30
0.0
 10
-705.7700078308486
 20
-434.1285527495667
 30
0.0
 10
-705.7657014614916
 20
-434.1255382910151
 30
0.0
 10
-705.7605338182648
 20
-434.1255382910151
 30
0.0
 10
-705.7605338182648
 20
-434.1255382910151
 30
0.0
 10
-705.7605338182648
 20
-434.1285527495667
 30
0.0
 10
-705.7605338182648
 20
-434.1285527495667
 30
0.0
 10
-705.7605338182648
 20
-434.1285527495667
 30
0.0
 10
-687.9958989485737
 20
-434.1285527511677
 30
0.0
 10
-687.9958989485737
 20
-434.1285527511677
 30
0.0
 10
-686.3388080201685
 20
-434.1285527513089
 30
0.0
 10
-684.9960820546718
 20
-432.7849655121853
 30
0.0
 10
-684.9960820545235
 20
-431.1283052207177
 30
0.0
 10
-684.9960820543756
 20
-429.4716449292462
 30
0.0
 10
-686.3388080196314
 20
-428.1280576898749
 30
0.0
 10
-687.9958989480366
 20
-428.1280576897338
 30
0.0
 10
-687.9958989480366
 20
-428.1280576897338
 30
0.0
 10
-687.9958989469745
 20
-416.3286056527531
 30
0.0
 10
-687.9958989469745
 20
-416.3286056527531
 30
0.0
 10
-687.9958989469745
 20
-416.3286056527531
 30
0.0
 10
-686.9735668601298
 20
-398.5286585544232
 30
0.0
 10
-686.9735668601298
 20
-398.5286585544232
 30
0.0
 10
-686.9735668601298
 20
-398.5286585544232
 30
0.0
 10
-686.9735668558079
 20
-346.9861593624307
 30
0.0
 10
-686.9735668558079
 20
-346.9861593624307
 30
0.0
 10
-687.5902389476217
 20
-346.4366666324808
 30
0.0
 10
-687.9958989409355
 20
-345.6589363266503
 30
0.0
 10
-687.9958989408578
 20
-344.7683791437132
 30
0.0
 10
-687.9958989407805
 20
-343.8773913238424
 30
0.0
 10
-687.5902389473185
 20
-343.0992303811449
 30
0.0
 10
-686.9735668554126
 20
-342.5501682882346
 30
0.0
 10
-686.9735668554126
 20
-342.5501682882346
 30
0.0
 10
-686.9735668554126
 20
-342.5359572693592
 30
0.0
 10
-686.9735668554126
 20
-342.5359572693592
 30
0.0
 10
-686.9735668554126
 20
-342.5359572693592
 30
0.0
 10
-682.7509994466936
 20
-337.4388473721146
 30
0.0
 10
-682.7509994466936
 20
-337.4388473721146
 30
0.0
  0
ENDBLK
  5
44
330
41
100
AcDbEntity
  8
0
100
AcDbBlockEnd
  0
BLOCK
  5
48
330
46
100
AcDbEntity
  8
0
100
AcDbBlockBegin
  2
block 3
 70
     0
 10
0.0
 20
0.0
 30
0.0
  3
block 3
  1

  0
SPLINE
  5
4A
330
46
100
AcDbEntity
  8
dog bone slots
 62
     8
420
  8421504
370
    18
100
AcDbSpline
210
0.0
220
0.0
230
1.0
 70
    11
 71
     3
 72
   431
 73
   427
 74
     0
 42
0.0000000001
 43
0.0000000001
 12
1.0
 22
0.0
 32
0.0
 13
1.0
 23
0.0
 33
0.0
 40
0.0
 40
0.0
 40
0.0
 40
0.0
 40
1.0
 40
1.0
 40
1.0
 40
2.0
 40
2.0
 40
2.0
 40
3.0
 40
3.0
 40
3.0
 40
4.0
 40
4.0
 40
4.0
 40
5.0
 40
5.0
 40
5.0
 40
6.0
 40
6.0
 40
6.0
 40
7.0
 40
7.0
 40
7.0
 40
8.0
 40
8.0
 40
8.0
 40
9.0
 40
9.0
 40
9.0
 40
10.0
 40
10.0
 40
10.0
 40
11.0
 40
11.0
 40
11.0
 40
12.0
 40
12.0
 40
12.0
 40
13.0
 40
13.0
 40
13.0
 40
14.0
 40
14.0
 40
14.0
 40
15.0
 40
15.0
 40
15.0
 40
16.0
 40
16.0
 40
16.0
 40
17.0
 40
17.0
 40
17.0
 40
18.0
 40
18.0
 40
18.0
 40
19.0
 40
19.0
 40
19.0
 40
20.0
 40
20.0
 40
20.0
 40
21.0
 40
21.0
 40
21.0
 40
22.0
 40
22.0
 40
22.0
 40
23.0
 40
23.0
 40
23.0
 40
24.0
 40
24.0
 40
24.0
 40
25.0
 40
25.0
 40
25.0
 40
26.0
 40
26.0
 40
26.0
 40
27.0
 40
27.0
 40
27.0
 40
28.0
 40
28.0
 40
28.0
 40
29.0
 40
29.0
 40
29.0
 40
30.0
 40
30.0
 40
30.0
 40
31.0
 40
31.0
 40
31.0
 40
32.0
 40
32.0
 40
32.0
 40
33.0
 40
33.0
 40
33.0
 40
34.0
 40
34.0
 40
34.0
 40
35.0
 40
35.0
 40
35.0
 40
36.0
 40
36.0
 40
36.0
 40
37.0
 40
37.0
 40
37.0
 40
38.0
 40
38.0
 40
38.0
 40
39.0
 40
39.0
 40
39.0
 40
40.0
 40
40.0
 40
40.0
 40
41.0
 40
41.0
 40
41.0
 40
42.0
 40
42.0
 40
42.0
 40
43.0
 40
43.0
 40
43.0
 40
44.0
 40
44.0
 40
44.0
 40
45.0
 40
45.0
 40
45.0
 40
46.0
 40
46.0
 40
46.0
 40
47.0
 40
47.0
 40
47.0
 40
48.0
 40
48.0
 40
48.0
 40
49.0
 40
49.0
 40
49.0
 40
50.0
 40
50.0
 40
50.0
 40
51.0
 40
51.0
 40
51.0
 40
52.0
 40
52.0
 40
52.0
 40
53.0
 40
53.0
 40
53.0
 40
54.0
 40
54.0
 40
54.0
 40
55.0
 40
55.0
 40
55.0
 40
56.0
 40
56.0
 40
56.0
 40
57.0
 40
57.0
 40
57.0
 40
58.0
 40
58.0
 40
58.0
 40
59.0
 40
59.0
 40
59.0
 40
60.0
 40
60.0
 40
60.0
 40
61.0
 40
61.0
 40
61.0
 40
62.0
 40
62.0
 40
62.0
 40
63.0
 40
63.0
 40
63.0
 40
64.0
 40
64.0
 40
64.0
 40
65.0
 40
65.0
 40
65.0
 40
66.0
 40
66.0
 40
66.0
 40
67.0
 40
67.0
 40
67.0
 40
68.0
 40
68.0
 40
68.0
 40
69.0
 40
69.0
 40
69.0
 40
70.0
 40
70.0
 40
70.0
 40
71.0
 40
71.0
 40
71.0
 40
72.0
 40
72.0
 40
72.0
 40
73.0
 40
73.0
 40
73.0
 40
74.0
 40
74.0
 40
74.0
 40
75.0
 40
75.0
 40
75.0
 40
76.0
 40
76.0
 40
76.0
 40
77.0
 40
77.0
 40
77.0
 40
78.0
 40
78.0
 40
78.0
 40
79.0
 40
79.0
 40
79.0
 40
80.0
 40
80.0
 40
80.0
 40
81.0
 40
81.0
 40
81.0
 40
82.0
 40
82.0
 40
82.0
 40
83.0
 40
83.0
 40
83.0
 40
84.0
 40
84.0
 40
84.0
 40
85.0
 40
85.0
 40
85.0
 40
86.0
 40
86.0
 40
86.0
 40
87.0
 40
87.0
 40
87.0
 40
88.0
 40
88.0
 40
88.0
 40
89.0
 40
89.0
 40
89.0
 40
90.0
 40
90.0
 40
90.0
 40
91.0
 40
91.0
 40
91.0
 40
92.0
 40
92.0
 40
92.0
 40
93.0
 40
93.0
 40
93.0
 40
94.0
 40
94.0
 40
94.0
 40
95.0
 40
95.0
 40
95.0
 40
96.0
 40
96.0
 40
96.0
 40
97.0
 40
97.0
 40
97.0
 40
98.0
 40
98.0
 40
98.0
 40
99.0
 40
99.0
 40
99.0
 40
100.0
 40
100.0
 40
100.0
 40
101.0
 40
101.0
 40
101.0
 40
102.0
 40
102.0
 40
102.0
 40
103.0
 40
103.0
 40
103.0
 40
104.0
 40
104.0
 40
104.0
 40
105.0
 40
105.0
 40
105.0
 40
106.0
 40
106.0
 40
106.0
 40
107.0
 40
107.0
 40
107.0
 40
108.0
 40
108.0
 40
108.0
 40
109.0
 40
109.0
 40
109.0
 40
110.0
 40
110.0
 40
110.0
 40
111.0
 40
111.0
 40
111.0
 40
112.0
 40
112.0
 40
112.0
 40
113.0
 40
113.0
 40
113.0
 40
114.0
 40
114.0
 40
114.0
 40
115.0
 40
115.0
 40
115.0
 40
116.0
 40
116.0
 40
116.0
 40
117.0
 40
117.0
 40
117.0
 40
118.0
 40
118.0
 40
118.0
 40
119.0
 40
119.0
 40
119.0
 40
120.0
 40
120.0
 40
120.0
 40
121.0
 40
121.0
 40
121.0
 40
122.0
 40
122.0
 40
122.0
 40
123.0
 40
123.0
 40
123.0
 40
124.0
 40
124.0
 40
124.0
 40
125.0
 40
125.0
 40
125.0
 40
126.0
 40
126.0
 40
126.0
 40
127.0
 40
127.0
 40
127.0
 40
128.0
 40
128.0
 40
128.0
 40
129.0
 40
129.0
 40
129.0
 40
130.0
 40
130.0
 40
130.0
 40
131.0
 40
131.0
 40
131.0
 40
132.0
 40
132.0
 40
132.0
 40
133.0
 40
133.0
 40
133.0
 40
134.0
 40
134.0
 40
134.0
 40
135.0
 40
135.0
 40
135.0
 40
136.0
 40
136.0
 40
136.0
 40
137.0
 40
137.0
 40
137.0
 40
138.0
 40
138.0
 40
138.0
 40
139.0
 40
139.0
 40
139.0
 40
140.0
 40
140.0
 40
140.0
 40
141.0
 40
141.0
 40
141.0
 40
142.0
 40
142.0
 40
142.0
 40
142.0
 10
-769.2946107371016
 20
67.01074420253005
 30
0.0
 10
-769.2946107371016
 20
67.01074420253005
 30
0.0
 10
-762.8523124441167
 20
66.59963282671218
 30
0.0
 10
-762.8523124441167
 20
66.59963282671218
 30
0.0
 10
-762.8523124441167
 20
66.59963282671218
 30
0.0
 10
-680.0061411969104
 20
86.47362114598063
 30
0.0
 10
-680.0061411969104
 20
86.47362114598063
 30
0.0
 10
-680.0061411969104
 20
86.47362114598063
 30
0.0
 10
-590.4030599705926
 20
117.3397980236418
 30
0.0
 10
-590.4030599705926
 20
117.3397980236418
 30
0.0
 10
-590.4030599705926
 20
117.3397980236418
 30
0.0
 10
-533.9760692540597
 20
119.6030430990412
 30
0.0
 10
-533.9760692540597
 20
119.6030430990412
 30
0.0
 10
-533.9760692540597
 20
119.6030430990412
 30
0.0
 10
-482.8893915723727
 20
112.9171211244277
 30
0.0
 10
-482.8893915723727
 20
112.9171211244277
 30
0.0
 10
-482.8893915723727
 20
112.9171211244277
 30
0.0
 10
-345.4202472554396
 20
80.39578065420334
 30
0.0
 10
-345.4202472554396
 20
80.39578065420334
 30
0.0
 10
-345.4202472554396
 20
80.39578065420334
 30
0.0
 10
-322.3182662603506
 20
63.14977615960544
 30
0.0
 10
-322.3182662603506
 20
63.14977615960544
 30
0.0
 10
-322.3182662603506
 20
63.14977615960544
 30
0.0
 10
-328.1920978162365
 20
54.74107779412639
 30
0.0
 10
-328.1920978162365
 20
54.74107779412639
 30
0.0
 10
-328.1920978162365
 20
54.74107779412639
 30
0.0
 10
-328.2209362485575
 20
54.73599280043086
 30
0.0
 10
-328.2209362485575
 20
54.73599280043086
 30
0.0
 10
-328.6566666905956
 20
54.04522036005988
 30
0.0
 10
-329.3494186286924
 20
53.52252083512786
 30
0.0
 10
-330.2171161659127
 20
53.36952234826795
 30
0.0
 10
-331.0843896085295
 20
53.21659864072753
 30
0.0
 10
-331.9141372592158
 20
53.47084041011042
 30
0.0
 10
-332.5594239346539
 20
53.97100036612615
 30
0.0
 10
-332.5594239346539
 20
53.97100036612615
 30
0.0
 10
-647.0667565493928
 20
-1.485128013052492
 30
0.0
 10
-647.0667565493928
 20
-1.485128013052492
 30
0.0
 10
-647.0667565493928
 20
-1.485128013052492
 30
0.0
 10
-664.4202519381373
 20
-5.574375060243382
 30
0.0
 10
-664.4202519381373
 20
-5.574375060243382
 30
0.0
 10
-664.4202519381373
 20
-5.574375060243382
 30
0.0
 10
-676.0434124477016
 20
-7.62385185858729
 30
0.0
 10
-676.0434124477016
 20
-7.62385185858729
 30
0.0
 10
-676.0443097995276
 20
-7.618762723467548
 30
0.0
 10
-676.0420889305757
 20
-7.613998322300249
 30
0.0
 10
-676.0429862824059
 20
-7.608909187187566
 30
0.0
 10
-676.3307371022676
 20
-5.976993193433101
 30
0.0
 10
-677.8870741492678
 20
-4.887977728124394
 30
0.0
 10
-679.5185660484266
 20
-5.175653768664996
 30
0.0
 10
-681.1500579475846
 20
-5.463329809215865
 30
0.0
 10
-682.2400711607316
 20
-7.018968225660448
 30
0.0
 10
-681.9523203408625
 20
-8.650884219414271
 30
0.0
 10
-681.951422989033
 20
-8.655973354526955
 30
0.0
 10
-681.9477065336887
 20
-8.659690845221185
 30
0.0
 10
-681.9468091818617
 20
-8.664779980333225
 30
0.0
 10
-681.9468091818617
 20
-8.664779980333225
 30
0.0
 10
-681.9497778440154
 20
-8.665303435576819
 30
0.0
 10
-681.9497778440154
 20
-8.665303435576819
 30
0.0
 10
-681.9497778440154
 20
-8.665303435576819
 30
0.0
 10
-678.8649813728508
 20
-26.16005358483331
 30
0.0
 10
-678.8649813728508
 20
-26.16005358483331
 30
0.0
 10
-678.5772305529886
 20
-27.79196957859099
 30
0.0
 10
-677.0208935059885
 20
-28.8809850439029
 30
0.0
 10
-675.3894016068298
 20
-28.59330900336294
 30
0.0
 10
-673.7579097076679
 20
-28.30563296280886
 30
0.0
 10
-672.6678964945178
 20
-26.74999454636428
 30
0.0
 10
-672.9556473143865
 20
-25.11807855261688
 30
0.0
 10
-672.9556473143865
 20
-25.11807855261688
 30
0.0
 10
-661.3354554669728
 20
-23.06912520950308
 30
0.0
 10
-661.3354554669728
 20
-23.06912520950308
 30
0.0
 10
-661.3354554669728
 20
-23.06912520950308
 30
0.0
 10
-643.6284034575655
 20
-20.98499739787772
 30
0.0
 10
-643.6284034575655
 20
-20.98499739787772
 30
0.0
 10
-643.6284034575655
 20
-20.98499739787772
 30
0.0
 10
-472.1918624146246
 20
9.243890269991176
 30
0.0
 10
-472.1918624146246
 20
9.243890269991176
 30
0.0
 10
-471.7578016989447
 20
9.946612138279848
 30
0.0
 10
-471.0623289826177
 20
10.48116069514076
 30
0.0
 10
-470.1853013643578
 20
10.63580432702337
 30
0.0
 10
-469.3078496514985
 20
10.79052273823189
 30
0.0
 10
-468.4710686034136
 20
10.52615186125012
 30
0.0
 10
-467.8232640124266
 20
10.01419203595057
 30
0.0
 10
-467.8232640124266
 20
10.01419203595057
 30
0.0
 10
-467.8092688908595
 20
10.01665975348012
 30
0.0
 10
-467.8092688908595
 20
10.01665975348012
 30
0.0
 10
-467.8092688908595
 20
10.01665975348012
 30
0.0
 10
-456.2362340373607
 20
1.971867409140789
 30
0.0
 10
-456.2362340373607
 20
1.971867409140789
 30
0.0
 10
-456.2362340373607
 20
1.971867409140789
 30
0.0
 10
-424.0041759052555
 20
-180.8252178416625
 30
0.0
 10
-424.0041759052555
 20
-180.8252178416625
 30
0.0
 10
-424.0041759052555
 20
-180.8252178416625
 30
0.0
 10
-432.1120866706916
 20
-192.4321207464265
 30
0.0
 10
-432.1120866706916
 20
-192.4321207464265
 30
0.0
 10
-432.1120866706916
 20
-192.4321207464265
 30
0.0
 10
-432.1409251030096
 20
-192.4372057401285
 30
0.0
 10
-432.1409251030096
 20
-192.4372057401285
 30
0.0
 10
-432.5766555450517
 20
-193.1279781804988
 30
0.0
 10
-433.2694074831407
 20
-193.6506777054308
 30
0.0
 10
-434.1371050203678
 20
-193.8036761922965
 30
0.0
 10
-435.0043784629888
 20
-193.956599899837
 30
0.0
 10
-435.8341261136606
 20
-193.7023581304483
 30
0.0
 10
-436.4794127891086
 20
-193.2021981744319
 30
0.0
 10
-436.4794127891086
 20
-193.2021981744319
 30
0.0
 10
-506.2100635894717
 20
-205.4975932913744
 30
0.0
 10
-506.2100635894717
 20
-205.4975932913744
 30
0.0
 10
-506.2100635894717
 20
-205.4975932913744
 30
0.0
 10
-523.5635589782127
 20
-209.5868403385653
 30
0.0
 10
-523.5635589782127
 20
-209.5868403385653
 30
0.0
 10
-523.5635589782127
 20
-209.5868403385653
 30
0.0
 10
-535.1867194877836
 20
-211.6363171369054
 30
0.0
 10
-535.1867194877836
 20
-211.6363171369054
 30
0.0
 10
-535.1876168396064
 20
-211.6312280017927
 30
0.0
 10
-535.1853959706507
 20
-211.6264636006254
 30
0.0
 10
-535.1862933224807
 20
-211.6213744655095
 30
0.0
 10
-535.4740441423497
 20
-209.989458471755
 30
0.0
 10
-537.0303811893394
 20
-208.9004430064431
 30
0.0
 10
-538.6618730884987
 20
-209.1881190469831
 30
0.0
 10
-540.2933649876635
 20
-209.475795087534
 30
0.0
 10
-541.3833782008147
 20
-211.0314335039817
 30
0.0
 10
-541.0956273809456
 20
-212.6633494977362
 30
0.0
 10
-541.0947300291086
 20
-212.668438632845
 30
0.0
 10
-541.0910135737746
 20
-212.6721561235463
 30
0.0
 10
-541.0901162219444
 20
-212.6772452586584
 30
0.0
 10
-541.0901162219444
 20
-212.6772452586584
 30
0.0
 10
-541.0930848840904
 20
-212.6777687138955
 30
0.0
 10
-541.0930848840904
 20
-212.6777687138955
 30
0.0
 10
-541.0930848840904
 20
-212.6777687138955
 30
0.0
 10
-538.0082884129228
 20
-230.1725188631514
 30
0.0
 10
-538.0082884129228
 20
-230.1725188631514
 30
0.0
 10
-537.7205375930607
 20
-231.8044348569091
 30
0.0
 10
-536.1642005460598
 20
-232.8934503222249
 30
0.0
 10
-534.5327086469046
 20
-232.605774281681
 30
0.0
 10
-532.9012167477468
 20
-232.318098241134
 30
0.0
 10
-531.8112035345996
 20
-230.7624598246894
 30
0.0
 10
-532.0989543544648
 20
-229.1305438309279
 30
0.0
 10
-532.0989543544648
 20
-229.1305438309279
 30
0.0
 10
-520.4787625070517
 20
-227.0815904878212
 30
0.0
 10
-520.4787625070517
 20
-227.0815904878212
 30
0.0
 10
-520.4787625070517
 20
-227.0815904878212
 30
0.0
 10
-502.7717104976367
 20
-224.9974626761997
 30
0.0
 10
-502.7717104976367
 20
-224.9974626761997
 30
0.0
 10
-502.7717104976367
 20
-224.9974626761997
 30
0.0
 10
-433.0563271026286
 20
-212.7047596147478
 30
0.0
 10
-433.0563271026286
 20
-212.7047596147478
 30
0.0
 10
-432.6222663869376
 20
-212.0020377464514
 30
0.0
 10
-431.9267936706106
 20
-211.4674891895943
 30
0.0
 10
-431.0497660523516
 20
-211.312845557704
 30
0.0
 10
-430.1723143394885
 20
-211.1581271465
 30
0.0
 10
-429.3355332914117
 20
-211.4224980234882
 30
0.0
 10
-428.6877287004275
 20
-211.9344578487845
 30
0.0
 10
-428.6877287004275
 20
-211.9344578487845
 30
0.0
 10
-428.6737335788566
 20
-211.931990131255
 30
0.0
 10
-428.6737335788566
 20
-211.931990131255
 30
0.0
 10
-428.6737335788566
 20
-211.931990131255
 30
0.0
 10
-417.1006987253478
 20
-219.9767824756046
 30
0.0
 10
-417.1006987253478
 20
-219.9767824756046
 30
0.0
 10
-417.1006987253478
 20
-219.9767824756046
 30
0.0
 10
-382.6130809561116
 20
-415.5657820660017
 30
0.0
 10
-382.6130809561116
 20
-415.5657820660017
 30
0.0
 10
-382.6130809561116
 20
-415.5657820660017
 30
0.0
 10
-390.7209917215547
 20
-427.1726849707516
 30
0.0
 10
-390.7209917215547
 20
-427.1726849707516
 30
0.0
 10
-390.7209917215547
 20
-427.1726849707516
 30
0.0
 10
-390.7498301538728
 20
-427.1777699644504
 30
0.0
 10
-390.7498301538728
 20
-427.1777699644504
 30
0.0
 10
-391.1855605959148
 20
-427.868542404831
 30
0.0
 10
-391.8783125340006
 20
-428.391241929763
 30
0.0
 10
-392.7460100712238
 20
-428.5442404166107
 30
0.0
 10
-393.6132835138516
 20
-428.6971641241653
 30
0.0
 10
-394.4430311645266
 20
-428.4429223547702
 30
0.0
 10
-395.0883178399727
 20
-427.9427623987532
 30
0.0
 10
-395.0883178399727
 20
-427.9427623987532
 30
0.0
 10
-450.3907617373955
 20
-437.6940753548869
 30
0.0
 10
-450.3907617373955
 20
-437.6940753548869
 30
0.0
 10
-450.3907617373955
 20
-437.6940753548869
 30
0.0
 10
-467.7442571261407
 20
-441.7833224020644
 30
0.0
 10
-467.7442571261407
 20
-441.7833224020644
 30
0.0
 10
-467.7442571261407
 20
-441.7833224020644
 30
0.0
 10
-479.3674176356976
 20
-443.8327992004147
 30
0.0
 10
-479.3674176356976
 20
-443.8327992004147
 30
0.0
 10
-479.3683149875275
 20
-443.8277100652955
 30
0.0
 10
-479.3660941185746
 20
-443.8229456641347
 30
0.0
 10
-479.3669914704047
 20
-443.8178565290156
 30
0.0
 10
-479.6547422902735
 20
-442.1859405352682
 30
0.0
 10
-481.2110793372677
 20
-441.0969250699454
 30
0.0
 10
-482.8425712364226
 20
-441.3846011104924
 30
0.0
 10
-484.4740631355877
 20
-441.6722771510259
 30
0.0
 10
-485.5640763487276
 20
-443.2279155674879
 30
0.0
 10
-485.2763255288588
 20
-444.8598315612352
 30
0.0
 10
-485.2754281770357
 20
-444.8649206963582
 30
0.0
 10
-485.2717117216946
 20
-444.8686381870563
 30
0.0
 10
-485.2708143698648
 20
-444.8737273221645
 30
0.0
 10
-485.2708143698648
 20
-444.8737273221645
 30
0.0
 10
-485.2737830320117
 20
-444.8742507774048
 30
0.0
 10
-485.2737830320117
 20
-444.8742507774048
 30
0.0
 10
-485.2737830320117
 20
-444.8742507774048
 30
0.0
 10
-482.1889865608536
 20
-462.3690009266607
 30
0.0
 10
-482.1889865608536
 20
-462.3690009266607
 30
0.0
 10
-481.9012357409849
 20
-464.0009169204081
 30
0.0
 10
-480.3448986939845
 20
-465.0899323857348
 30
0.0
 10
-478.7134067948259
 20
-464.8022563451839
 30
0.0
 10
-477.0819148956706
 20
-464.5145803046433
 30
0.0
 10
-475.9919016825237
 20
-462.9589418881916
 30
0.0
 10
-476.2796525023816
 20
-461.3270258944378
 30
0.0
 10
-476.2796525023816
 20
-461.3270258944378
 30
0.0
 10
-464.6594606549755
 20
-459.2780725513305
 30
0.0
 10
-464.6594606549755
 20
-459.2780725513305
 30
0.0
 10
-464.6594606549755
 20
-459.2780725513305
 30
0.0
 10
-446.9524086455717
 20
-457.1939447397057
 30
0.0
 10
-446.9524086455717
 20
-457.1939447397057
 30
0.0
 10
-446.9524086455717
 20
-457.1939447397057
 30
0.0
 10
-391.6652321534914
 20
-447.4453238390728
 30
0.0
 10
-391.6652321534914
 20
-447.4453238390728
 30
0.0
 10
-391.2311714378008
 20
-446.7426019707804
 30
0.0
 10
-390.5356987214737
 20
-446.2080534139195
 30
0.0
 10
-389.6586711032148
 20
-446.0534097820362
 30
0.0
 10
-388.7812193903446
 20
-445.8986913708385
 30
0.0
 10
-387.9444383422748
 20
-446.1630622478133
 30
0.0
 10
-387.2966337512868
 20
-446.6750220731167
 30
0.0
 10
-387.2966337512868
 20
-446.6750220731167
 30
0.0
 10
-387.2826386297165
 20
-446.6725543555839
 30
0.0
 10
-387.2826386297165
 20
-446.6725543555839
 30
0.0
 10
-387.2826386297165
 20
-446.6725543555839
 30
0.0
 10
-375.7096037762106
 20
-454.7173466999297
 30
0.0
 10
-375.7096037762106
 20
-454.7173466999297
 30
0.0
 10
-375.7096037762106
 20
-454.7173466999297
 30
0.0
 10
-342.1976185090994
 20
-645.4991544290497
 30
0.0
 10
-342.1976185090994
 20
-645.4991544290497
 30
0.0
 10
-342.1976185090994
 20
-645.4991544290497
 30
0.0
 10
-350.3055292745426
 20
-657.1060573338092
 30
0.0
 10
-350.3055292745426
 20
-657.1060573338092
 30
0.0
 10
-350.3055292745426
 20
-657.1060573338092
 30
0.0
 10
-350.3343677068676
 20
-657.1111423275047
 30
0.0
 10
-350.3343677068676
 20
-657.1111423275047
 30
0.0
 10
-350.7700981489026
 20
-657.8019147678859
 30
0.0
 10
-351.4628500869997
 20
-658.3246142928077
 30
0.0
 10
-352.3305476242116
 20
-658.4776127796728
 30
0.0
 10
-353.1978210668426
 20
-658.6305364872163
 30
0.0
 10
-354.0275687175118
 20
-658.3762947178175
 30
0.0
 10
-354.6728553929637
 20
-657.8761347618146
 30
0.0
 10
-354.6728553929637
 20
-657.8761347618146
 30
0.0
 10
-487.0022148538697
 20
-681.2093711756986
 30
0.0
 10
-487.0022148538697
 20
-681.2093711756986
 30
0.0
 10
-487.0022148538697
 20
-681.2093711756986
 30
0.0
 10
-504.3557102426107
 20
-685.2986182228817
 30
0.0
 10
-504.3557102426107
 20
-685.2986182228817
 30
0.0
 10
-504.3557102426107
 20
-685.2986182228817
 30
0.0
 10
-515.9788707521778
 20
-687.3480950212328
 30
0.0
 10
-515.9788707521778
 20
-687.3480950212328
 30
0.0
 10
-515.9797681040048
 20
-687.3430058861206
 30
0.0
 10
-515.9775472350487
 20
-687.3382414849566
 30
0.0
 10
-515.9784445868786
 20
-687.3331523498375
 30
0.0
 10
-516.2661954067438
 20
-685.7012363560824
 30
0.0
 10
-517.8225324537377
 20
-684.6122208907666
 30
0.0
 10
-519.4540243528926
 20
-684.8998969313066
 30
0.0
 10
-521.0855162520686
 20
-685.187572971844
 30
0.0
 10
-522.1755294652088
 20
-686.7432113883098
 30
0.0
 10
-521.8877786453397
 20
-688.3751273820598
 30
0.0
 10
-521.8868812935095
 20
-688.3802165171724
 30
0.0
 10
-521.8831648381727
 20
-688.3839340078666
 30
0.0
 10
-521.8822674863414
 20
-688.3890231429857
 30
0.0
 10
-521.8822674863414
 20
-688.3890231429857
 30
0.0
 10
-521.8852361484926
 20
-688.3895465982158
 30
0.0
 10
-521.8852361484926
 20
-688.3895465982158
 30
0.0
 10
-521.8852361484926
 20
-688.3895465982158
 30
0.0
 10
-518.8004396773307
 20
-705.8842967474717
 30
0.0
 10
-518.8004396773307
 20
-705.8842967474717
 30
0.0
 10
-518.5126888574657
 20
-707.5162127412339
 30
0.0
 10
-516.9563518104648
 20
-708.6052282065483
 30
0.0
 10
-515.3248599112997
 20
-708.3175521660083
 30
0.0
 10
-513.6933680121448
 20
-708.0298761254613
 30
0.0
 10
-512.6033547989966
 20
-706.4742377090065
 30
0.0
 10
-512.8911056188628
 20
-704.8423217152514
 30
0.0
 10
-512.8911056188628
 20
-704.8423217152514
 30
0.0
 10
-501.2709137714487
 20
-702.7933683721415
 30
0.0
 10
-501.2709137714487
 20
-702.7933683721415
 30
0.0
 10
-501.2709137714487
 20
-702.7933683721415
 30
0.0
 10
-483.5638617620385
 20
-700.7092405605264
 30
0.0
 10
-483.5638617620385
 20
-700.7092405605264
 30
0.0
 10
-483.5638617620385
 20
-700.7092405605264
 30
0.0
 10
-114.7574969811138
 20
-635.6787277818485
 30
0.0
 10
-114.7574969811138
 20
-635.6787277818485
 30
0.0
 10
-114.3234362654266
 20
-634.9760059135496
 30
0.0
 10
-113.6279635490986
 20
-634.4414573566957
 30
0.0
 10
-112.7509359308355
 20
-634.2868137248054
 30
0.0
 10
-111.8734842179695
 20
-634.1320953136116
 30
0.0
 10
-111.0367031698926
 20
-634.3964661905895
 30
0.0
 10
-110.3888985789146
 20
-634.9084260158852
 30
0.0
 10
-110.3888985789146
 20
-634.9084260158852
 30
0.0
 10
-110.3749034573446
 20
-634.9059582983525
 30
0.0
 10
-110.3749034573446
 20
-634.9059582983525
 30
0.0
 10
-110.3749034573446
 20
-634.9059582983525
 30
0.0
 10
-99.71420301863665
 20
-642.3165569300788
 30
0.0
 10
-99.71420301863665
 20
-642.3165569300788
 30
0.0
 10
-99.71420301863665
 20
-642.3165569300788
 30
0.0
 10
-92.06566155678671
 20
-706.5934915673905
 30
0.0
 10
-92.06566155678671
 20
-706.5934915673905
 30
0.0
 10
-92.06566155678671
 20
-706.5934915673905
 30
0.0
 10
-78.15690587865272
 20
-737.9456310432035
 30
0.0
 10
-78.15690587865272
 20
-737.9456310432035
 30
0.0
 10
-78.15690587865272
 20
-737.9456310432035
 30
0.0
 10
-90.21673946393166
 20
-764.8067723962857
 30
0.0
 10
-90.21673946393166
 20
-764.8067723962857
 30
0.0
 10
-90.21673946393166
 20
-764.8067723962857
 30
0.0
 10
-90.58558919347051
 20
-765.3388957785661
 30
0.0
 10
-90.58558919347051
 20
-765.3388957785661
 30
0.0
 10
-90.58558919347051
 20
-765.3388957785661
 30
0.0
 10
-447.1696139867036
 20
-828.2142801632293
 30
0.0
 10
-447.1696139867036
 20
-828.2142801632293
 30
0.0
 10
-447.1696139867036
 20
-828.2142801632293
 30
0.0
 10
-449.8061724059646
 20
-828.2758505859836
 30
0.0
 10
-449.8061724059646
 20
-828.2758505859836
 30
0.0
 10
-449.8061724059646
 20
-828.2758505859836
 30
0.0
 10
-482.5541401064887
 20
-813.6150610936024
 30
0.0
 10
-482.5541401064887
 20
-813.6150610936024
 30
0.0
 10
-482.5541401064887
 20
-813.6150610936024
 30
0.0
 10
-543.2342876310119
 20
-818.0000022687616
 30
0.0
 10
-543.2342876310119
 20
-818.0000022687616
 30
0.0
 10
-543.2342876310119
 20
-818.0000022687616
 30
0.0
 10
-614.5504112117336
 20
-800.0657481650553
 30
0.0
 10
-614.5504112117336
 20
-800.0657481650553
 30
0.0
 10
-614.5504112117336
 20
-800.0657481650553
 30
0.0
 10
-706.6641891477258
 20
-796.2989998025458
 30
0.0
 10
-706.6641891477258
 20
-796.2989998025458
 30
0.0
 10
-706.6641891477258
 20
-796.2989998025458
 30
0.0
 10
-806.1300464337128
 20
-797.1915470945818
 30
0.0
 10
-806.1300464337128
 20
-797.1915470945818
 30
0.0
 10
-806.1300464337128
 20
-797.1915470945818
 30
0.0
 10
-848.3541908672529
 20
-825.1617562771415
 30
0.0
 10
-848.3541908672529
 20
-825.1617562771415
 30
0.0
 10
-848.3541908672529
 20
-825.1617562771415
 30
0.0
 10
-857.4956011793397
 20
-834.278481300923
 30
0.0
 10
-857.4956011793397
 20
-834.278481300923
 30
0.0
 10
-857.4956011793397
 20
-834.278481300923
 30
0.0
 10
-866.9379364680108
 20
-878.9223380700083
 30
0.0
 10
-866.9379364680108
 20
-878.9223380700083
 30
0.0
 10
-866.9379364680108
 20
-878.9223380700083
 30
0.0
 10
-880.7348947082336
 20
-891.2848504240976
 30
0.0
 10
-880.7348947082336
 20
-891.2848504240976
 30
0.0
 10
-880.7348947082336
 20
-891.2848504240976
 30
0.0
 10
-916.8172324781984
 20
-895.1617205787187
 30
0.0
 10
-916.8172324781984
 20
-895.1617205787187
 30
0.0
 10
-916.8172324781984
 20
-895.1617205787187
 30
0.0
 10
-939.9577669163286
 20
-763.928005679418
 30
0.0
 10
-939.9577669163286
 20
-763.928005679418
 30
0.0
 10
-939.9577669163286
 20
-763.928005679418
 30
0.0
 10
-955.4433097240267
 20
-676.1061201450284
 30
0.0
 10
-955.4433097240267
 20
-676.1061201450284
 30
0.0
 10
-955.4433097240267
 20
-676.1061201450284
 30
0.0
 10
-909.1739005222474
 20
-655.5773027532834
 30
0.0
 10
-909.1739005222474
 20
-655.5773027532834
 30
0.0
 10
-909.1739005222474
 20
-655.5773027532834
 30
0.0
 10
-746.6505406921816
 20
-604.524796258026
 30
0.0
 10
-746.6505406921816
 20
-604.524796258026
 30
0.0
 10
-746.6505406921816
 20
-604.524796258026
 30
0.0
 10
-661.7902181605788
 20
-582.7815497796329
 30
0.0
 10
-661.7902181605788
 20
-582.7815497796329
 30
0.0
 10
-661.7902181605788
 20
-582.7815497796329
 30
0.0
 10
-602.3448022682536
 20
-583.0111250875865
 30
0.0
 10
-602.3448022682536
 20
-583.0111250875865
 30
0.0
 10
-602.3448022682536
 20
-583.0111250875865
 30
0.0
 10
-570.7759950858626
 20
-546.722924697571
 30
0.0
 10
-570.7759950858626
 20
-546.722924697571
 30
0.0
 10
-570.7759950858626
 20
-546.722924697571
 30
0.0
 10
-564.5260437747656
 20
-534.5412237626142
 30
0.0
 10
-564.5260437747656
 20
-534.5412237626142
 30
0.0
 10
-564.5260437747656
 20
-534.5412237626142
 30
0.0
 10
-571.0351336618317
 20
-512.7210365718915
 30
0.0
 10
-571.0351336618317
 20
-512.7210365718915
 30
0.0
 10
-571.0351336618317
 20
-512.7210365718915
 30
0.0
 10
-591.1645275594257
 20
-462.453337540062
 30
0.0
 10
-591.1645275594257
 20
-462.453337540062
 30
0.0
 10
-591.1645275594257
 20
-462.453337540062
 30
0.0
 10
-622.6213378702537
 20
-323.7190336332811
 30
0.0
 10
-622.6213378702537
 20
-323.7190336332811
 30
0.0
 10
-622.6213378702537
 20
-323.7190336332811
 30
0.0
 10
-628.5048504064706
 20
-292.344379689263
 30
0.0
 10
-628.5048504064706
 20
-292.344379689263
 30
0.0
 10
-628.5048504064706
 20
-292.344379689263
 30
0.0
 10
-656.6642926874285
 20
-254.6918582411163
 30
0.0
 10
-656.6642926874285
 20
-254.6918582411163
 30
0.0
 10
-656.6642926874285
 20
-254.6918582411163
 30
0.0
 10
-660.3128805248346
 20
-229.0358418865011
 30
0.0
 10
-660.3128805248346
 20
-229.0358418865011
 30
0.0
 10
-660.3128805248346
 20
-229.0358418865011
 30
0.0
 10
-857.0960439079967
 20
-117.5702809608601
 30
0.0
 10
-857.0960439079967
 20
-117.5702809608601
 30
0.0
 10
-857.0960439079967
 20
-117.5702809608601
 30
0.0
 10
-864.4382374640705
 20
-113.5239323803511
 30
0.0
 10
-864.4382374640705
 20
-113.5239323803511
 30
0.0
 10
-864.4382374640705
 20
-113.5239323803511
 30
0.0
 10
-885.4130297493449
 20
-112.0619580029929
 30
0.0
 10
-885.4130297493449
 20
-112.0619580029929
 30
0.0
 10
-885.4130297493449
 20
-112.0619580029929
 30
0.0
 10
-957.0590838459968
 20
-129.8143472299717
 30
0.0
 10
-957.0590838459968
 20
-129.8143472299717
 30
0.0
 10
-957.0590838459968
 20
-129.8143472299717
 30
0.0
 10
-982.9452661031454
 20
-190.5398306668129
 30
0.0
 10
-982.9452661031454
 20
-190.5398306668129
 30
0.0
 10
-982.9452661031454
 20
-190.5398306668129
 30
0.0
 10
-996.7803539565848
 20
-206.9691480593815
 30
0.0
 10
-996.7803539565848
 20
-206.9691480593815
 30
0.0
 10
-996.7803539565848
 20
-206.9691480593815
 30
0.0
 10
-997.5841080594996
 20
-207.3548389650775
 30
0.0
 10
-997.5841080594996
 20
-207.3548389650775
 30
0.0
 10
-997.5841080594996
 20
-207.3548389650775
 30
0.0
 10
-1037.62886591448
 20
-210.0064865149145
 30
0.0
 10
-1037.62886591448
 20
-210.0064865149145
 30
0.0
 10
-1037.62886591448
 20
-210.0064865149145
 30
0.0
 10
-1056.115815392325
 20
-105.1635714566768
 30
0.0
 10
-1056.115815392325
 20
-105.1635714566768
 30
0.0
 10
-1056.115815392325
 20
-105.1635714566768
 30
0.0
 10
-1067.135698708922
 20
-42.66710425535283
 30
0.0
 10
-1067.135698708922
 20
-42.66710425535283
 30
0.0
 10
-1067.135698708922
 20
-42.66710425535283
 30
0.0
 10
-1077.856408859013
 20
18.13306439385592
 30
0.0
 10
-1077.856408859013
 20
18.13306439385592
 30
0.0
 10
-1077.856408859013
 20
18.13306439385592
 30
0.0
 10
-1065.851051452998
 20
42.44487669895386
 30
0.0
 10
-1065.851051452998
 20
42.44487669895386
 30
0.0
 10
-1065.851051452998
 20
42.44487669895386
 30
0.0
 10
-784.5429005317445
 20
66.70331238736581
 30
0.0
 10
-784.5429005317445
 20
66.70331238736581
 30
0.0
 10
-784.5429005317445
 20
66.70331238736581
 30
0.0
 10
-769.2946107371016
 20
67.01074420253005
 30
0.0
 10
-769.2946107371016
 20
67.01074420253005
 30
0.0
  0
ENDBLK
  5
49
330
46
100
AcDbEntity
  8
0
100
AcDbBlockEnd
  0
BLOCK
  5
4D
330
4B
100
AcDbEntity
  8
0
100
AcDbBlockBegin
  2
block 4
 70
     0
 10
0.0
 20
0.0
 30
0.0
  3
block 4
  1

  0
SPLINE
  5
4F
330
4B
100
AcDbEntity
  8
dog bone slots
 62
     8
420
  8421504
370
    18
100
AcDbSpline
210
0.0
220
0.0
230
1.0
 70
    11
 71
     3
 72
   422
 73
   418
 74
     0
 42
0.0000000001
 43
0.0000000001
 12
1.0
 22
0.0
 32
0.0
 13
1.0
 23
0.0
 33
0.0
 40
0.0
 40
0.0
 40
0.0
 40
0.0
 40
1.0
 40
1.0
 40
1.0
 40
2.0
 40
2.0
 40
2.0
 40
3.0
 40
3.0
 40
3.0
 40
4.0
 40
4.0
 40
4.0
 40
5.0
 40
5.0
 40
5.0
 40
6.0
 40
6.0
 40
6.0
 40
7.0
 40
7.0
 40
7.0
 40
8.0
 40
8.0
 40
8.0
 40
9.0
 40
9.0
 40
9.0
 40
10.0
 40
10.0
 40
10.0
 40
11.0
 40
11.0
 40
11.0
 40
12.0
 40
12.0
 40
12.0
 40
13.0
 40
13.0
 40
13.0
 40
14.0
 40
14.0
 40
14.0
 40
15.0
 40
15.0
 40
15.0
 40
16.0
 40
16.0
 40
16.0
 40
17.0
 40
17.0
 40
17.0
 40
18.0
 40
18.0
 40
18.0
 40
19.0
 40
19.0
 40
19.0
 40
20.0
 40
20.0
 40
20.0
 40
21.0
 40
21.0
 40
21.0
 40
22.0
 40
22.0
 40
22.0
 40
23.0
 40
23.0
 40
23.0
 40
24.0
 40
24.0
 40
24.0
 40
25.0
 40
25.0
 40
25.0
 40
26.0
 40
26.0
 40
26.0
 40
27.0
 40
27.0
 40
27.0
 40
28.0
 40
28.0
 40
28.0
 40
29.0
 40
29.0
 40
29.0
 40
30.0
 40
30.0
 40
30.0
 40
31.0
 40
31.0
 40
31.0
 40
32.0
 40
32.0
 40
32.0
 40
33.0
 40
33.0
 40
33.0
 40
34.0
 40
34.0
 40
34.0
 40
35.0
 40
35.0
 40
35.0
 40
36.0
 40
36.0
 40
36.0
 40
37.0
 40
37.0
 40
37.0
 40
38.0
 40
38.0
 40
38.0
 40
39.0
 40
39.0
 40
39.0
 40
40.0
 40
40.0
 40
40.0
 40
41.0
 40
41.0
 40
41.0
 40
42.0
 40
42.0
 40
42.0
 40
43.0
 40
43.0
 40
43.0
 40
44.0
 40
44.0
 40
44.0
 40
45.0
 40
45.0
 40
45.0
 40
46.0
 40
46.0
 40
46.0
 40
47.0
 40
47.0
 40
47.0
 40
48.0
 40
48.0
 40
48.0
 40
49.0
 40
49.0
 40
49.0
 40
50.0
 40
50.0
 40
50.0
 40
51.0
 40
51.0
 40
51.0
 40
52.0
 40
52.0
 40
52.0
 40
53.0
 40
53.0
 40
53.0
 40
54.0
 40
54.0
 40
54.0
 40
55.0
 40
55.0
 40
55.0
 40
56.0
 40
56.0
 40
56.0
 40
57.0
 40
57.0
 40
57.0
 40
58.0
 40
58.0
 40
58.0
 40
59.0
 40
59.0
 40
59.0
 40
60.0
 40
60.0
 40
60.0
 40
61.0
 40
61.0
 40
61.0
 40
62.0
 40
62.0
 40
62.0
 40
63.0
 40
63.0
 40
63.0
 40
64.0
 40
64.0
 40
64.0
 40
65.0
 40
65.0
 40
65.0
 40
66.0
 40
66.0
 40
66.0
 40
67.0
 40
67.0
 40
67.0
 40
68.0
 40
68.0
 40
68.0
 40
69.0
 40
69.0
 40
69.0
 40
70.0
 40
70.0
 40
70.0
 40
71.0
 40
71.0
 40
71.0
 40
72.0
 40
72.0
 40
72.0
 40
73.0
 40
73.0
 40
73.0
 40
74.0
 40
74.0
 40
74.0
 40
75.0
 40
75.0
 40
75.0
 40
76.0
 40
76.0
 40
76.0
 40
77.0
 40
77.0
 40
77.0
 40
78.0
 40
78.0
 40
78.0
 40
79.0
 40
79.0
 40
79.0
 40
80.0
 40
80.0
 40
80.0
 40
81.0
 40
81.0
 40
81.0
 40
82.0
 40
82.0
 40
82.0
 40
83.0
 40
83.0
 40
83.0
 40
84.0
 40
84.0
 40
84.0
 40
85.0
 40
85.0
 40
85.0
 40
86.0
 40
86.0
 40
86.0
 40
87.0
 40
87.0
 40
87.0
 40
88.0
 40
88.0
 40
88.0
 40
89.0
 40
89.0
 40
89.0
 40
90.0
 40
90.0
 40
90.0
 40
91.0
 40
91.0
 40
91.0
 40
92.0
 40
92.0
 40
92.0
 40
93.0
 40
93.0
 40
93.0
 40
94.0
 40
94.0
 40
94.0
 40
95.0
 40
95.0
 40
95.0
 40
96.0
 40
96.0
 40
96.0
 40
97.0
 40
97.0
 40
97.0
 40
98.0
 40
98.0
 40
98.0
 40
99.0
 40
99.0
 40
99.0
 40
100.0
 40
100.0
 40
100.0
 40
101.0
 40
101.0
 40
101.0
 40
102.0
 40
102.0
 40
102.0
 40
103.0
 40
103.0
 40
103.0
 40
104.0
 40
104.0
 40
104.0
 40
105.0
 40
105.0
 40
105.0
 40
106.0
 40
106.0
 40
106.0
 40
107.0
 40
107.0
 40
107.0
 40
108.0
 40
108.0
 40
108.0
 40
109.0
 40
109.0
 40
109.0
 40
110.0
 40
110.0
 40
110.0
 40
111.0
 40
111.0
 40
111.0
 40
112.0
 40
112.0
 40
112.0
 40
113.0
 40
113.0
 40
113.0
 40
114.0
 40
114.0
 40
114.0
 40
115.0
 40
115.0
 40
115.0
 40
116.0
 40
116.0
 40
116.0
 40
117.0
 40
117.0
 40
117.0
 40
118.0
 40
118.0
 40
118.0
 40
119.0
 40
119.0
 40
119.0
 40
120.0
 40
120.0
 40
120.0
 40
121.0
 40
121.0
 40
121.0
 40
122.0
 40
122.0
 40
122.0
 40
123.0
 40
123.0
 40
123.0
 40
124.0
 40
124.0
 40
124.0
 40
125.0
 40
125.0
 40
125.0
 40
126.0
 40
126.0
 40
126.0
 40
127.0
 40
127.0
 40
127.0
 40
128.0
 40
128.0
 40
128.0
 40
129.0
 40
129.0
 40
129.0
 40
130.0
 40
130.0
 40
130.0
 40
131.0
 40
131.0
 40
131.0
 40
132.0
 40
132.0
 40
132.0
 40
133.0
 40
133.0
 40
133.0
 40
134.0
 40
134.0
 40
134.0
 40
135.0
 40
135.0
 40
135.0
 40
136.0
 40
136.0
 40
136.0
 40
137.0
 40
137.0
 40
137.0
 40
138.0
 40
138.0
 40
138.0
 40
139.0
 40
139.0
 40
139.0
 40
139.0
 10
571.7234746068211
 20
-793.3833481001475
 30
0.0
 10
571.7234746068211
 20
-793.3833481001475
 30
0.0
 10
561.4462422969814
 20
-786.4960167894588
 30
0.0
 10
561.4462422969814
 20
-786.4960167894588
 30
0.0
 10
561.4462422969814
 20
-786.4960167894588
 30
0.0
 10
561.432558103066
 20
-786.4984296820584
 30
0.0
 10
561.432558103066
 20
-786.4984296820584
 30
0.0
 10
560.8026547550545
 20
-786.0177448579966
 30
0.0
 10
559.9867726881007
 20
-785.7723386808995
 30
0.0
 10
559.1288151974913
 20
-785.9236197347469
 30
0.0
 10
558.2712723794223
 20
-786.0748276706395
 30
0.0
 10
557.5889425500224
 20
-786.5844090278158
 30
0.0
 10
557.1610162419065
 20
-787.2516177611948
 30
0.0
 10
557.1610162419065
 20
-787.2516177611948
 30
0.0
 10
183.0074091514685
 20
-853.2249936318866
 30
0.0
 10
183.0074091514685
 20
-853.2249936318866
 30
0.0
 10
183.0074091514685
 20
-853.2249936318866
 30
0.0
 10
165.6995696375194
 20
-855.2958107370704
 30
0.0
 10
165.6995696375194
 20
-855.2958107370704
 30
0.0
 10
165.6995696375194
 20
-855.2958107370704
 30
0.0
 10
154.3375419706932
 20
-857.2992427697303
 30
0.0
 10
154.3375419706932
 20
-857.2992427697303
 30
0.0
 10
154.6094705005268
 20
-858.8414260976459
 30
0.0
 10
153.5360334244036
 20
-860.3191714886597
 30
0.0
 10
151.9407881530776
 20
-860.6004562707603
 30
0.0
 10
150.3455428817528
 20
-860.8817410528726
 30
0.0
 10
148.8314232921325
 20
-859.8602517160099
 30
0.0
 10
148.5594947623059
 20
-858.3180683881014
 30
0.0
 10
148.5594947623059
 20
-858.3180683881014
 30
0.0
 10
145.6443191613896
 20
-841.7852859964945
 30
0.0
 10
145.6443191613896
 20
-841.7852859964945
 30
0.0
 10
145.6443191613896
 20
-841.7852859964945
 30
0.0
 10
145.6472218691905
 20
-841.7847741707883
 30
0.0
 10
145.6472218691905
 20
-841.7847741707883
 30
0.0
 10
145.6463738592236
 20
-841.7799648672755
 30
0.0
 10
145.6427644764463
 20
-841.7764689400403
 30
0.0
 10
145.6419164664807
 20
-841.7716596365276
 30
0.0
 10
145.3699879366503
 20
-840.2294763086165
 30
0.0
 10
146.4434250127734
 20
-838.7517309176054
 30
0.0
 10
148.0386702840886
 20
-838.4704461354963
 30
0.0
 10
149.6339155554203
 20
-838.1891613534026
 30
0.0
 10
151.1480351450343
 20
-839.2106506902556
 30
0.0
 10
151.4199636748673
 20
-840.7528340181565
 30
0.0
 10
151.4208116848374
 20
-840.7576433216776
 30
0.0
 10
151.4186156520013
 20
-840.7621629003123
 30
0.0
 10
151.4194636619715
 20
-840.7669722038335
 30
0.0
 10
151.4194636619715
 20
-840.7669722038335
 30
0.0
 10
162.7843940366051
 20
-838.7630283454525
 30
0.0
 10
162.7843940366051
 20
-838.7630283454525
 30
0.0
 10
162.7843940366051
 20
-838.7630283454525
 30
0.0
 10
179.7581176230396
 20
-834.7973456544308
 30
0.0
 10
179.7581176230396
 20
-834.7973456544308
 30
0.0
 10
179.7581176230396
 20
-834.7973456544308
 30
0.0
 10
307.5126984759054
 20
-812.2707661398557
 30
0.0
 10
307.5126984759054
 20
-812.2707661398557
 30
0.0
 10
308.1402084614334
 20
-812.7403023736738
 30
0.0
 10
308.9492771029545
 20
-812.9761658086373
 30
0.0
 10
309.7972824525466
 20
-812.8266395857528
 30
0.0
 10
310.6457024746765
 20
-812.6770402449338
 30
0.0
 10
311.3253082610323
 20
-812.1786833429112
 30
0.0
 10
311.7547985865477
 20
-811.5227694356967
 30
0.0
 10
311.7547985865477
 20
-811.5227694356967
 30
0.0
 10
311.7829963194375
 20
-811.5177974145834
 30
0.0
 10
311.7829963194375
 20
-811.5177974145834
 30
0.0
 10
311.7829963194375
 20
-811.5177974145834
 30
0.0
 10
319.7678067698945
 20
-800.4922080359497
 30
0.0
 10
319.7678067698945
 20
-800.4922080359497
 30
0.0
 10
319.7678067698945
 20
-800.4922080359497
 30
0.0
 10
285.9418795928067
 20
-608.6558422701402
 30
0.0
 10
285.9418795928067
 20
-608.6558422701402
 30
0.0
 10
285.9418795928067
 20
-608.6558422701402
 30
0.0
 10
274.3688447393005
 20
-600.6110499257938
 30
0.0
 10
274.3688447393005
 20
-600.6110499257938
 30
0.0
 10
274.3688447393005
 20
-600.6110499257938
 30
0.0
 10
274.3548496177337
 20
-600.6135176433304
 30
0.0
 10
274.3548496177337
 20
-600.6135176433304
 30
0.0
 10
273.7070450267458
 20
-600.101557818034
 30
0.0
 10
272.8702639786654
 20
-599.8371869410523
 30
0.0
 10
271.9928122658091
 20
-599.9919053522569
 30
0.0
 10
271.1157846475427
 20
-600.1465489841294
 30
0.0
 10
270.4203119312224
 20
-600.6810975409934
 30
0.0
 10
269.9862512155314
 20
-601.3838194092789
 30
0.0
 10
269.9862512155314
 20
-601.3838194092789
 30
0.0
 10
210.9191027157825
 20
-611.798951361351
 30
0.0
 10
210.9191027157825
 20
-611.798951361351
 30
0.0
 10
210.9191027157825
 20
-611.798951361351
 30
0.0
 10
193.2120507063765
 20
-613.8830791729692
 30
0.0
 10
193.2120507063765
 20
-613.8830791729692
 30
0.0
 10
193.2120507063765
 20
-613.8830791729692
 30
0.0
 10
181.5918588589734
 20
-615.9320325160735
 30
0.0
 10
181.5918588589734
 20
-615.9320325160735
 30
0.0
 10
181.8796096788354
 20
-617.5639485098279
 30
0.0
 10
180.7895964656884
 20
-619.1195869262937
 30
0.0
 10
179.1581045665253
 20
-619.4072629668266
 30
0.0
 10
177.5266126673633
 20
-619.6949390073697
 30
0.0
 10
175.9702756203733
 20
-618.6059235420546
 30
0.0
 10
175.6825248005055
 20
-616.9740075482995
 30
0.0
 10
175.6825248005055
 20
-616.9740075482995
 30
0.0
 10
172.5977283293394
 20
-599.4792573990437
 30
0.0
 10
172.5977283293394
 20
-599.4792573990437
 30
0.0
 10
172.5977283293394
 20
-599.4792573990437
 30
0.0
 10
172.6006969914905
 20
-599.4787339438174
 30
0.0
 10
172.6006969914905
 20
-599.4787339438174
 30
0.0
 10
172.5997996396635
 20
-599.4736448086951
 30
0.0
 10
172.5960831843154
 20
-599.4699273180041
 30
0.0
 10
172.5951858324813
 20
-599.4648381828811
 30
0.0
 10
172.3074350126167
 20
-597.8329221891337
 30
0.0
 10
173.3974482257663
 20
-596.2772837726718
 30
0.0
 10
175.0289401249256
 20
-595.9896077321318
 30
0.0
 10
176.6604320240875
 20
-595.701931691588
 30
0.0
 10
178.2167690710846
 20
-596.7909471569172
 30
0.0
 10
178.5045198909467
 20
-598.4228631506653
 30
0.0
 10
178.5054172427762
 20
-598.4279522857773
 30
0.0
 10
178.5031963738163
 20
-598.4327166869485
 30
0.0
 10
178.5040937256503
 20
-598.4378058220574
 30
0.0
 10
178.5040937256503
 20
-598.4378058220574
 30
0.0
 10
190.1272542352143
 20
-596.3883290237172
 30
0.0
 10
190.1272542352143
 20
-596.3883290237172
 30
0.0
 10
190.1272542352143
 20
-596.3883290237172
 30
0.0
 10
207.4807496239488
 20
-592.2990819765193
 30
0.0
 10
207.4807496239488
 20
-592.2990819765193
 30
0.0
 10
207.4807496239488
 20
-592.2990819765193
 30
0.0
 10
266.5631655290485
 20
-581.8812579689778
 30
0.0
 10
266.5631655290485
 20
-581.8812579689778
 30
0.0
 10
267.2084522044966
 20
-582.3814179249832
 30
0.0
 10
268.0381998551655
 20
-582.635659694379
 30
0.0
 10
268.9054732977964
 20
-582.4827359868386
 30
0.0
 10
269.7731708350161
 20
-582.3297374999768
 30
0.0
 10
270.4659227731022
 20
-581.8070379750338
 30
0.0
 10
270.9016532151437
 20
-581.1162655346706
 30
0.0
 10
270.9016532151437
 20
-581.1162655346706
 30
0.0
 10
270.9304916474655
 20
-581.1111805409686
 30
0.0
 10
270.9304916474655
 20
-581.1111805409686
 30
0.0
 10
270.9304916474655
 20
-581.1111805409686
 30
0.0
 10
279.0384024129092
 20
-569.5042776362084
 30
0.0
 10
279.0384024129092
 20
-569.5042776362084
 30
0.0
 10
279.0384024129092
 20
-569.5042776362084
 30
0.0
 10
244.5471972972765
 20
-373.9159630654035
 30
0.0
 10
244.5471972972765
 20
-373.9159630654035
 30
0.0
 10
244.5471972972765
 20
-373.9159630654035
 30
0.0
 10
232.9741624437665
 20
-365.8711707210533
 30
0.0
 10
232.9741624437665
 20
-365.8711707210533
 30
0.0
 10
232.9741624437665
 20
-365.8711707210533
 30
0.0
 10
232.9601673221965
 20
-365.8736384385937
 30
0.0
 10
232.9601673221965
 20
-365.8736384385937
 30
0.0
 10
232.3123627312194
 20
-365.3616786133013
 30
0.0
 10
231.4755816831345
 20
-365.0973077363124
 30
0.0
 10
230.5981299702795
 20
-365.2520261475171
 30
0.0
 10
229.7211023520093
 20
-365.4066697794067
 30
0.0
 10
229.0256296356883
 20
-365.9412183362606
 30
0.0
 10
228.5915689199947
 20
-366.6439402045564
 30
0.0
 10
228.5915689199947
 20
-366.6439402045564
 30
0.0
 10
139.6926907572713
 20
-382.3192109786283
 30
0.0
 10
139.6926907572713
 20
-382.3192109786283
 30
0.0
 10
139.6926907572713
 20
-382.3192109786283
 30
0.0
 10
121.9856387478653
 20
-384.4033387902537
 30
0.0
 10
121.9856387478653
 20
-384.4033387902537
 30
0.0
 10
121.9856387478653
 20
-384.4033387902537
 30
0.0
 10
110.3654469004512
 20
-386.4522921333566
 30
0.0
 10
110.3654469004512
 20
-386.4522921333566
 30
0.0
 10
110.6531977203126
 20
-388.0842081271111
 30
0.0
 10
109.5631845071734
 20
-389.6398465435666
 30
0.0
 10
107.9316926080044
 20
-389.9275225840994
 30
0.0
 10
106.3002007088412
 20
-390.2151986246542
 30
0.0
 10
104.7438636618524
 20
-389.1261831593314
 30
0.0
 10
104.4561128419833
 20
-387.4942671655833
 30
0.0
 10
104.4561128419833
 20
-387.4942671655833
 30
0.0
 10
101.3713163708185
 20
-369.9995170163243
 30
0.0
 10
101.3713163708185
 20
-369.9995170163243
 30
0.0
 10
101.3713163708185
 20
-369.9995170163243
 30
0.0
 10
101.3742850329684
 20
-369.9989935610807
 30
0.0
 10
101.3742850329684
 20
-369.9989935610807
 30
0.0
 10
101.3733876811455
 20
-369.993904425968
 30
0.0
 10
101.3696712257974
 20
-369.9901869352776
 30
0.0
 10
101.3687738739704
 20
-369.9850978001579
 30
0.0
 10
101.0810230541055
 20
-368.3531818064002
 30
0.0
 10
102.1710362672486
 20
-366.7975433899556
 30
0.0
 10
103.8025281664073
 20
-366.5098673494118
 30
0.0
 10
105.4340200655654
 20
-366.2221913088686
 30
0.0
 10
106.9903571125734
 20
-367.3112067741806
 30
0.0
 10
107.2781079324316
 20
-368.943122767935
 30
0.0
 10
107.2790052842611
 20
-368.9482119030509
 30
0.0
 10
107.2767844153025
 20
-368.9529763042111
 30
0.0
 10
107.2776817671282
 20
-368.958065439327
 30
0.0
 10
107.2776817671282
 20
-368.958065439327
 30
0.0
 10
118.9008422766992
 20
-366.908588640987
 30
0.0
 10
118.9008422766992
 20
-366.908588640987
 30
0.0
 10
118.9008422766992
 20
-366.908588640987
 30
0.0
 10
136.2543376654376
 20
-362.8193415938031
 30
0.0
 10
136.2543376654376
 20
-362.8193415938031
 30
0.0
 10
136.2543376654376
 20
-362.8193415938031
 30
0.0
 10
225.1684832335145
 20
-347.1413787642412
 30
0.0
 10
225.1684832335145
 20
-347.1413787642412
 30
0.0
 10
225.8137699089593
 20
-347.6415387202504
 30
0.0
 10
226.6435175596353
 20
-347.8957804896385
 30
0.0
 10
227.5107910022553
 20
-347.742856782098
 30
0.0
 10
228.3784885394795
 20
-347.5898582952394
 30
0.0
 10
229.0712404775727
 20
-347.0671587703183
 30
0.0
 10
229.5069709196134
 20
-346.3763863299338
 30
0.0
 10
229.5069709196134
 20
-346.3763863299338
 30
0.0
 10
229.5358093519315
 20
-346.371301336239
 30
0.0
 10
229.5358093519315
 20
-346.371301336239
 30
0.0
 10
229.5358093519315
 20
-346.371301336239
 30
0.0
 10
237.6437201173713
 20
-334.7643984314679
 30
0.0
 10
237.6437201173713
 20
-334.7643984314679
 30
0.0
 10
237.6437201173713
 20
-334.7643984314679
 30
0.0
 10
205.4265961904366
 20
-151.9647148585082
 30
0.0
 10
205.4265961904366
 20
-151.9647148585082
 30
0.0
 10
205.4265961904366
 20
-151.9647148585082
 30
0.0
 10
193.8535613369304
 20
-143.9199225141618
 30
0.0
 10
193.8535613369304
 20
-143.9199225141618
 30
0.0
 10
193.8535613369304
 20
-143.9199225141618
 30
0.0
 10
193.8395662153675
 20
-143.9223902316881
 30
0.0
 10
193.8395662153675
 20
-143.9223902316881
 30
0.0
 10
193.1917616243724
 20
-143.4104304063918
 30
0.0
 10
192.3549805763023
 20
-143.146059529417
 30
0.0
 10
191.4775288634395
 20
-143.3007779406147
 30
0.0
 10
190.6005012451764
 20
-143.4554215725082
 30
0.0
 10
189.9050285288497
 20
-143.9899701293582
 30
0.0
 10
189.4709678131625
 20
-144.6926919976578
 30
0.0
 10
189.4709678131625
 20
-144.6926919976578
 30
0.0
 10
27.20033226374234
 20
-173.3053832240184
 30
0.0
 10
27.20033226374234
 20
-173.3053832240184
 30
0.0
 10
27.20033226374234
 20
-173.3053832240184
 30
0.0
 10
9.493280254328313
 20
-175.3895110356297
 30
0.0
 10
9.493280254328313
 20
-175.3895110356297
 30
0.0
 10
9.493280254328313
 20
-175.3895110356297
 30
0.0
 10
-2.126911593084806
 20
-177.4384643787403
 30
0.0
 10
-2.126911593084806
 20
-177.4384643787403
 30
0.0
 10
-1.839160773219565
 20
-179.0703803724979
 30
0.0
 10
-2.929173986359467
 20
-180.6260187889534
 30
0.0
 10
-4.56066588552137
 20
-180.9136948294972
 30
0.0
 10
-6.192157784687764
 20
-181.2013708700404
 30
0.0
 10
-7.748494831680389
 20
-180.1123554047253
 30
0.0
 10
-8.036245651549478
 20
-178.4804394109638
 30
0.0
 10
-8.036245651549478
 20
-178.4804394109638
 30
0.0
 10
-11.12104212270758
 20
-160.9856892617111
 30
0.0
 10
-11.12104212270758
 20
-160.9856892617111
 30
0.0
 10
-11.12104212270758
 20
-160.9856892617111
 30
0.0
 10
-11.11807346056445
 20
-160.9851658064746
 30
0.0
 10
-11.11807346056445
 20
-160.9851658064746
 30
0.0
 10
-11.11897081239081
 20
-160.9800766713658
 30
0.0
 10
-11.12268726773156
 20
-160.9763591806715
 30
0.0
 10
-11.12358461955855
 20
-160.9712700455524
 30
0.0
 10
-11.41133543942059
 20
-159.3393540517973
 30
0.0
 10
-10.32132222628774
 20
-157.7837156353534
 30
0.0
 10
-8.68983032712552
 20
-157.4960395947986
 30
0.0
 10
-7.058338427956558
 20
-157.2083635542478
 30
0.0
 10
-5.502001380966501
 20
-158.2973790195706
 30
0.0
 10
-5.214250561101581
 20
-159.9292950133251
 30
0.0
 10
-5.213353209267523
 20
-159.9343841484448
 30
0.0
 10
-5.215574078219453
 20
-159.9391485496121
 30
0.0
 10
-5.214676726393737
 20
-159.9442376847139
 30
0.0
 10
-5.214676726393737
 20
-159.9442376847139
 30
0.0
 10
6.408483783174703
 20
-157.8947608863738
 30
0.0
 10
6.408483783174703
 20
-157.8947608863738
 30
0.0
 10
6.408483783174703
 20
-157.8947608863738
 30
0.0
 10
23.76197917190444
 20
-153.8055138391971
 30
0.0
 10
23.76197917190444
 20
-153.8055138391971
 30
0.0
 10
23.76197917190444
 20
-153.8055138391971
 30
0.0
 10
341.4027283920034
 20
-97.79687957055515
 30
0.0
 10
341.4027283920034
 20
-97.79687957055515
 30
0.0
 10
342.0480150674527
 20
-98.29703952656446
 30
0.0
 10
342.8777627181242
 20
-98.55128129595633
 30
0.0
 10
343.7450361607526
 20
-98.39835758841592
 30
0.0
 10
344.6127336979723
 20
-98.24535910155022
 30
0.0
 10
345.3054856360687
 20
-97.72265957662205
 30
0.0
 10
345.7412160781037
 20
-97.0318871362485
 30
0.0
 10
345.7412160781037
 20
-97.0318871362485
 30
0.0
 10
345.7700545104172
 20
-97.02680214254977
 30
0.0
 10
345.7700545104172
 20
-97.02680214254977
 30
0.0
 10
345.7700545104172
 20
-97.02680214254977
 30
0.0
 10
350.7115180035813
 20
-89.95283762678679
 30
0.0
 10
350.7115180035813
 20
-89.95283762678679
 30
0.0
 10
350.7115180035813
 20
-89.95283762678679
 30
0.0
 10
162.6454369633574
 20
-47.4856222342965
 30
0.0
 10
162.6454369633574
 20
-47.4856222342965
 30
0.0
 10
162.6454369633574
 20
-47.4856222342965
 30
0.0
 10
121.0283565386042
 20
-40.69135994274879
 30
0.0
 10
121.0283565386042
 20
-40.69135994274879
 30
0.0
 10
121.0283565386042
 20
-40.69135994274879
 30
0.0
 10
96.39668049334044
 20
-44.15079323795857
 30
0.0
 10
96.39668049334044
 20
-44.15079323795857
 30
0.0
 10
96.39668049334044
 20
-44.15079323795857
 30
0.0
 10
-23.74072607949269
 20
-83.60431608455848
 30
0.0
 10
-23.74072607949269
 20
-83.60431608455848
 30
0.0
 10
-23.74072607949269
 20
-83.60431608455848
 30
0.0
 10
-150.7299709087457
 20
-125.3074993818346
 30
0.0
 10
-150.7299709087457
 20
-125.3074993818346
 30
0.0
 10
-150.7299709087457
 20
-125.3074993818346
 30
0.0
 10
-319.7209737547867
 20
-139.0400576533166
 30
0.0
 10
-319.7209737547867
 20
-139.0400576533166
 30
0.0
 10
-319.7209737547867
 20
-139.0400576533166
 30
0.0
 10
-414.0086590582877
 20
-148.3987630819287
 30
0.0
 10
-414.0086590582877
 20
-148.3987630819287
 30
0.0
 10
-414.0086590582877
 20
-148.3987630819287
 30
0.0
 10
-404.5733056662986
 20
-201.9091128982041
 30
0.0
 10
-404.5733056662986
 20
-201.9091128982041
 30
0.0
 10
-404.5733056662986
 20
-201.9091128982041
 30
0.0
 10
-395.5025024792747
 20
-253.3521941576514
 30
0.0
 10
-395.5025024792747
 20
-253.3521941576514
 30
0.0
 10
-395.5025024792747
 20
-253.3521941576514
 30
0.0
 10
-383.2703468306005
 20
-322.7247913629837
 30
0.0
 10
-383.2703468306005
 20
-322.7247913629837
 30
0.0
 10
-383.2703468306005
 20
-322.7247913629837
 30
0.0
 10
-365.6587620073586
 20
-422.6028699470206
 30
0.0
 10
-365.6587620073586
 20
-422.6028699470206
 30
0.0
 10
-365.6587620073586
 20
-422.6028699470206
 30
0.0
 10
-340.0282601399285
 20
-416.8305907191868
 30
0.0
 10
-340.0282601399285
 20
-416.8305907191868
 30
0.0
 10
-340.0282601399285
 20
-416.8305907191868
 30
0.0
 10
-311.2708830853737
 20
-383.003440683934
 30
0.0
 10
-311.2708830853737
 20
-383.003440683934
 30
0.0
 10
-311.2708830853737
 20
-383.003440683934
 30
0.0
 10
-304.4651200959835
 20
-334.5559562554514
 30
0.0
 10
-304.4651200959835
 20
-334.5559562554514
 30
0.0
 10
-304.4651200959835
 20
-334.5559562554514
 30
0.0
 10
-272.8678089553786
 20
-319.3169571264883
 30
0.0
 10
-272.8678089553786
 20
-319.3169571264883
 30
0.0
 10
-272.8678089553786
 20
-319.3169571264883
 30
0.0
 10
-134.5553350870937
 20
-350.187646884344
 30
0.0
 10
-134.5553350870937
 20
-350.187646884344
 30
0.0
 10
-134.5553350870937
 20
-350.187646884344
 30
0.0
 10
-79.41061734727568
 20
-349.4258707722385
 30
0.0
 10
-79.41061734727568
 20
-349.4258707722385
 30
0.0
 10
-79.41061734727568
 20
-349.4258707722385
 30
0.0
 10
-46.23407099050578
 20
-394.8491884355918
 30
0.0
 10
-46.23407099050578
 20
-394.8491884355918
 30
0.0
 10
-46.23407099050578
 20
-394.8491884355918
 30
0.0
 10
-6.18940138027585
 20
-414.4715605905074
 30
0.0
 10
-6.18940138027585
 20
-414.4715605905074
 30
0.0
 10
-6.18940138027585
 20
-414.4715605905074
 30
0.0
 10
42.40340713126957
 20
-424.6305443061158
 30
0.0
 10
42.40340713126957
 20
-424.6305443061158
 30
0.0
 10
42.40340713126957
 20
-424.6305443061158
 30
0.0
 10
37.1312617249615
 20
-482.7983254714529
 30
0.0
 10
37.1312617249615
 20
-482.7983254714529
 30
0.0
 10
37.1312617249615
 20
-482.7983254714529
 30
0.0
 10
81.79809494178842
 20
-707.3768062234697
 30
0.0
 10
81.79809494178842
 20
-707.3768062234697
 30
0.0
 10
81.79809494178842
 20
-707.3768062234697
 30
0.0
 10
93.42469692637036
 20
-741.2227397485017
 30
0.0
 10
93.42469692637036
 20
-741.2227397485017
 30
0.0
 10
93.42469692637036
 20
-741.2227397485017
 30
0.0
 10
-90.07293300653052
 20
-808.5864861862168
 30
0.0
 10
-90.07293300653052
 20
-808.5864861862168
 30
0.0
 10
-90.07293300653052
 20
-808.5864861862168
 30
0.0
 10
-152.1774860814826
 20
-829.5904413201476
 30
0.0
 10
-152.1774860814826
 20
-829.5904413201476
 30
0.0
 10
-152.1774860814826
 20
-829.5904413201476
 30
0.0
 10
-251.2135024404167
 20
-844.0017168329279
 30
0.0
 10
-251.2135024404167
 20
-844.0017168329279
 30
0.0
 10
-251.2135024404167
 20
-844.0017168329279
 30
0.0
 10
-282.4523883597026
 20
-845.8586505717437
 30
0.0
 10
-282.4523883597026
 20
-845.8586505717437
 30
0.0
 10
-282.4523883597026
 20
-845.8586505717437
 30
0.0
 10
-289.7822113136495
 20
-852.9223552424935
 30
0.0
 10
-289.7822113136495
 20
-852.9223552424935
 30
0.0
 10
-289.7822113136495
 20
-852.9223552424935
 30
0.0
 10
-280.6676696461366
 20
-904.6166640736915
 30
0.0
 10
-280.6676696461366
 20
-904.6166640736915
 30
0.0
 10
-280.6676696461366
 20
-904.6166640736915
 30
0.0
 10
-268.6636899912688
 20
-972.6906478240426
 30
0.0
 10
-268.6636899912688
 20
-972.6906478240426
 30
0.0
 10
-268.6636899912688
 20
-972.6906478240426
 30
0.0
 10
-256.4113477766416
 20
-1042.176736758294
 30
0.0
 10
-256.4113477766416
 20
-1042.176736758294
 30
0.0
 10
-256.4113477766416
 20
-1042.176736758294
 30
0.0
 10
-252.6704853385534
 20
-1063.391626730576
 30
0.0
 10
-252.6704853385534
 20
-1063.391626730576
 30
0.0
 10
-252.6704853385534
 20
-1063.391626730576
 30
0.0
 10
-237.9838784251367
 20
-1064.87428476807
 30
0.0
 10
-237.9838784251367
 20
-1064.87428476807
 30
0.0
 10
-237.9838784251367
 20
-1064.87428476807
 30
0.0
 10
-207.2183158101665
 20
-1059.060621467041
 30
0.0
 10
-207.2183158101665
 20
-1059.060621467041
 30
0.0
 10
-207.2183158101665
 20
-1059.060621467041
 30
0.0
 10
-205.4893575619275
 20
-1047.382416202077
 30
0.0
 10
-205.4893575619275
 20
-1047.382416202077
 30
0.0
 10
-205.4893575619275
 20
-1047.382416202077
 30
0.0
 10
-191.8429376762286
 20
-1006.918673499982
 30
0.0
 10
-191.8429376762286
 20
-1006.918673499982
 30
0.0
 10
-191.8429376762286
 20
-1006.918673499982
 30
0.0
 10
-169.2417581259216
 20
-988.6938831748995
 30
0.0
 10
-169.2417581259216
 20
-988.6938831748995
 30
0.0
 10
-169.2417581259216
 20
-988.6938831748995
 30
0.0
 10
-129.4504011943867
 20
-974.2392821656275
 30
0.0
 10
-129.4504011943867
 20
-974.2392821656275
 30
0.0
 10
-129.4504011943867
 20
-974.2392821656275
 30
0.0
 10
12.66087294993731
 20
-975.4610009761947
 30
0.0
 10
12.66087294993731
 20
-975.4610009761947
 30
0.0
 10
12.66087294993731
 20
-975.4610009761947
 30
0.0
 10
93.64612426080045
 20
-962.6272892383856
 30
0.0
 10
93.64612426080045
 20
-962.6272892383856
 30
0.0
 10
93.64612426080045
 20
-962.6272892383856
 30
0.0
 10
170.495784701934
 20
-978.3072980866898
 30
0.0
 10
170.495784701934
 20
-978.3072980866898
 30
0.0
 10
170.495784701934
 20
-978.3072980866898
 30
0.0
 10
213.3143612357271
 20
-982.1425435755167
 30
0.0
 10
213.3143612357271
 20
-982.1425435755167
 30
0.0
 10
213.3143612357271
 20
-982.1425435755167
 30
0.0
 10
217.9564268924167
 20
-981.5401349968217
 30
0.0
 10
217.9564268924167
 20
-981.5401349968217
 30
0.0
 10
217.9564268924167
 20
-981.5401349968217
 30
0.0
 10
582.6478187961603
 20
-917.2352030327147
 30
0.0
 10
582.6478187961603
 20
-917.2352030327147
 30
0.0
 10
582.6478187961603
 20
-917.2352030327147
 30
0.0
 10
583.0166804903834
 20
-916.7031475055279
 30
0.0
 10
583.0166804903834
 20
-916.7031475055279
 30
0.0
 10
583.0166804903834
 20
-916.7031475055279
 30
0.0
 10
593.4833246495317
 20
-890.6262475273099
 30
0.0
 10
593.4833246495317
 20
-890.6262475273099
 30
0.0
 10
593.4833246495317
 20
-890.6262475273099
 30
0.0
 10
578.7865158682179
 20
-858.1889001096197
 30
0.0
 10
578.7865158682179
 20
-858.1889001096197
 30
0.0
 10
578.7865158682179
 20
-858.1889001096197
 30
0.0
 10
571.7234746068211
 20
-793.3833481001475
 30
0.0
 10
571.7234746068211
 20
-793.3833481001475
 30
0.0
  0
ENDBLK
  5
4E
330
4B
100
AcDbEntity
  8
0
100
AcDbBlockEnd
  0
BLOCK
  5
52
330
50
100
AcDbEntity
  8
0
100
AcDbBlockBegin
  2
block 5
 70
     0
 10
0.0
 20
0.0
 30
0.0
  3
block 5
  1

  0
SPLINE
  5
54
330
50
100
AcDbEntity
  8
dog bone slots
 62
     8
420
  8421504
370
    18
100
AcDbSpline
210
0.0
220
0.0
230
1.0
 70
    11
 71
     3
 72
   326
 73
   322
 74
     0
 42
0.0000000001
 43
0.0000000001
 12
1.0
 22
0.0
 32
0.0
 13
1.0
 23
0.0
 33
0.0
 40
0.0
 40
0.0
 40
0.0
 40
0.0
 40
1.0
 40
1.0
 40
1.0
 40
2.0
 40
2.0
 40
2.0
 40
3.0
 40
3.0
 40
3.0
 40
4.0
 40
4.0
 40
4.0
 40
5.0
 40
5.0
 40
5.0
 40
6.0
 40
6.0
 40
6.0
 40
7.0
 40
7.0
 40
7.0
 40
8.0
 40
8.0
 40
8.0
 40
9.0
 40
9.0
 40
9.0
 40
10.0
 40
10.0
 40
10.0
 40
11.0
 40
11.0
 40
11.0
 40
12.0
 40
12.0
 40
12.0
 40
13.0
 40
13.0
 40
13.0
 40
14.0
 40
14.0
 40
14.0
 40
15.0
 40
15.0
 40
15.0
 40
16.0
 40
16.0
 40
16.0
 40
17.0
 40
17.0
 40
17.0
 40
18.0
 40
18.0
 40
18.0
 40
19.0
 40
19.0
 40
19.0
 40
20.0
 40
20.0
 40
20.0
 40
21.0
 40
21.0
 40
21.0
 40
22.0
 40
22.0
 40
22.0
 40
23.0
 40
23.0
 40
23.0
 40
24.0
 40
24.0
 40
24.0
 40
25.0
 40
25.0
 40
25.0
 40
26.0
 40
26.0
 40
26.0
 40
27.0
 40
27.0
 40
27.0
 40
28.0
 40
28.0
 40
28.0
 40
29.0
 40
29.0
 40
29.0
 40
30.0
 40
30.0
 40
30.0
 40
31.0
 40
31.0
 40
31.0
 40
32.0
 40
32.0
 40
32.0
 40
33.0
 40
33.0
 40
33.0
 40
34.0
 40
34.0
 40
34.0
 40
35.0
 40
35.0
 40
35.0
 40
36.0
 40
36.0
 40
36.0
 40
37.0
 40
37.0
 40
37.0
 40
38.0
 40
38.0
 40
38.0
 40
39.0
 40
39.0
 40
39.0
 40
40.0
 40
40.0
 40
40.0
 40
41.0
 40
41.0
 40
41.0
 40
42.0
 40
42.0
 40
42.0
 40
43.0
 40
43.0
 40
43.0
 40
44.0
 40
44.0
 40
44.0
 40
45.0
 40
45.0
 40
45.0
 40
46.0
 40
46.0
 40
46.0
 40
47.0
 40
47.0
 40
47.0
 40
48.0
 40
48.0
 40
48.0
 40
49.0
 40
49.0
 40
49.0
 40
50.0
 40
50.0
 40
50.0
 40
51.0
 40
51.0
 40
51.0
 40
52.0
 40
52.0
 40
52.0
 40
53.0
 40
53.0
 40
53.0
 40
54.0
 40
54.0
 40
54.0
 40
55.0
 40
55.0
 40
55.0
 40
56.0
 40
56.0
 40
56.0
 40
57.0
 40
57.0
 40
57.0
 40
58.0
 40
58.0
 40
58.0
 40
59.0
 40
59.0
 40
59.0
 40
60.0
 40
60.0
 40
60.0
 40
61.0
 40
61.0
 40
61.0
 40
62.0
 40
62.0
 40
62.0
 40
63.0
 40
63.0
 40
63.0
 40
64.0
 40
64.0
 40
64.0
 40
65.0
 40
65.0
 40
65.0
 40
66.0
 40
66.0
 40
66.0
 40
67.0
 40
67.0
 40
67.0
 40
68.0
 40
68.0
 40
68.0
 40
69.0
 40
69.0
 40
69.0
 40
70.0
 40
70.0
 40
70.0
 40
71.0
 40
71.0
 40
71.0
 40
72.0
 40
72.0
 40
72.0
 40
73.0
 40
73.0
 40
73.0
 40
74.0
 40
74.0
 40
74.0
 40
75.0
 40
75.0
 40
75.0
 40
76.0
 40
76.0
 40
76.0
 40
77.0
 40
77.0
 40
77.0
 40
78.0
 40
78.0
 40
78.0
 40
79.0
 40
79.0
 40
79.0
 40
80.0
 40
80.0
 40
80.0
 40
81.0
 40
81.0
 40
81.0
 40
82.0
 40
82.0
 40
82.0
 40
83.0
 40
83.0
 40
83.0
 40
84.0
 40
84.0
 40
84.0
 40
85.0
 40
85.0
 40
85.0
 40
86.0
 40
86.0
 40
86.0
 40
87.0
 40
87.0
 40
87.0
 40
88.0
 40
88.0
 40
88.0
 40
89.0
 40
89.0
 40
89.0
 40
90.0
 40
90.0
 40
90.0
 40
91.0
 40
91.0
 40
91.0
 40
92.0
 40
92.0
 40
92.0
 40
93.0
 40
93.0
 40
93.0
 40
94.0
 40
94.0
 40
94.0
 40
95.0
 40
95.0
 40
95.0
 40
96.0
 40
96.0
 40
96.0
 40
97.0
 40
97.0
 40
97.0
 40
98.0
 40
98.0
 40
98.0
 40
99.0
 40
99.0
 40
99.0
 40
100.0
 40
100.0
 40
100.0
 40
101.0
 40
101.0
 40
101.0
 40
102.0
 40
102.0
 40
102.0
 40
103.0
 40
103.0
 40
103.0
 40
104.0
 40
104.0
 40
104.0
 40
105.0
 40
105.0
 40
105.0
 40
106.0
 40
106.0
 40
106.0
 40
107.0
 40
107.0
 40
107.0
 40
107.0
 10
924.8600206436809
 20
-19.45722510075679
 30
0.0
 10
924.8600206436809
 20
-19.45722510075679
 30
0.0
 10
930.9525693827259
 20
-49.92502813927508
 30
0.0
 10
930.9525693827259
 20
-49.92502813927508
 30
0.0
 10
930.9525693827259
 20
-49.92502813927508
 30
0.0
 10
909.1272588362481
 20
-87.14844818764395
 30
0.0
 10
909.1272588362481
 20
-87.14844818764395
 30
0.0
 10
909.1272588362481
 20
-87.14844818764395
 30
0.0
 10
859.9201173523642
 20
-123.3053770081091
 30
0.0
 10
859.9201173523642
 20
-123.3053770081091
 30
0.0
 10
859.9201173523642
 20
-123.3053770081091
 30
0.0
 10
861.3673633189861
 20
-192.0859517357968
 30
0.0
 10
861.3673633189861
 20
-192.0859517357968
 30
0.0
 10
861.3673633189861
 20
-192.0859517357968
 30
0.0
 10
795.6861551166535
 20
-335.7276843646828
 30
0.0
 10
795.6861551166535
 20
-335.7276843646828
 30
0.0
 10
795.6861551166535
 20
-335.7276843646828
 30
0.0
 10
770.5380089185995
 20
-429.1484430898397
 30
0.0
 10
770.5380089185995
 20
-429.1484430898397
 30
0.0
 10
770.5380089185995
 20
-429.1484430898397
 30
0.0
 10
718.6706253149086
 20
-534.3330692216975
 30
0.0
 10
718.6706253149086
 20
-534.3330692216975
 30
0.0
 10
718.6706253149086
 20
-534.3330692216975
 30
0.0
 10
641.4417048232377
 20
-692.3392324861593
 30
0.0
 10
641.4417048232377
 20
-692.3392324861593
 30
0.0
 10
641.4417048232377
 20
-692.3392324861593
 30
0.0
 10
634.3684847065201
 20
-702.5668569126505
 30
0.0
 10
634.3684847065201
 20
-702.5668569126505
 30
0.0
 10
634.3684847065201
 20
-702.5668569126505
 30
0.0
 10
611.8458846004553
 20
-716.7234661844544
 30
0.0
 10
611.8458846004553
 20
-716.7234661844544
 30
0.0
 10
611.8458846004553
 20
-716.7234661844544
 30
0.0
 10
525.5048391560871
 20
-766.7930802879233
 30
0.0
 10
525.5048391560871
 20
-766.7930802879233
 30
0.0
 10
525.5048391560871
 20
-766.7930802879233
 30
0.0
 10
520.0416090964554
 20
-769.9611171426216
 30
0.0
 10
520.0416090964554
 20
-769.9611171426216
 30
0.0
 10
520.0416090964554
 20
-769.9611171426216
 30
0.0
 10
500.5792130964603
 20
-769.7866100469859
 30
0.0
 10
500.5792130964603
 20
-769.7866100469859
 30
0.0
 10
500.5792130964603
 20
-769.7866100469859
 30
0.0
 10
471.9786670544747
 20
-769.5302129061215
 30
0.0
 10
471.9786670544747
 20
-769.5302129061215
 30
0.0
 10
471.9786670544747
 20
-769.5302129061215
 30
0.0
 10
454.7783648665225
 20
-765.1222518975095
 30
0.0
 10
454.7783648665225
 20
-765.1222518975095
 30
0.0
 10
454.7783648665225
 20
-765.1222518975095
 30
0.0
 10
448.0067299304924
 20
-753.4236710200026
 30
0.0
 10
448.0067299304924
 20
-753.4236710200026
 30
0.0
 10
448.0067299304924
 20
-753.4236710200026
 30
0.0
 10
448.0143090092414
 20
-753.3953855130208
 30
0.0
 10
448.0143090092414
 20
-753.3953855130208
 30
0.0
 10
447.572404209482
 20
-752.7085465723326
 30
0.0
 10
447.3914471796791
 20
-751.8597977317095
 30
0.0
 10
447.6194882845555
 20
-751.0087367423728
 30
0.0
 10
447.8474179323895
 20
-750.1580917163745
 30
0.0
 10
448.4285057376178
 20
-749.5135321739588
 30
0.0
 10
449.1545145336241
 20
-749.1400805663538
 30
0.0
 10
449.1545145336241
 20
-749.1400805663538
 30
0.0
 10
503.2293332860791
 20
-547.3301095827735
 30
0.0
 10
503.2293332860791
 20
-547.3301095827735
 30
0.0
 10
503.2293332860791
 20
-547.3301095827735
 30
0.0
 10
506.857120900973
 20
-529.874311100867
 30
0.0
 10
506.857120900973
 20
-529.874311100867
 30
0.0
 10
506.857120900973
 20
-529.874311100867
 30
0.0
 10
509.9118240101374
 20
-518.4740038991696
 30
0.0
 10
509.9118240101374
 20
-518.4740038991696
 30
0.0
 10
509.916815570194
 20
-518.4753413836534
 30
0.0
 10
509.920195004291
 20
-518.4793676974218
 30
0.0
 10
509.9251865643475
 20
-518.4807051819159
 30
0.0
 10
511.5258134885689
 20
-518.9095918737788
 30
0.0
 10
513.1705331425037
 20
-517.9593093118497
 30
0.0
 10
513.5993083773357
 20
-516.3590983509642
 30
0.0
 10
514.0280836121639
 20
-514.7588873900897
 30
0.0
 10
513.0788558909908
 20
-513.1135587235545
 30
0.0
 10
511.4782289667649
 20
-512.6846720316807
 30
0.0
 10
511.473237406709
 20
-512.6833345471975
 30
0.0
 10
511.4682975740459
 20
-512.6851317201582
 30
0.0
 10
511.4633060139893
 20
-512.6837942356743
 30
0.0
 10
511.4633060139893
 20
-512.6837942356743
 30
0.0
 10
511.4640862132759
 20
-512.680882492303
 30
0.0
 10
511.4640862132759
 20
-512.680882492303
 30
0.0
 10
511.4640862132759
 20
-512.680882492303
 30
0.0
 10
494.3047665984261
 20
-508.0830566573229
 30
0.0
 10
494.3047665984261
 20
-508.0830566573229
 30
0.0
 10
492.7041396742041
 20
-507.6541699654601
 30
0.0
 10
491.05942002027
 20
-508.6044525273859
 30
0.0
 10
490.6306447854374
 20
-510.2046634882714
 30
0.0
 10
490.2018695506098
 20
-511.8048744491497
 30
0.0
 10
491.1510972717829
 20
-513.4502031156843
 30
0.0
 10
492.7517241960088
 20
-513.8790898075542
 30
0.0
 10
492.7517241960088
 20
-513.8790898075542
 30
0.0
 10
489.6978012861232
 20
-525.2764852658798
 30
0.0
 10
489.6978012861232
 20
-525.2764852658798
 30
0.0
 10
489.6978012861232
 20
-525.2764852658798
 30
0.0
 10
484.1033390096622
 20
-542.205314860282
 30
0.0
 10
484.1033390096622
 20
-542.205314860282
 30
0.0
 10
484.1033390096622
 20
-542.205314860282
 30
0.0
 10
430.0325327106684
 20
-744.0003111636868
 30
0.0
 10
430.0325327106684
 20
-744.0003111636868
 30
0.0
 10
430.4859730268442
 20
-744.6906868648546
 30
0.0
 10
430.6765190759875
 20
-745.5469091852516
 30
0.0
 10
430.446025916223
 20
-746.4071213680207
 30
0.0
 10
430.2154212994104
 20
-747.2677495141206
 30
0.0
 10
429.622180962917
 20
-747.9144027335366
 30
0.0
 10
428.8844137364018
 20
-748.2851495073515
 30
0.0
 10
428.8844137364018
 20
-748.2851495073515
 30
0.0
 10
428.8807356540646
 20
-748.2988762975009
 30
0.0
 10
428.8807356540646
 20
-748.2988762975009
 30
0.0
 10
428.8807356540646
 20
-748.2988762975009
 30
0.0
 10
416.6987018342049
 20
-755.3877317478607
 30
0.0
 10
416.6987018342049
 20
-755.3877317478607
 30
0.0
 10
416.6987018342049
 20
-755.3877317478607
 30
0.0
 10
411.4020409668661
 20
-753.9684957496098
 30
0.0
 10
411.4020409668661
 20
-753.9684957496098
 30
0.0
 10
411.4020409668661
 20
-753.9684957496098
 30
0.0
 10
316.8738644146375
 20
-674.0962738396422
 30
0.0
 10
316.8738644146375
 20
-674.0962738396422
 30
0.0
 10
316.8738644146375
 20
-674.0962738396422
 30
0.0
 10
306.6298852043964
 20
-657.1001718555513
 30
0.0
 10
306.6298852043964
 20
-657.1001718555513
 30
0.0
 10
306.6298852043964
 20
-657.1001718555513
 30
0.0
 10
303.8452162640485
 20
-623.6683978672077
 30
0.0
 10
303.8452162640485
 20
-623.6683978672077
 30
0.0
 10
303.8452162640485
 20
-623.6683978672077
 30
0.0
 10
315.7545962954375
 20
-422.8413351560741
 30
0.0
 10
315.7545962954375
 20
-422.8413351560741
 30
0.0
 10
315.7545962954375
 20
-422.8413351560741
 30
0.0
 10
361.8056383179624
 20
-235.7462587086927
 30
0.0
 10
361.8056383179624
 20
-235.7462587086927
 30
0.0
 10
361.8056383179624
 20
-235.7462587086927
 30
0.0
 10
370.1150335084066
 20
-154.2437468291639
 30
0.0
 10
370.1150335084066
 20
-154.2437468291639
 30
0.0
 10
370.1150335084066
 20
-154.2437468291639
 30
0.0
 10
388.4369845188193
 20
-23.57541728740114
 30
0.0
 10
388.4369845188193
 20
-23.57541728740114
 30
0.0
 10
388.4369845188193
 20
-23.57541728740114
 30
0.0
 10
407.6248364430183
 20
46.82365280700412
 30
0.0
 10
407.6248364430183
 20
46.82365280700412
 30
0.0
 10
407.6248364430183
 20
46.82365280700412
 30
0.0
 10
398.2118428456273
 20
65.99500376402214
 30
0.0
 10
398.2118428456273
 20
65.99500376402214
 30
0.0
 10
398.2118428456273
 20
65.99500376402214
 30
0.0
 10
410.6917357662732
 20
111.7829773194355
 30
0.0
 10
410.6917357662732
 20
111.7829773194355
 30
0.0
 10
410.6917357662732
 20
111.7829773194355
 30
0.0
 10
425.9258198621768
 20
114.2319695223454
 30
0.0
 10
425.9258198621768
 20
114.2319695223454
 30
0.0
 10
425.9258198621768
 20
114.2319695223454
 30
0.0
 10
497.0825597721353
 20
95.16547144148288
 30
0.0
 10
497.0825597721353
 20
95.16547144148288
 30
0.0
 10
497.0825597721353
 20
95.16547144148288
 30
0.0
 10
504.1754351036651
 20
82.91191964812646
 30
0.0
 10
504.1754351036651
 20
82.91191964812646
 30
0.0
 10
504.1754351036651
 20
82.91191964812646
 30
0.0
 10
504.1678560249123
 20
82.88363414115612
 30
0.0
 10
504.1678560249123
 20
82.88363414115612
 30
0.0
 10
504.6097608246678
 20
82.19679520045771
 30
0.0
 10
504.7907178544714
 20
81.34804635983973
 30
0.0
 10
504.562676749595
 20
80.4969853705011
 30
0.0
 10
504.3347471017603
 20
79.64634034450992
 30
0.0
 10
503.7536592965359
 20
79.00178080208708
 30
0.0
 10
503.0276505005264
 20
78.62832919448863
 30
0.0
 10
503.0276505005264
 20
78.62832919448863
 30
0.0
 10
413.854581724043
 20
-254.1700941394468
 30
0.0
 10
413.854581724043
 20
-254.1700941394468
 30
0.0
 10
413.854581724043
 20
-254.1700941394468
 30
0.0
 10
410.2267941091485
 20
-271.6258926213571
 30
0.0
 10
410.2267941091485
 20
-271.6258926213571
 30
0.0
 10
410.2267941091485
 20
-271.6258926213571
 30
0.0
 10
407.1720909999796
 20
-283.0261998230507
 30
0.0
 10
407.1720909999796
 20
-283.0261998230507
 30
0.0
 10
407.1670994399268
 20
-283.0248623385707
 30
0.0
 10
407.1637200058299
 20
-283.0208360247946
 30
0.0
 10
407.1587284457746
 20
-283.0194985403076
 30
0.0
 10
405.5581015215564
 20
-282.5906118484415
 30
0.0
 10
403.913381867614
 20
-283.5408944103744
 30
0.0
 10
403.4846066327897
 20
-285.1411053712528
 30
0.0
 10
403.055831397957
 20
-286.7413163321382
 30
0.0
 10
404.0050591191346
 20
-288.386644998676
 30
0.0
 10
405.6056860433534
 20
-288.8155316905357
 30
0.0
 10
405.6106776034087
 20
-288.8168691750298
 30
0.0
 10
405.6156174360723
 20
-288.8150720020627
 30
0.0
 10
405.620608996129
 20
-288.8164094865568
 30
0.0
 10
405.620608996129
 20
-288.8164094865568
 30
0.0
 10
405.6198287968424
 20
-288.8193212299179
 30
0.0
 10
405.6198287968424
 20
-288.8193212299179
 30
0.0
 10
405.6198287968424
 20
-288.8193212299179
 30
0.0
 10
422.7791484116954
 20
-293.4171470649044
 30
0.0
 10
422.7791484116954
 20
-293.4171470649044
 30
0.0
 10
424.3797753359129
 20
-293.8460337567673
 30
0.0
 10
426.0244949898521
 20
-292.8957511948414
 30
0.0
 10
426.4532702246835
 20
-291.295540233963
 30
0.0
 10
426.8820454595084
 20
-289.6953292730782
 30
0.0
 10
425.9328177383347
 20
-288.0500006065398
 30
0.0
 10
424.3321908141133
 20
-287.6211139146699
 30
0.0
 10
424.3321908141133
 20
-287.6211139146699
 30
0.0
 10
427.3861137239912
 20
-276.2237184563443
 30
0.0
 10
427.3861137239912
 20
-276.2237184563443
 30
0.0
 10
427.3861137239912
 20
-276.2237184563443
 30
0.0
 10
432.9805760004638
 20
-259.2948888619492
 30
0.0
 10
432.9805760004638
 20
-259.2948888619492
 30
0.0
 10
432.9805760004638
 20
-259.2948888619492
 30
0.0
 10
522.1496323234852
 20
73.48855979183242
 30
0.0
 10
522.1496323234852
 20
73.48855979183242
 30
0.0
 10
521.6961920073095
 20
74.17893549297843
 30
0.0
 10
521.505645958163
 20
75.03515781337735
 30
0.0
 10
521.7361391179306
 20
75.89536999614455
 30
0.0
 10
521.96674373474
 20
76.75599814225407
 30
0.0
 10
522.5599840712327
 20
77.40265136167199
 30
0.0
 10
523.297751297748
 20
77.77339813548183
 30
0.0
 10
523.297751297748
 20
77.77339813548183
 30
0.0
 10
523.3014293800852
 20
77.78712492563494
 30
0.0
 10
523.3014293800852
 20
77.78712492563494
 30
0.0
 10
523.3014293800852
 20
77.78712492563494
 30
0.0
 10
535.4834631999448
 20
84.87598037599034
 30
0.0
 10
535.4834631999448
 20
84.87598037599034
 30
0.0
 10
535.4834631999448
 20
84.87598037599034
 30
0.0
 10
588.4954538499658
 20
70.67149601105577
 30
0.0
 10
588.4954538499658
 20
70.67149601105577
 30
0.0
 10
588.4954538499658
 20
70.67149601105577
 30
0.0
 10
575.9814704741563
 20
-16.01861924807156
 30
0.0
 10
575.9814704741563
 20
-16.01861924807156
 30
0.0
 10
575.9814704741563
 20
-16.01861924807156
 30
0.0
 10
544.209320934993
 20
-130.041087768354
 30
0.0
 10
544.209320934993
 20
-130.041087768354
 30
0.0
 10
544.209320934993
 20
-130.041087768354
 30
0.0
 10
548.7601201831201
 20
-253.6286561670984
 30
0.0
 10
548.7601201831201
 20
-253.6286561670984
 30
0.0
 10
548.7601201831201
 20
-253.6286561670984
 30
0.0
 10
618.4037440064776
 20
-276.8779297221668
 30
0.0
 10
618.4037440064776
 20
-276.8779297221668
 30
0.0
 10
618.4037440064776
 20
-276.8779297221668
 30
0.0
 10
620.6600862423805
 20
-275.3489595509851
 30
0.0
 10
620.6600862423805
 20
-275.3489595509851
 30
0.0
 10
620.6600862423805
 20
-275.3489595509851
 30
0.0
 10
652.8806772055957
 20
-235.2642653302467
 30
0.0
 10
652.8806772055957
 20
-235.2642653302467
 30
0.0
 10
652.8806772055957
 20
-235.2642653302467
 30
0.0
 10
698.6788521336531
 20
-53.08647721926909
 30
0.0
 10
698.6788521336531
 20
-53.08647721926909
 30
0.0
 10
698.6788521336531
 20
-53.08647721926909
 30
0.0
 10
703.181063328539
 20
-46.37147329198437
 30
0.0
 10
703.181063328539
 20
-46.37147329198437
 30
0.0
 10
703.181063328539
 20
-46.37147329198437
 30
0.0
 10
719.5226351613072
 20
-7.019819830517156
 30
0.0
 10
719.5226351613072
 20
-7.019819830517156
 30
0.0
 10
719.5226351613072
 20
-7.019819830517156
 30
0.0
 10
736.2087426415873
 20
31.09176820112956
 30
0.0
 10
736.2087426415873
 20
31.09176820112956
 30
0.0
 10
736.2087426415873
 20
31.09176820112956
 30
0.0
 10
775.8691753322842
 20
20.46482294376687
 30
0.0
 10
775.8691753322842
 20
20.46482294376687
 30
0.0
 10
775.8691753322842
 20
20.46482294376687
 30
0.0
 10
782.9620506638096
 20
8.211271150416868
 30
0.0
 10
782.9620506638096
 20
8.211271150416868
 30
0.0
 10
782.9620506638096
 20
8.211271150416868
 30
0.0
 10
782.9544715850567
 20
8.182985643445248
 30
0.0
 10
782.9544715850567
 20
8.182985643445248
 30
0.0
 10
783.3963763848161
 20
7.496146702753259
 30
0.0
 10
783.5773334146204
 20
6.647397862130139
 30
0.0
 10
783.3492923097363
 20
5.79633687278958
 30
0.0
 10
783.1213626619049
 20
4.945691846799693
 30
0.0
 10
782.5402748566803
 20
4.301132304375569
 30
0.0
 10
781.8142660606746
 20
3.927680696771334
 30
0.0
 10
781.8142660606746
 20
3.927680696771334
 30
0.0
 10
695.0592800518098
 20
-319.8463348912233
 30
0.0
 10
695.0592800518098
 20
-319.8463348912233
 30
0.0
 10
695.0592800518098
 20
-319.8463348912233
 30
0.0
 10
691.4314924369153
 20
-337.3021333731336
 30
0.0
 10
691.4314924369153
 20
-337.3021333731336
 30
0.0
 10
691.4314924369153
 20
-337.3021333731336
 30
0.0
 10
688.3767893277502
 20
-348.7024405748266
 30
0.0
 10
688.3767893277502
 20
-348.7024405748266
 30
0.0
 10
688.3717977676936
 20
-348.7011030903433
 30
0.0
 10
688.3684183335935
 20
-348.6970767765673
 30
0.0
 10
688.3634267735407
 20
-348.6957392920802
 30
0.0
 10
686.7627998493193
 20
-348.2668526002141
 30
0.0
 10
685.1180801953846
 20
-349.217135162147
 30
0.0
 10
684.6893049605558
 20
-350.8173461230286
 30
0.0
 10
684.2605297257238
 20
-352.4175570839108
 30
0.0
 10
685.2097574469046
 20
-354.0628857504454
 30
0.0
 10
686.8103843711195
 20
-354.4917724423121
 30
0.0
 10
686.8153759311793
 20
-354.4931099267993
 30
0.0
 10
686.820315763843
 20
-354.4913127538424
 30
0.0
 10
686.8253073238958
 20
-354.4926502383295
 30
0.0
 10
686.8253073238958
 20
-354.4926502383295
 30
0.0
 10
686.8245271246117
 20
-354.4955619816905
 30
0.0
 10
686.8245271246117
 20
-354.4955619816905
 30
0.0
 10
686.8245271246117
 20
-354.4955619816905
 30
0.0
 10
703.9838467394615
 20
-359.093387816677
 30
0.0
 10
703.9838467394615
 20
-359.093387816677
 30
0.0
 10
705.5844736636835
 20
-359.5222745085476
 30
0.0
 10
707.2291933176183
 20
-358.5719919466038
 30
0.0
 10
707.6579685524534
 20
-356.9717809857293
 30
0.0
 10
708.086743787279
 20
-355.3715700248509
 30
0.0
 10
707.1375160661047
 20
-353.7262413583124
 30
0.0
 10
705.5368891418833
 20
-353.2973546664457
 30
0.0
 10
705.5368891418833
 20
-353.2973546664457
 30
0.0
 10
708.5908120517612
 20
-341.899959208117
 30
0.0
 10
708.5908120517612
 20
-341.899959208117
 30
0.0
 10
708.5908120517612
 20
-341.899959208117
 30
0.0
 10
714.1852743282305
 20
-324.971129613718
 30
0.0
 10
714.1852743282305
 20
-324.971129613718
 30
0.0
 10
714.1852743282305
 20
-324.971129613718
 30
0.0
 10
800.9362478836342
 20
-1.212088705882314
 30
0.0
 10
800.9362478836342
 20
-1.212088705882314
 30
0.0
 10
800.4828075674552
 20
-0.5217130047318059
 30
0.0
 10
800.2922615183151
 20
0.3345093156652039
 30
0.0
 10
800.522754678079
 20
1.194721498434964
 30
0.0
 10
800.7533592948884
 20
2.055349644538068
 30
0.0
 10
801.3465996313818
 20
2.702002863961117
 30
0.0
 10
802.0843668578976
 20
3.072749637775448
 30
0.0
 10
802.0843668578976
 20
3.072749637775448
 30
0.0
 10
802.0880449402304
 20
3.086476427925346
 30
0.0
 10
802.0880449402304
 20
3.086476427925346
 30
0.0
 10
802.0880449402304
 20
3.086476427925346
 30
0.0
 10
814.2700787600907
 20
10.17533187827497
 30
0.0
 10
814.2700787600907
 20
10.17533187827497
 30
0.0
 10
814.2700787600907
 20
10.17533187827497
 30
0.0
 10
924.8600206436809
 20
-19.45722510075679
 30
0.0
 10
924.8600206436809
 20
-19.45722510075679
 30
0.0
  0
ENDBLK
  5
53
330
50
100
AcDbEntity
  8
0
100
AcDbBlockEnd
  0
BLOCK
  5
57
330
55
100
AcDbEntity
  8
0
100
AcDbBlockBegin
  2
block 6
 70
     0
 10
0.0
 20
0.0
 30
0.0
  3
block 6
  1

  0
SPLINE
  5
59
330
55
100
AcDbEntity
  8
dog bone slots
 62
     8
420
  8421504
370
    18
100
AcDbSpline
210
0.0
220
0.0
230
1.0
 70
    11
 71
     3
 72
   275
 73
   271
 74
     0
 42
0.0000000001
 43
0.0000000001
 12
1.0
 22
0.0
 32
0.0
 13
1.0
 23
0.0
 33
0.0
 40
0.0
 40
0.0
 40
0.0
 40
0.0
 40
1.0
 40
1.0
 40
1.0
 40
2.0
 40
2.0
 40
2.0
 40
3.0
 40
3.0
 40
3.0
 40
4.0
 40
4.0
 40
4.0
 40
5.0
 40
5.0
 40
5.0
 40
6.0
 40
6.0
 40
6.0
 40
7.0
 40
7.0
 40
7.0
 40
8.0
 40
8.0
 40
8.0
 40
9.0
 40
9.0
 40
9.0
 40
10.0
 40
10.0
 40
10.0
 40
11.0
 40
11.0
 40
11.0
 40
12.0
 40
12.0
 40
12.0
 40
13.0
 40
13.0
 40
13.0
 40
14.0
 40
14.0
 40
14.0
 40
15.0
 40
15.0
 40
15.0
 40
16.0
 40
16.0
 40
16.0
 40
17.0
 40
17.0
 40
17.0
 40
18.0
 40
18.0
 40
18.0
 40
19.0
 40
19.0
 40
19.0
 40
20.0
 40
20.0
 40
20.0
 40
21.0
 40
21.0
 40
21.0
 40
22.0
 40
22.0
 40
22.0
 40
23.0
 40
23.0
 40
23.0
 40
24.0
 40
24.0
 40
24.0
 40
25.0
 40
25.0
 40
25.0
 40
26.0
 40
26.0
 40
26.0
 40
27.0
 40
27.0
 40
27.0
 40
28.0
 40
28.0
 40
28.0
 40
29.0
 40
29.0
 40
29.0
 40
30.0
 40
30.0
 40
30.0
 40
31.0
 40
31.0
 40
31.0
 40
32.0
 40
32.0
 40
32.0
 40
33.0
 40
33.0
 40
33.0
 40
34.0
 40
34.0
 40
34.0
 40
35.0
 40
35.0
 40
35.0
 40
36.0
 40
36.0
 40
36.0
 40
37.0
 40
37.0
 40
37.0
 40
38.0
 40
38.0
 40
38.0
 40
39.0
 40
39.0
 40
39.0
 40
40.0
 40
40.0
 40
40.0
 40
41.0
 40
41.0
 40
41.0
 40
42.0
 40
42.0
 40
42.0
 40
43.0
 40
43.0
 40
43.0
 40
44.0
 40
44.0
 40
44.0
 40
45.0
 40
45.0
 40
45.0
 40
46.0
 40
46.0
 40
46.0
 40
47.0
 40
47.0
 40
47.0
 40
48.0
 40
48.0
 40
48.0
 40
49.0
 40
49.0
 40
49.0
 40
50.0
 40
50.0
 40
50.0
 40
51.0
 40
51.0
 40
51.0
 40
52.0
 40
52.0
 40
52.0
 40
53.0
 40
53.0
 40
53.0
 40
54.0
 40
54.0
 40
54.0
 40
55.0
 40
55.0
 40
55.0
 40
56.0
 40
56.0
 40
56.0
 40
57.0
 40
57.0
 40
57.0
 40
58.0
 40
58.0
 40
58.0
 40
59.0
 40
59.0
 40
59.0
 40
60.0
 40
60.0
 40
60.0
 40
61.0
 40
61.0
 40
61.0
 40
62.0
 40
62.0
 40
62.0
 40
63.0
 40
63.0
 40
63.0
 40
64.0
 40
64.0
 40
64.0
 40
65.0
 40
65.0
 40
65.0
 40
66.0
 40
66.0
 40
66.0
 40
67.0
 40
67.0
 40
67.0
 40
68.0
 40
68.0
 40
68.0
 40
69.0
 40
69.0
 40
69.0
 40
70.0
 40
70.0
 40
70.0
 40
71.0
 40
71.0
 40
71.0
 40
72.0
 40
72.0
 40
72.0
 40
73.0
 40
73.0
 40
73.0
 40
74.0
 40
74.0
 40
74.0
 40
75.0
 40
75.0
 40
75.0
 40
76.0
 40
76.0
 40
76.0
 40
77.0
 40
77.0
 40
77.0
 40
78.0
 40
78.0
 40
78.0
 40
79.0
 40
79.0
 40
79.0
 40
80.0
 40
80.0
 40
80.0
 40
81.0
 40
81.0
 40
81.0
 40
82.0
 40
82.0
 40
82.0
 40
83.0
 40
83.0
 40
83.0
 40
84.0
 40
84.0
 40
84.0
 40
85.0
 40
85.0
 40
85.0
 40
86.0
 40
86.0
 40
86.0
 40
87.0
 40
87.0
 40
87.0
 40
88.0
 40
88.0
 40
88.0
 40
89.0
 40
89.0
 40
89.0
 40
90.0
 40
90.0
 40
90.0
 40
90.0
 10
-757.0858904882215
 20
-814.2078753154835
 30
0.0
 10
-757.0858904882215
 20
-814.2078753154835
 30
0.0
 10
-704.0796513519487
 20
-811.8122592726676
 30
0.0
 10
-704.0796513519487
 20
-811.8122592726676
 30
0.0
 10
-704.0796513519487
 20
-811.8122592726676
 30
0.0
 10
-676.5006284639459
 20
-812.4635201256655
 30
0.0
 10
-676.5006284639459
 20
-812.4635201256655
 30
0.0
 10
-676.5006284639459
 20
-812.4635201256655
 30
0.0
 10
-666.3886530975778
 20
-812.7022996946579
 30
0.0
 10
-666.3886530975778
 20
-812.7022996946579
 30
0.0
 10
-666.3886530975778
 20
-812.7022996946579
 30
0.0
 10
-620.9850506784505
 20
-813.7744478647048
 30
0.0
 10
-620.9850506784505
 20
-813.7744478647048
 30
0.0
 10
-620.9850506784505
 20
-813.7744478647048
 30
0.0
 10
-547.0686666942186
 20
-851.5750346131966
 30
0.0
 10
-547.0686666942186
 20
-851.5750346131966
 30
0.0
 10
-547.0686666942186
 20
-851.5750346131966
 30
0.0
 10
-545.1958266618777
 20
-852.1331958123695
 30
0.0
 10
-545.1958266618777
 20
-852.1331958123695
 30
0.0
 10
-545.1958266618777
 20
-852.1331958123695
 30
0.0
 10
-535.1731826223069
 20
-862.1334467330788
 30
0.0
 10
-535.1731826223069
 20
-862.1334467330788
 30
0.0
 10
-535.1731826223069
 20
-862.1334467330788
 30
0.0
 10
-535.1731826223069
 20
-862.1627300447034
 30
0.0
 10
-535.1731826223069
 20
-862.1627300447034
 30
0.0
 10
-534.5685683646988
 20
-862.7117921377229
 30
0.0
 10
-534.1741049317047
 20
-863.4847854372598
 30
0.0
 10
-534.1741049317815
 20
-864.3658686076111
 30
0.0
 10
-534.1741049318626
 20
-865.2465211410307
 30
0.0
 10
-534.5685683649946
 20
-866.0195144404964
 30
0.0
 10
-535.1731826227057
 20
-866.5681458964666
 30
0.0
 10
-535.1731826227057
 20
-866.5681458964666
 30
0.0
 10
-535.1731826270266
 20
-928.3227358750612
 30
0.0
 10
-535.1731826270266
 20
-928.3227358750612
 30
0.0
 10
-535.1731826270266
 20
-928.3227358750612
 30
0.0
 10
-534.1594632820935
 20
-946.1226829735637
 30
0.0
 10
-534.1594632820935
 20
-946.1226829735637
 30
0.0
 10
-534.1594632820935
 20
-946.1226829735637
 30
0.0
 10
-534.1594632831517
 20
-957.9251494690927
 30
0.0
 10
-534.1594632831517
 20
-957.9251494690927
 30
0.0
 10
-534.1646309263796
 20
-957.9251494690927
 30
0.0
 10
-534.1689372957368
 20
-957.9221350105444
 30
0.0
 10
-534.1741049389647
 20
-957.9221350105444
 30
0.0
 10
-535.8311958673695
 20
-957.9221350103968
 30
0.0
 10
-537.1739218328656
 20
-959.2657222495236
 30
0.0
 10
-537.1739218330176
 20
-960.9223825409956
 30
0.0
 10
-537.1739218331655
 20
-962.5790428324626
 30
0.0
 10
-535.8311958679097
 20
-963.9226300718307
 30
0.0
 10
-534.1741049395036
 20
-963.9226300719789
 30
0.0
 10
-534.1689372962767
 20
-963.9226300719789
 30
0.0
 10
-534.1646309269198
 20
-963.9196156134268
 30
0.0
 10
-534.1594632836917
 20
-963.9196156134268
 30
0.0
 10
-534.1594632836917
 20
-963.9196156134268
 30
0.0
 10
-534.1594632836917
 20
-963.9226300719789
 30
0.0
 10
-534.1594632836917
 20
-963.9226300719789
 30
0.0
 10
-534.1594632836917
 20
-963.9226300719789
 30
0.0
 10
-516.3948284139935
 20
-963.9226300735735
 30
0.0
 10
-516.3948284139935
 20
-963.9226300735735
 30
0.0
 10
-514.7377374855887
 20
-963.9226300737243
 30
0.0
 10
-513.3950115200896
 20
-962.5790428346007
 30
0.0
 10
-513.3950115199408
 20
-960.9223825431293
 30
0.0
 10
-513.3950115197896
 20
-959.2657222516617
 30
0.0
 10
-514.7377374850487
 20
-957.9221350122905
 30
0.0
 10
-516.3948284134548
 20
-957.9221350121396
 30
0.0
 10
-516.3948284134548
 20
-957.9221350121396
 30
0.0
 10
-516.3948284123925
 20
-946.1226829751583
 30
0.0
 10
-516.3948284123925
 20
-946.1226829751583
 30
0.0
 10
-516.3948284123925
 20
-946.1226829751583
 30
0.0
 10
-515.3724963255426
 20
-928.3227358768387
 30
0.0
 10
-515.3724963255426
 20
-928.3227358768387
 30
0.0
 10
-515.3724963255426
 20
-928.3227358768387
 30
0.0
 10
-515.3724963212246
 20
-887.2546183153413
 30
0.0
 10
-515.3724963212246
 20
-887.2546183153413
 30
0.0
 10
-515.9891684130358
 20
-886.7051255853913
 30
0.0
 10
-516.3948284063528
 20
-885.9273952795545
 30
0.0
 10
-516.3948284062716
 20
-885.0368380966167
 30
0.0
 10
-516.3948284061936
 20
-884.1458502767453
 30
0.0
 10
-515.9891684127356
 20
-883.3676893340555
 30
0.0
 10
-515.3724963208225
 20
-882.8186272411446
 30
0.0
 10
-515.3724963208225
 20
-882.8186272411446
 30
0.0
 10
-515.3724963208225
 20
-882.8044162222698
 30
0.0
 10
-515.3724963208225
 20
-882.8044162222698
 30
0.0
 10
-515.3724963208225
 20
-882.8044162222698
 30
0.0
 10
-510.8873351347156
 20
-878.2885291790576
 30
0.0
 10
-510.8873351347156
 20
-878.2885291790576
 30
0.0
 10
-510.8873351347156
 20
-878.2885291790576
 30
0.0
 10
-492.7871221162158
 20
-904.8941228751404
 30
0.0
 10
-492.7871221162158
 20
-904.8941228751404
 30
0.0
 10
-492.7871221162158
 20
-904.8941228751404
 30
0.0
 10
-467.3295201346845
 20
-1001.190363901522
 30
0.0
 10
-467.3295201346845
 20
-1001.190363901522
 30
0.0
 10
-467.3295201346845
 20
-1001.190363901522
 30
0.0
 10
-458.6190096169797
 20
-1060.072575123488
 30
0.0
 10
-458.6190096169797
 20
-1060.072575123488
 30
0.0
 10
-458.6190096169797
 20
-1060.072575123488
 30
0.0
 10
-459.4685012626258
 20
-1070.075306511965
 30
0.0
 10
-459.4685012626258
 20
-1070.075306511965
 30
0.0
 10
-459.4685012626258
 20
-1070.075306511965
 30
0.0
 10
-506.4076516415408
 20
-1070.148721492545
 30
0.0
 10
-506.4076516415408
 20
-1070.148721492545
 30
0.0
 10
-506.4076516415408
 20
-1070.148721492545
 30
0.0
 10
-555.3448195980808
 20
-1070.13140988333
 30
0.0
 10
-555.3448195980808
 20
-1070.13140988333
 30
0.0
 10
-555.3448195980808
 20
-1070.13140988333
 30
0.0
 10
-627.2943296712425
 20
-1070.156249015319
 30
0.0
 10
-627.2943296712425
 20
-1070.156249015319
 30
0.0
 10
-627.2943296712425
 20
-1070.156249015319
 30
0.0
 10
-651.5668704793676
 20
-1070.164775607102
 30
0.0
 10
-651.5668704793676
 20
-1070.164775607102
 30
0.0
 10
-651.5668704793676
 20
-1070.164775607102
 30
0.0
 10
-661.5895145198307
 20
-1060.164524687293
 30
0.0
 10
-661.5895145198307
 20
-1060.164524687293
 30
0.0
 10
-661.5895145198307
 20
-1060.164524687293
 30
0.0
 10
-661.5895145198307
 20
-1060.135241375669
 30
0.0
 10
-661.5895145198307
 20
-1060.135241375669
 30
0.0
 10
-662.1941287774918
 20
-1059.586179282706
 30
0.0
 10
-662.5885922105525
 20
-1058.813185983205
 30
0.0
 10
-662.5885922105525
 20
-1057.932102812853
 30
0.0
 10
-662.5885922105525
 20
-1057.051450279434
 30
0.0
 10
-662.1941287774918
 20
-1056.278456979933
 30
0.0
 10
-661.5895145198307
 20
-1055.729825523907
 30
0.0
 10
-661.5895145198307
 20
-1055.729825523907
 30
0.0
 10
-661.5895145198307
 20
-982.2573578933393
 30
0.0
 10
-661.5895145198307
 20
-982.2573578933393
 30
0.0
 10
-661.5895145198307
 20
-982.2573578933393
 30
0.0
 10
-662.6032338663658
 20
-964.4574107949247
 30
0.0
 10
-662.6032338663658
 20
-964.4574107949247
 30
0.0
 10
-662.6032338663658
 20
-964.4574107949247
 30
0.0
 10
-662.6032338663658
 20
-952.6549442993938
 30
0.0
 10
-662.6032338663658
 20
-952.6549442993938
 30
0.0
 10
-662.5980662231376
 20
-952.6549442993938
 30
0.0
 10
-662.5937598537816
 20
-952.6579587579447
 30
0.0
 10
-662.5885922105525
 20
-952.6579587579447
 30
0.0
 10
-660.9315012821477
 20
-952.6579587579447
 30
0.0
 10
-659.5887753167718
 20
-951.3143715186966
 30
0.0
 10
-659.5887753167718
 20
-949.6577112272258
 30
0.0
 10
-659.5887753167718
 20
-948.0010509357576
 30
0.0
 10
-660.9315012821477
 20
-946.6574636965107
 30
0.0
 10
-662.5885922105525
 20
-946.6574636965107
 30
0.0
 10
-662.5937598537816
 20
-946.6574636965107
 30
0.0
 10
-662.5980662231376
 20
-946.6604781550584
 30
0.0
 10
-662.6032338663658
 20
-946.6604781550584
 30
0.0
 10
-662.6032338663658
 20
-946.6604781550584
 30
0.0
 10
-662.6032338663658
 20
-946.6574636965107
 30
0.0
 10
-662.6032338663658
 20
-946.6574636965107
 30
0.0
 10
-662.6032338663658
 20
-946.6574636965107
 30
0.0
 10
-680.3678687360566
 20
-946.6574636965107
 30
0.0
 10
-680.3678687360566
 20
-946.6574636965107
 30
0.0
 10
-682.0249596644618
 20
-946.6574636965107
 30
0.0
 10
-683.3676856298375
 20
-948.0010509357576
 30
0.0
 10
-683.3676856298375
 20
-949.6577112272258
 30
0.0
 10
-683.3676856298375
 20
-951.3143715186966
 30
0.0
 10
-682.0249596644618
 20
-952.6579587579447
 30
0.0
 10
-680.3678687360566
 20
-952.6579587579447
 30
0.0
 10
-680.3678687360566
 20
-952.6579587579447
 30
0.0
 10
-680.3678687360566
 20
-964.4574107949247
 30
0.0
 10
-680.3678687360566
 20
-964.4574107949247
 30
0.0
 10
-680.3678687360566
 20
-964.4574107949247
 30
0.0
 10
-681.3902008213045
 20
-982.2573578933393
 30
0.0
 10
-681.3902008213045
 20
-982.2573578933393
 30
0.0
 10
-681.3902008213045
 20
-982.2573578933393
 30
0.0
 10
-681.3902008213045
 20
-1055.714322594222
 30
0.0
 10
-681.3902008213045
 20
-1055.714322594222
 30
0.0
 10
-680.7735287294445
 20
-1056.263815324121
 30
0.0
 10
-680.3678687360566
 20
-1057.041545629916
 30
0.0
 10
-680.3678687360566
 20
-1057.932102812853
 30
0.0
 10
-680.3678687360566
 20
-1058.823090632724
 30
0.0
 10
-680.7735287294445
 20
-1059.601251575456
 30
0.0
 10
-681.3902008213045
 20
-1060.150313668415
 30
0.0
 10
-681.3902008213045
 20
-1060.150313668415
 30
0.0
 10
-681.3902008213045
 20
-1060.164524687293
 30
0.0
 10
-681.3902008213045
 20
-1060.164524687293
 30
0.0
 10
-681.3902008213045
 20
-1060.164524687293
 30
0.0
 10
-691.3224111052795
 20
-1070.164775607102
 30
0.0
 10
-691.3224111052795
 20
-1070.164775607102
 30
0.0
 10
-691.3224111052795
 20
-1070.164775607102
 30
0.0
 10
-739.1261254332297
 20
-1070.156266230755
 30
0.0
 10
-739.1261254332297
 20
-1070.156266230755
 30
0.0
 10
-739.1261254332297
 20
-1070.156266230755
 30
0.0
 10
-809.2080492438196
 20
-1070.139815893518
 30
0.0
 10
-809.2080492438196
 20
-1070.139815893518
 30
0.0
 10
-809.2080492438196
 20
-1070.139815893518
 30
0.0
 10
-844.9851591524208
 20
-1070.164775607102
 30
0.0
 10
-844.9851591524208
 20
-1070.164775607102
 30
0.0
 10
-844.9851591524208
 20
-1070.164775607102
 30
0.0
 10
-874.5256471550115
 20
-1070.156248993126
 30
0.0
 10
-874.5256471550115
 20
-1070.156248993126
 30
0.0
 10
-874.5256471550115
 20
-1070.156248993126
 30
0.0
 10
-907.7726444882937
 20
-1070.156300666569
 30
0.0
 10
-907.7726444882937
 20
-1070.156300666569
 30
0.0
 10
-907.7726444882937
 20
-1070.156300666569
 30
0.0
 10
-903.3688478258445
 20
-1008.261284542023
 30
0.0
 10
-903.3688478258445
 20
-1008.261284542023
 30
0.0
 10
-903.3688478258445
 20
-1008.261284542023
 30
0.0
 10
-901.1067292255966
 20
-977.8350969413314
 30
0.0
 10
-901.1067292255966
 20
-977.8350969413314
 30
0.0
 10
-901.1067292255966
 20
-977.8350969413314
 30
0.0
 10
-880.1281647732368
 20
-928.0724152065249
 30
0.0
 10
-880.1281647732368
 20
-928.0724152065249
 30
0.0
 10
-880.1281647732368
 20
-928.0724152065249
 30
0.0
 10
-830.1445330094215
 20
-869.5568951061796
 30
0.0
 10
-830.1445330094215
 20
-869.5568951061796
 30
0.0
 10
-830.1445330094215
 20
-869.5568951061796
 30
0.0
 10
-823.7943768038036
 20
-875.8928649024534
 30
0.0
 10
-823.7943768038036
 20
-875.8928649024534
 30
0.0
 10
-823.7943768038036
 20
-875.8928649024534
 30
0.0
 10
-823.7943768038077
 20
-875.9221482140787
 30
0.0
 10
-823.7943768038077
 20
-875.9221482140787
 30
0.0
 10
-823.1897625461917
 20
-876.4712103070917
 30
0.0
 10
-822.7952991132005
 20
-877.2442036066344
 30
0.0
 10
-822.7952991132823
 20
-878.1252867769877
 30
0.0
 10
-822.7952991133639
 20
-879.0059393104027
 30
0.0
 10
-823.1897625464917
 20
-879.7789326098647
 30
0.0
 10
-823.7943768042027
 20
-880.3275640658419
 30
0.0
 10
-823.7943768042027
 20
-880.3275640658419
 30
0.0
 10
-823.7943768085274
 20
-924.5083261278885
 30
0.0
 10
-823.7943768085274
 20
-924.5083261278885
 30
0.0
 10
-823.7943768085274
 20
-924.5083261278885
 30
0.0
 10
-822.7806574635873
 20
-942.3082732263948
 30
0.0
 10
-822.7806574635873
 20
-942.3082732263948
 30
0.0
 10
-822.7806574635873
 20
-942.3082732263948
 30
0.0
 10
-822.7806574646496
 20
-954.110739721927
 30
0.0
 10
-822.7806574646496
 20
-954.110739721927
 30
0.0
 10
-822.7858251078766
 20
-954.110739721927
 30
0.0
 10
-822.7901314772334
 20
-954.1077252633748
 30
0.0
 10
-822.7952991204617
 20
-954.1077252633748
 30
0.0
 10
-824.4523900488665
 20
-954.1077252632234
 30
0.0
 10
-825.7951160143626
 20
-955.4513125023515
 30
0.0
 10
-825.7951160145109
 20
-957.1079727938223
 30
0.0
 10
-825.7951160146584
 20
-958.7646330852905
 30
0.0
 10
-824.4523900494027
 20
-960.108220324658
 30
0.0
 10
-822.7952991209978
 20
-960.1082203248087
 30
0.0
 10
-822.7901314777696
 20
-960.1082203248087
 30
0.0
 10
-822.7858251084127
 20
-960.1052058662617
 30
0.0
 10
-822.7806574651854
 20
-960.1052058662617
 30
0.0
 10
-822.7806574651854
 20
-960.1052058662617
 30
0.0
 10
-822.7806574651854
 20
-960.1082203248087
 30
0.0
 10
-822.7806574651854
 20
-960.1082203248087
 30
0.0
 10
-822.7806574651854
 20
-960.1082203248087
 30
0.0
 10
-805.0160225954946
 20
-960.108220326404
 30
0.0
 10
-805.0160225954946
 20
-960.108220326404
 30
0.0
 10
-803.3589316670885
 20
-960.1082203265555
 30
0.0
 10
-802.0162057015937
 20
-958.764633087421
 30
0.0
 10
-802.0162057014455
 20
-957.1079727959527
 30
0.0
 10
-802.0162057012975
 20
-955.451312504482
 30
0.0
 10
-803.3589316665524
 20
-954.1077252651215
 30
0.0
 10
-805.0160225949585
 20
-954.1077252649694
 30
0.0
 10
-805.0160225949585
 20
-954.1077252649694
 30
0.0
 10
-805.0160225938965
 20
-942.3082732279894
 30
0.0
 10
-805.0160225938965
 20
-942.3082732279894
 30
0.0
 10
-805.0160225938965
 20
-942.3082732279894
 30
0.0
 10
-803.9936905070537
 20
-924.5083261296666
 30
0.0
 10
-803.9936905070537
 20
-924.5083261296666
 30
0.0
 10
-803.9936905070537
 20
-924.5083261296666
 30
0.0
 10
-803.9936905027283
 20
-844.8776414706876
 30
0.0
 10
-803.9936905027283
 20
-844.8776414706876
 30
0.0
 10
-804.6103625945425
 20
-844.3281487407261
 30
0.0
 10
-805.0160225878607
 20
-843.5504184348957
 30
0.0
 10
-805.0160225877798
 20
-842.6598612519587
 30
0.0
 10
-805.0160225876974
 20
-841.7688734320878
 30
0.0
 10
-804.6103625942396
 20
-840.9907124893904
 30
0.0
 10
-803.9936905023295
 20
-840.4416503964902
 30
0.0
 10
-803.9936905023295
 20
-840.4416503964902
 30
0.0
 10
-803.9936905023295
 20
-840.4274393776155
 30
0.0
 10
-803.9936905023295
 20
-840.4274393776155
 30
0.0
 10
-803.9936905023295
 20
-840.4274393776155
 30
0.0
 10
-794.0614802174555
 20
-830.4271884586992
 30
0.0
 10
-794.0614802174555
 20
-830.4271884586992
 30
0.0
 10
-794.0614802174555
 20
-830.4271884586992
 30
0.0
 10
-757.0858904882215
 20
-814.2078753154835
 30
0.0
 10
-757.0858904882215
 20
-814.2078753154835
 30
0.0
  0
ENDBLK
  5
58
330
55
100
AcDbEntity
  8
0
100
AcDbBlockEnd
  0
BLOCK
  5
5D
330
5B
100
AcDbEntity
  8
0
100
AcDbBlockBegin
  2
block 7
 70
     0
 10
0.0
 20
0.0
 30
0.0
  3
block 7
  1

  0
POLYLINE
  5
5F
330
5B
100
AcDbEntity
  8
frame
 62
     8
420
  8421504
370
    18
100
AcDb2dPolyline
 66
     1
 10
0.0
 20
0.0
 30
0.0
  0
VERTEX
  5
60
330
5F
100
AcDbEntity
  8
frame
 62
     8
420
  8421504
370
    18
100
AcDbVertex
100
AcDb2dVertex
 10
1325.12777739171
 20
-1086.212470177698
 30
0.0
  0
VERTEX
  5
61
330
5F
100
AcDbEntity
  8
frame
 62
     8
420
  8421504
370
    18
100
AcDbVertex
100
AcDb2dVertex
 10
1325.127777446496
 20
133.7875294077283
 30
0.0
  0
VERTEX
  5
62
330
5F
100
AcDbEntity
  8
frame
 62
     8
420
  8421504
370
    18
100
AcDbVertex
100
AcDb2dVertex
 10
-1114.872221888721
 20
133.7875295173016
 30
0.0
  0
VERTEX
  5
63
330
5F
100
AcDbEntity
  8
frame
 62
     8
420
  8421504
370
    18
100
AcDbVertex
100
AcDb2dVertex
 10
-1114.872221943503
 20
-1086.212470068144
 30
0.0
  0
VERTEX
  5
64
330
5F
100
AcDbEntity
  8
frame
 62
     8
420
  8421504
370
    18
100
AcDbVertex
100
AcDb2dVertex
 10
1325.127777391711
 20
-1086.212470177698
 30
0.0
  0
SEQEND
  5
65
330
5F
100
AcDbEntity
  8
frame
 62
     8
420
  8421504
370
    18
  0
ENDBLK
  5
5E
330
5B
100
AcDbEntity
  8
0
100
AcDbBlockEnd
  0
BLOCK
  5
68
330
66
100
AcDbEntity
  8
0
100
AcDbBlockBegin
  2
block 8
 70
     0
 10
0.0
 20
0.0
 30
0.0
  3
block 8
  1

  0
POLYLINE
  5
6A
330
66
100
AcDbEntity
  8
frame
 62
     8
420
  8421504
370
    18
100
AcDb2dPolyline
 66
     1
 10
0.0
 20
0.0
 30
0.0
  0
VERTEX
  5
6B
330
6A
100
AcDbEntity
  8
frame
 62
     8
420
  8421504
370
    18
100
AcDbVertex
100
AcDb2dVertex
 10
1310.127777396134
 20
-1071.212470181448
 30
0.0
  0
VERTEX
  5
6C
330
6A
100
AcDbEntity
  8
frame
 62
     8
420
  8421504
370
    18
100
AcDbVertex
100
AcDb2dVertex
 10
1310.127777450245
 20
118.787529414173
 30
0.0
  0
VERTEX
  5
6D
330
6A
100
AcDbEntity
  8
frame
 62
     8
420
  8421504
370
    18
100
AcDbVertex
100
AcDb2dVertex
 10
-1099.872221893145
 20
118.7875295210518
 30
0.0
  0
VERTEX
  5
6E
330
6A
100
AcDbEntity
  8
frame
 62
     8
420
  8421504
370
    18
100
AcDbVertex
100
AcDb2dVertex
 10
-1099.872221947254
 20
-1071.212470074584
 30
0.0
  0
VERTEX
  5
6F
330
6A
100
AcDbEntity
  8
frame
 62
     8
420
  8421504
370
    18
100
AcDbVertex
100
AcDb2dVertex
 10
1310.127777396134
 20
-1071.212470181448
 30
0.0
  0
SEQEND
  5
70
330
6A
100
AcDbEntity
  8
frame
 62
     8
420
  8421504
370
    18
  0
ENDBLK
  5
69
330
66
100
AcDbEntity
  8
0
100
AcDbBlockEnd
  0
BLOCK
  5
74
330
72
100
AcDbEntity
  8
0
100
AcDbBlockBegin
  2
block 9
 70
     0
 10
0.0
 20
0.0
 30
0.0
  3
block 9
  1

  0
SPLINE
  5
76
330
72
100
AcDbEntity
  8
frame2
 62
     8
420
  8421504
370
    18
100
AcDbSpline
210
0.0
220
0.0
230
1.0
 70
    11
 71
     3
 72
   383
 73
   379
 74
     0
 42
0.0000000001
 43
0.0000000001
 12
1.0
 22
0.0
 32
0.0
 13
1.0
 23
0.0
 33
0.0
 40
0.0
 40
0.0
 40
0.0
 40
0.0
 40
1.0
 40
1.0
 40
1.0
 40
2.0
 40
2.0
 40
2.0
 40
3.0
 40
3.0
 40
3.0
 40
4.0
 40
4.0
 40
4.0
 40
5.0
 40
5.0
 40
5.0
 40
6.0
 40
6.0
 40
6.0
 40
7.0
 40
7.0
 40
7.0
 40
8.0
 40
8.0
 40
8.0
 40
9.0
 40
9.0
 40
9.0
 40
10.0
 40
10.0
 40
10.0
 40
11.0
 40
11.0
 40
11.0
 40
12.0
 40
12.0
 40
12.0
 40
13.0
 40
13.0
 40
13.0
 40
14.0
 40
14.0
 40
14.0
 40
15.0
 40
15.0
 40
15.0
 40
16.0
 40
16.0
 40
16.0
 40
17.0
 40
17.0
 40
17.0
 40
18.0
 40
18.0
 40
18.0
 40
19.0
 40
19.0
 40
19.0
 40
20.0
 40
20.0
 40
20.0
 40
21.0
 40
21.0
 40
21.0
 40
22.0
 40
22.0
 40
22.0
 40
23.0
 40
23.0
 40
23.0
 40
24.0
 40
24.0
 40
24.0
 40
25.0
 40
25.0
 40
25.0
 40
26.0
 40
26.0
 40
26.0
 40
27.0
 40
27.0
 40
27.0
 40
28.0
 40
28.0
 40
28.0
 40
29.0
 40
29.0
 40
29.0
 40
30.0
 40
30.0
 40
30.0
 40
31.0
 40
31.0
 40
31.0
 40
32.0
 40
32.0
 40
32.0
 40
33.0
 40
33.0
 40
33.0
 40
34.0
 40
34.0
 40
34.0
 40
35.0
 40
35.0
 40
35.0
 40
36.0
 40
36.0
 40
36.0
 40
37.0
 40
37.0
 40
37.0
 40
38.0
 40
38.0
 40
38.0
 40
39.0
 40
39.0
 40
39.0
 40
40.0
 40
40.0
 40
40.0
 40
41.0
 40
41.0
 40
41.0
 40
42.0
 40
42.0
 40
42.0
 40
43.0
 40
43.0
 40
43.0
 40
44.0
 40
44.0
 40
44.0
 40
45.0
 40
45.0
 40
45.0
 40
46.0
 40
46.0
 40
46.0
 40
47.0
 40
47.0
 40
47.0
 40
48.0
 40
48.0
 40
48.0
 40
49.0
 40
49.0
 40
49.0
 40
50.0
 40
50.0
 40
50.0
 40
51.0
 40
51.0
 40
51.0
 40
52.0
 40
52.0
 40
52.0
 40
53.0
 40
53.0
 40
53.0
 40
54.0
 40
54.0
 40
54.0
 40
55.0
 40
55.0
 40
55.0
 40
56.0
 40
56.0
 40
56.0
 40
57.0
 40
57.0
 40
57.0
 40
58.0
 40
58.0
 40
58.0
 40
59.0
 40
59.0
 40
59.0
 40
60.0
 40
60.0
 40
60.0
 40
61.0
 40
61.0
 40
61.0
 40
62.0
 40
62.0
 40
62.0
 40
63.0
 40
63.0
 40
63.0
 40
64.0
 40
64.0
 40
64.0
 40
65.0
 40
65.0
 40
65.0
 40
66.0
 40
66.0
 40
66.0
 40
67.0
 40
67.0
 40
67.0
 40
68.0
 40
68.0
 40
68.0
 40
69.0
 40
69.0
 40
69.0
 40
70.0
 40
70.0
 40
70.0
 40
71.0
 40
71.0
 40
71.0
 40
72.0
 40
72.0
 40
72.0
 40
73.0
 40
73.0
 40
73.0
 40
74.0
 40
74.0
 40
74.0
 40
75.0
 40
75.0
 40
75.0
 40
76.0
 40
76.0
 40
76.0
 40
77.0
 40
77.0
 40
77.0
 40
78.0
 40
78.0
 40
78.0
 40
79.0
 40
79.0
 40
79.0
 40
80.0
 40
80.0
 40
80.0
 40
81.0
 40
81.0
 40
81.0
 40
82.0
 40
82.0
 40
82.0
 40
83.0
 40
83.0
 40
83.0
 40
84.0
 40
84.0
 40
84.0
 40
85.0
 40
85.0
 40
85.0
 40
86.0
 40
86.0
 40
86.0
 40
87.0
 40
87.0
 40
87.0
 40
88.0
 40
88.0
 40
88.0
 40
89.0
 40
89.0
 40
89.0
 40
90.0
 40
90.0
 40
90.0
 40
91.0
 40
91.0
 40
91.0
 40
92.0
 40
92.0
 40
92.0
 40
93.0
 40
93.0
 40
93.0
 40
94.0
 40
94.0
 40
94.0
 40
95.0
 40
95.0
 40
95.0
 40
96.0
 40
96.0
 40
96.0
 40
97.0
 40
97.0
 40
97.0
 40
98.0
 40
98.0
 40
98.0
 40
99.0
 40
99.0
 40
99.0
 40
100.0
 40
100.0
 40
100.0
 40
101.0
 40
101.0
 40
101.0
 40
102.0
 40
102.0
 40
102.0
 40
103.0
 40
103.0
 40
103.0
 40
104.0
 40
104.0
 40
104.0
 40
105.0
 40
105.0
 40
105.0
 40
106.0
 40
106.0
 40
106.0
 40
107.0
 40
107.0
 40
107.0
 40
108.0
 40
108.0
 40
108.0
 40
109.0
 40
109.0
 40
109.0
 40
110.0
 40
110.0
 40
110.0
 40
111.0
 40
111.0
 40
111.0
 40
112.0
 40
112.0
 40
112.0
 40
113.0
 40
113.0
 40
113.0
 40
114.0
 40
114.0
 40
114.0
 40
115.0
 40
115.0
 40
115.0
 40
116.0
 40
116.0
 40
116.0
 40
117.0
 40
117.0
 40
117.0
 40
118.0
 40
118.0
 40
118.0
 40
119.0
 40
119.0
 40
119.0
 40
120.0
 40
120.0
 40
120.0
 40
121.0
 40
121.0
 40
121.0
 40
122.0
 40
122.0
 40
122.0
 40
123.0
 40
123.0
 40
123.0
 40
124.0
 40
124.0
 40
124.0
 40
125.0
 40
125.0
 40
125.0
 40
126.0
 40
126.0
 40
126.0
 40
126.0
 10
1105.614334370101
 20
-110.8595753884697
 30
0.0
 10
1105.614334370101
 20
-110.8595753884697
 30
0.0
 10
1083.865633800797
 20
-108.939052642941
 30
0.0
 10
1083.865633800797
 20
-108.939052642941
 30
0.0
 10
1083.865633800797
 20
-108.939052642941
 30
0.0
 10
1069.068553361731
 20
-107.6308947354981
 30
0.0
 10
1069.068553361731
 20
-107.6308947354981
 30
0.0
 10
1069.068553361731
 20
-107.6308947354981
 30
0.0
 10
1063.179059656758
 20
-108.8288567844267
 30
0.0
 10
1063.179059656758
 20
-108.8288567844267
 30
0.0
 10
1063.179059656758
 20
-108.8288567844267
 30
0.0
 10
1017.952800802341
 20
-118.0166094288406
 30
0.0
 10
1017.952800802341
 20
-118.0166094288406
 30
0.0
 10
1017.952800802341
 20
-118.0166094288406
 30
0.0
 10
982.9477783701055
 20
-134.1455424751326
 30
0.0
 10
972.5900262667113
 20
-141.6433595628742
 30
0.0
 10
952.0411533968438
 20
-156.5183718820963
 30
0.0
 10
928.125434500891
 20
-176.5425284614693
 30
0.0
 10
895.7587410793385
 20
-213.2617502343194
 30
0.0
 10
850.8774808633666
 20
-264.1784418423114
 30
0.0
 10
839.4649175728719
 20
-284.0377505470112
 30
0.0
 10
823.3324291111172
 20
-310.5221840786315
 30
0.0
 10
820.848020483724
 20
-314.6007957146173
 30
0.0
 10
815.2496775639726
 20
-327.8307620996366
 30
0.0
 10
815.2496775639726
 20
-327.8307620996366
 30
0.0
 10
815.2496775639726
 20
-327.8307620996366
 30
0.0
 10
814.123385959131
 20
-330.236113105041
 30
0.0
 10
814.123385959131
 20
-330.236113105041
 30
0.0
 10
814.123385959131
 20
-330.236113105041
 30
0.0
 10
813.9493478225405
 20
-330.607702209001
 30
0.0
 10
813.9493478225405
 20
-330.607702209001
 30
0.0
 10
813.9493478225405
 20
-330.607702209001
 30
0.0
 10
806.2000970339654
 20
-347.1433741575872
 30
0.0
 10
806.2000970339654
 20
-347.1433741575872
 30
0.0
 10
806.2000970339654
 20
-347.1433741575872
 30
0.0
 10
756.35898984955
 20
-521.8025358403244
 30
0.0
 10
756.35898984955
 20
-521.8025358403244
 30
0.0
 10
756.35898984955
 20
-521.8025358403244
 30
0.0
 10
743.943446015279
 20
-560.9341567278656
 30
0.0
 10
743.943446015279
 20
-560.9341567278656
 30
0.0
 10
743.943446015279
 20
-560.9341567278656
 30
0.0
 10
743.86693185803
 20
-566.4636447769979
 30
0.0
 10
743.86693185803
 20
-566.4636447769979
 30
0.0
 10
743.86693185803
 20
-566.4636447769979
 30
0.0
 10
741.2948869429415
 20
-572.2136883929356
 30
0.0
 10
741.2948869429415
 20
-572.2136883929356
 30
0.0
 10
741.2948869429415
 20
-572.2136883929356
 30
0.0
 10
728.5285297752043
 20
-639.1069023512537
 30
0.0
 10
728.5285297752043
 20
-639.1069023512537
 30
0.0
 10
728.5285297752043
 20
-639.1069023512537
 30
0.0
 10
702.6633806227917
 20
-794.3558019715475
 30
0.0
 10
702.6633806227917
 20
-794.3558019715475
 30
0.0
 10
702.6633806227917
 20
-794.3558019715475
 30
0.0
 10
649.3455697489372
 20
-868.2645982323373
 30
0.0
 10
649.3455697489372
 20
-868.2645982323373
 30
0.0
 10
649.3455697489372
 20
-868.2645982323373
 30
0.0
 10
630.3680008348833
 20
-903.6905111985745
 30
0.0
 10
630.3680008348833
 20
-903.6905111985745
 30
0.0
 10
630.3680008348833
 20
-903.6905111985745
 30
0.0
 10
625.676995715729
 20
-928.9455398245548
 30
0.0
 10
625.676995715729
 20
-928.9455398245548
 30
0.0
 10
625.676995715729
 20
-928.9455398245548
 30
0.0
 10
733.0019229705914
 20
-957.7048437488264
 30
0.0
 10
733.0019229705914
 20
-957.7048437488264
 30
0.0
 10
733.0019229705914
 20
-957.7048437488264
 30
0.0
 10
745.1839567904722
 20
-950.6159882984864
 30
0.0
 10
745.1839567904722
 20
-950.6159882984864
 30
0.0
 10
745.1839567904722
 20
-950.6159882984864
 30
0.0
 10
745.1876348728126
 20
-950.6022615083128
 30
0.0
 10
745.1876348728126
 20
-950.6022615083128
 30
0.0
 10
745.9254020993105
 20
-950.2315147344979
 30
0.0
 10
746.5186424358219
 20
-949.5848615150716
 30
0.0
 10
746.7492470526133
 20
-948.7242333689787
 30
0.0
 10
746.9797402123771
 20
-947.8640211862129
 30
0.0
 10
746.7891941632512
 20
-947.0077988658305
 30
0.0
 10
746.3357538470619
 20
-946.317423164648
 30
0.0
 10
746.3357538470619
 20
-946.317423164648
 30
0.0
 10
843.3358888484247
 20
-584.3079910044648
 30
0.0
 10
843.3358888484247
 20
-584.3079910044648
 30
0.0
 10
843.3358888484247
 20
-584.3079910044648
 30
0.0
 10
848.9303511248941
 20
-567.3791614100801
 30
0.0
 10
848.9303511248941
 20
-567.3791614100801
 30
0.0
 10
848.9303511248941
 20
-567.3791614100801
 30
0.0
 10
851.984274034779
 20
-555.9817659517443
 30
0.0
 10
851.984274034779
 20
-555.9817659517443
 30
0.0
 10
850.3836471105539
 20
-555.5528792598847
 30
0.0
 10
849.4344193893762
 20
-553.9075505933641
 30
0.0
 10
849.8631946241974
 20
-552.3073396324754
 30
0.0
 10
850.291969859023
 20
-550.7071286715759
 30
0.0
 10
851.9366895129577
 20
-549.7568461096674
 30
0.0
 10
853.5373164371758
 20
-550.1857328015341
 30
0.0
 10
853.5373164371758
 20
-550.1857328015341
 30
0.0
 10
870.6966360520358
 20
-554.783558636493
 30
0.0
 10
870.6966360520358
 20
-554.783558636493
 30
0.0
 10
870.6966360520358
 20
-554.783558636493
 30
0.0
 10
870.6958558527455
 20
-554.7864703798855
 30
0.0
 10
870.6958558527455
 20
-554.7864703798855
 30
0.0
 10
870.7008474128021
 20
-554.7878078643687
 30
0.0
 10
870.7057872454477
 20
-554.7860106913837
 30
0.0
 10
870.7107788055043
 20
-554.7873481758676
 30
0.0
 10
872.3114057297289
 20
-555.2162348677374
 30
0.0
 10
873.2606334508956
 20
-556.8615635342829
 30
0.0
 10
872.8318582160745
 20
-558.4617744951787
 30
0.0
 10
872.4030829812534
 20
-560.0619854560467
 30
0.0
 10
870.7583633273148
 20
-561.0122680179868
 30
0.0
 10
869.1577364030858
 20
-560.5833813261232
 30
0.0
 10
869.1527448430368
 20
-560.5820438416362
 30
0.0
 10
869.1493654089579
 20
-560.5780175278646
 30
0.0
 10
869.1443738489052
 20
-560.5766800433807
 30
0.0
 10
869.1443738489052
 20
-560.5766800433807
 30
0.0
 10
866.08967073974
 20
-571.9769872450743
 30
0.0
 10
866.08967073974
 20
-571.9769872450743
 30
0.0
 10
866.08967073974
 20
-571.9769872450743
 30
0.0
 10
862.4618831248353
 20
-589.4327857269847
 30
0.0
 10
862.4618831248353
 20
-589.4327857269847
 30
0.0
 10
862.4618831248353
 20
-589.4327857269847
 30
0.0
 10
765.4577356700214
 20
-951.4571925673363
 30
0.0
 10
765.4577356700214
 20
-951.4571925673363
 30
0.0
 10
764.731726874026
 20
-951.8306441749116
 30
0.0
 10
764.1506390688041
 20
-952.4752037173466
 30
0.0
 10
763.9227094209695
 20
-953.3258487433616
 30
0.0
 10
763.6946683160758
 20
-954.1769097326816
 30
0.0
 10
763.8756253458723
 20
-955.0256585733157
 30
0.0
 10
764.3175301456458
 20
-955.7124975139967
 30
0.0
 10
764.3175301456458
 20
-955.7124975139967
 30
0.0
 10
764.309951066893
 20
-955.7407830209715
 30
0.0
 10
764.309951066893
 20
-955.7407830209715
 30
0.0
 10
764.309951066893
 20
-955.7407830209715
 30
0.0
 10
771.4028263984221
 20
-967.9943348143177
 30
0.0
 10
771.4028263984221
 20
-967.9943348143177
 30
0.0
 10
771.4028263984221
 20
-967.9943348143177
 30
0.0
 10
822.5664577864928
 20
-981.7036242105365
 30
0.0
 10
822.5664577864928
 20
-981.7036242105365
 30
0.0
 10
822.5664577864928
 20
-981.7036242105365
 30
0.0
 10
830.5787069596067
 20
-959.6591505172947
 30
0.0
 10
830.5787069596067
 20
-959.6591505172947
 30
0.0
 10
830.5787069596067
 20
-959.6591505172947
 30
0.0
 10
851.9338859771913
 20
-888.9698375009376
 30
0.0
 10
851.9338859771913
 20
-888.9698375009376
 30
0.0
 10
851.9338859771913
 20
-888.9698375009376
 30
0.0
 10
848.3462975536474
 20
-841.2600750083923
 30
0.0
 10
848.3462975536474
 20
-841.2600750083923
 30
0.0
 10
848.3462975536474
 20
-841.2600750083923
 30
0.0
 10
933.9451297550778
 20
-619.0641607509392
 30
0.0
 10
933.9451297550778
 20
-619.0641607509392
 30
0.0
 10
933.9451297550778
 20
-619.0641607509392
 30
0.0
 10
944.9930885688266
 20
-590.7377299750784
 30
0.0
 10
944.9930885688266
 20
-590.7377299750784
 30
0.0
 10
944.9930885688266
 20
-590.7377299750784
 30
0.0
 10
948.3383326448841
 20
-591.498446664519
 30
0.0
 10
948.3383326448841
 20
-591.498446664519
 30
0.0
 10
948.3383326448841
 20
-591.498446664519
 30
0.0
 10
994.707395385445
 20
-602.8634622139477
 30
0.0
 10
994.707395385445
 20
-602.8634622139477
 30
0.0
 10
994.707395385445
 20
-602.8634622139477
 30
0.0
 10
1004.531000949258
 20
-605.2712059977446
 30
0.0
 10
1004.531000949258
 20
-605.2712059977446
 30
0.0
 10
1004.531000949258
 20
-605.2712059977446
 30
0.0
 10
1042.651349521056
 20
-614.6144457257348
 30
0.0
 10
1042.651349521056
 20
-614.6144457257348
 30
0.0
 10
1042.651349521056
 20
-614.6144457257348
 30
0.0
 10
1035.954965326003
 20
-660.259303046203
 30
0.0
 10
1035.954965326003
 20
-660.259303046203
 30
0.0
 10
1035.954965326003
 20
-660.259303046203
 30
0.0
 10
1025.236641618771
 20
-748.6114113681855
 30
0.0
 10
1025.236641618771
 20
-748.6114113681855
 30
0.0
 10
1025.236641618771
 20
-748.6114113681855
 30
0.0
 10
1021.436495467188
 20
-819.0655363923405
 30
0.0
 10
1021.436495467188
 20
-819.0655363923405
 30
0.0
 10
1021.436495467188
 20
-819.0655363923405
 30
0.0
 10
1009.141953644111
 20
-886.5416295241143
 30
0.0
 10
1009.141953644111
 20
-886.5416295241143
 30
0.0
 10
1009.141953644111
 20
-886.5416295241143
 30
0.0
 10
978.9580287991869
 20
-934.7073320624187
 30
0.0
 10
978.9580287991869
 20
-934.7073320624187
 30
0.0
 10
978.9580287991869
 20
-934.7073320624187
 30
0.0
 10
957.8260728649872
 20
-992.4692018591118
 30
0.0
 10
957.8260728649872
 20
-992.4692018591118
 30
0.0
 10
957.8260728649872
 20
-992.4692018591118
 30
0.0
 10
951.3710715372299
 20
-1016.217786463727
 30
0.0
 10
951.3710715372299
 20
-1016.217786463727
 30
0.0
 10
951.3710715372299
 20
-1016.217786463727
 30
0.0
 10
1011.788453485934
 20
-1032.406075854558
 30
0.0
 10
1011.788453485934
 20
-1032.406075854558
 30
0.0
 10
1011.788453485934
 20
-1032.406075854558
 30
0.0
 10
1023.970487305808
 20
-1025.317220404216
 30
0.0
 10
1023.970487305808
 20
-1025.317220404216
 30
0.0
 10
1023.970487305808
 20
-1025.317220404216
 30
0.0
 10
1023.974165388145
 20
-1025.303493614078
 30
0.0
 10
1023.974165388145
 20
-1025.303493614078
 30
0.0
 10
1024.711932614647
 20
-1024.932746840238
 30
0.0
 10
1025.305172951151
 20
-1024.286093620843
 30
0.0
 10
1025.535777567956
 20
-1023.425465474716
 30
0.0
 10
1025.76627072772
 20
-1022.565253291934
 30
0.0
 10
1025.575724678591
 20
-1021.709030971573
 30
0.0
 10
1025.122284362401
 20
-1021.018655270391
 30
0.0
 10
1025.122284362401
 20
-1021.018655270391
 30
0.0
 10
1123.651431628284
 20
-653.3028716532972
 30
0.0
 10
1123.651431628284
 20
-653.3028716532972
 30
0.0
 10
1123.651431628284
 20
-653.3028716532972
 30
0.0
 10
1129.245893904755
 20
-636.3740420588957
 30
0.0
 10
1129.245893904755
 20
-636.3740420588957
 30
0.0
 10
1129.245893904755
 20
-636.3740420588957
 30
0.0
 10
1132.299816814637
 20
-624.9766466005696
 30
0.0
 10
1132.299816814637
 20
-624.9766466005696
 30
0.0
 10
1130.699189890413
 20
-624.5477599087105
 30
0.0
 10
1129.74996216924
 20
-622.9024312422035
 30
0.0
 10
1130.178737404059
 20
-621.3022202812975
 30
0.0
 10
1130.607512638918
 20
-619.7020093204114
 30
0.0
 10
1132.252232292854
 20
-618.7517267584997
 30
0.0
 10
1133.852859217074
 20
-619.1806134503594
 30
0.0
 10
1133.852859217074
 20
-619.1806134503594
 30
0.0
 10
1151.012178831934
 20
-623.7784392853356
 30
0.0
 10
1151.012178831934
 20
-623.7784392853356
 30
0.0
 10
1151.012178831934
 20
-623.7784392853356
 30
0.0
 10
1151.011398632645
 20
-623.7813510287108
 30
0.0
 10
1151.011398632645
 20
-623.7813510287108
 30
0.0
 10
1151.016390192696
 20
-623.7826885131947
 30
0.0
 10
1151.021330025347
 20
-623.7808913402237
 30
0.0
 10
1151.026321585404
 20
-623.7822288247107
 30
0.0
 10
1152.626948509625
 20
-624.2111155165704
 30
0.0
 10
1153.576176230793
 20
-625.8564441831262
 30
0.0
 10
1153.147400995976
 20
-627.4566551439796
 30
0.0
 10
1152.718625761154
 20
-629.0568661048752
 30
0.0
 10
1151.073906107211
 20
-630.0071486668153
 30
0.0
 10
1149.473279182985
 20
-629.5782619749633
 30
0.0
 10
1149.468287622931
 20
-629.5769244904762
 30
0.0
 10
1149.464908188817
 20
-629.5728981767007
 30
0.0
 10
1149.459916628766
 20
-629.5715606922066
 30
0.0
 10
1149.459916628766
 20
-629.5715606922066
 30
0.0
 10
1146.405213519603
 20
-640.9718678939137
 30
0.0
 10
1146.405213519603
 20
-640.9718678939137
 30
0.0
 10
1146.405213519603
 20
-640.9718678939137
 30
0.0
 10
1142.777425904696
 20
-658.4276663758105
 30
0.0
 10
1142.777425904696
 20
-658.4276663758105
 30
0.0
 10
1142.777425904696
 20
-658.4276663758105
 30
0.0
 10
1044.244266185358
 20
-1026.158424673073
 30
0.0
 10
1044.244266185358
 20
-1026.158424673073
 30
0.0
 10
1043.518257389359
 20
-1026.531876280688
 30
0.0
 10
1042.937169584144
 20
-1027.176435823084
 30
0.0
 10
1042.709239936278
 20
-1028.027080849092
 30
0.0
 10
1042.481198831407
 20
-1028.878141838404
 30
0.0
 10
1042.662155861214
 20
-1029.726890679037
 30
0.0
 10
1043.104060660985
 20
-1030.413729619718
 30
0.0
 10
1043.104060660985
 20
-1030.413729619718
 30
0.0
 10
1043.096481582232
 20
-1030.442015126701
 30
0.0
 10
1043.096481582232
 20
-1030.442015126701
 30
0.0
 10
1043.096481582232
 20
-1030.442015126701
 30
0.0
 10
1050.189356913761
 20
-1042.695566920051
 30
0.0
 10
1050.189356913761
 20
-1042.695566920051
 30
0.0
 10
1050.189356913761
 20
-1042.695566920051
 30
0.0
 10
1111.943189112904
 20
-1059.242064076377
 30
0.0
 10
1111.943189112904
 20
-1059.242064076377
 30
0.0
 10
1111.943189112904
 20
-1059.242064076377
 30
0.0
 10
1128.336537198226
 20
-1063.634648460901
 30
0.0
 10
1128.336537198226
 20
-1063.634648460901
 30
0.0
 10
1128.336537198226
 20
-1063.634648460901
 30
0.0
 10
1140.184180289636
 20
-1066.809179195937
 30
0.0
 10
1140.184180289636
 20
-1066.809179195937
 30
0.0
 10
1140.184180289636
 20
-1066.809179195937
 30
0.0
 10
1146.442132407094
 20
-1068.485992413575
 30
0.0
 10
1146.442132407094
 20
-1068.485992413575
 30
0.0
 10
1146.442132407094
 20
-1068.485992413575
 30
0.0
 10
1151.210036508782
 20
-1055.700803068716
 30
0.0
 10
1151.210036508782
 20
-1055.700803068716
 30
0.0
 10
1151.210036508782
 20
-1055.700803068716
 30
0.0
 10
1159.151829384512
 20
-1023.645713510463
 30
0.0
 10
1159.151829384512
 20
-1023.645713510463
 30
0.0
 10
1159.151829384512
 20
-1023.645713510463
 30
0.0
 10
1160.283029507579
 20
-953.0815184417513
 30
0.0
 10
1160.283029507579
 20
-953.0815184417513
 30
0.0
 10
1160.283029507579
 20
-953.0815184417513
 30
0.0
 10
1159.515952663155
 20
-926.5909867153537
 30
0.0
 10
1159.515952663155
 20
-926.5909867153537
 30
0.0
 10
1159.515952663155
 20
-926.5909867153537
 30
0.0
 10
1199.772651480155
 20
-825.4210383170484
 30
0.0
 10
1199.772651480155
 20
-825.4210383170484
 30
0.0
 10
1199.772651480155
 20
-825.4210383170484
 30
0.0
 10
1229.324509138693
 20
-725.4031705666494
 30
0.0
 10
1229.324509138693
 20
-725.4031705666494
 30
0.0
 10
1229.324509138693
 20
-725.4031705666494
 30
0.0
 10
1257.277135210066
 20
-633.9541194716606
 30
0.0
 10
1257.277135210066
 20
-633.9541194716606
 30
0.0
 10
1257.277135210066
 20
-633.9541194716606
 30
0.0
 10
1293.539452539066
 20
-481.9830416309825
 30
0.0
 10
1293.539452539066
 20
-481.9830416309825
 30
0.0
 10
1293.539452539066
 20
-481.9830416309825
 30
0.0
 10
1301.839864287409
 20
-451.3829783373259
 30
0.0
 10
1301.839864287409
 20
-451.3829783373259
 30
0.0
 10
1301.839864287409
 20
-451.3829783373259
 30
0.0
 10
1303.414131374047
 20
-312.8246133768301
 30
0.0
 10
1303.414131374047
 20
-312.8246133768301
 30
0.0
 10
1303.414131374047
 20
-312.8246133768301
 30
0.0
 10
1299.074703156253
 20
-278.8106088165848
 30
0.0
 10
1299.074703156253
 20
-278.8106088165848
 30
0.0
 10
1299.074703156253
 20
-278.8106088165848
 30
0.0
 10
1285.214559424311
 20
-257.7633522206481
 30
0.0
 10
1285.214559424311
 20
-257.7633522206481
 30
0.0
 10
1285.214559424311
 20
-257.7633522206481
 30
0.0
 10
1230.4639345305
 20
-168.2520426055562
 30
0.0
 10
1230.4639345305
 20
-168.2520426055562
 30
0.0
 10
1230.4639345305
 20
-168.2520426055562
 30
0.0
 10
1221.979000110584
 20
-154.4255699537837
 30
0.0
 10
1221.979000110584
 20
-154.4255699537837
 30
0.0
 10
1221.979000110584
 20
-154.4255699537837
 30
0.0
 10
1193.780137841904
 20
-138.1708511445753
 30
0.0
 10
1193.780137841904
 20
-138.1708511445753
 30
0.0
 10
1193.780137841904
 20
-138.1708511445753
 30
0.0
 10
1147.617514195443
 20
-124.1620121331196
 30
0.0
 10
1147.617514195443
 20
-124.1620121331196
 30
0.0
 10
1147.617514195443
 20
-124.1620121331196
 30
0.0
 10
1136.822686570794
 20
-130.4436378950759
 30
0.0
 10
1136.822686570794
 20
-130.4436378950759
 30
0.0
 10
1136.822686570794
 20
-130.4436378950759
 30
0.0
 10
1136.819008488454
 20
-130.4573646852463
 30
0.0
 10
1136.819008488454
 20
-130.4573646852463
 30
0.0
 10
1136.08124126192
 20
-130.8281114590433
 30
0.0
 10
1135.488000925443
 20
-131.4747646784811
 30
0.0
 10
1135.257396308613
 20
-132.3353928245695
 30
0.0
 10
1135.026903148854
 20
-133.1956050073431
 30
0.0
 10
1135.217449198008
 20
-134.0518273277606
 30
0.0
 10
1135.670889514173
 20
-134.7422030288938
 30
0.0
 10
1135.670889514173
 20
-134.7422030288938
 30
0.0
 10
1083.457196729641
 20
-329.606357340759
 30
0.0
 10
1083.457196729641
 20
-329.606357340759
 30
0.0
 10
1083.457196729641
 20
-329.606357340759
 30
0.0
 10
1077.862734453169
 20
-346.535186935154
 30
0.0
 10
1077.862734453169
 20
-346.535186935154
 30
0.0
 10
1077.862734453169
 20
-346.535186935154
 30
0.0
 10
1074.808811543285
 20
-357.9325823934828
 30
0.0
 10
1074.808811543285
 20
-357.9325823934828
 30
0.0
 10
1076.4094384675
 20
-358.3614690853777
 30
0.0
 10
1077.358666188677
 20
-360.0067977518982
 30
0.0
 10
1076.929890953855
 20
-361.6070087127875
 30
0.0
 10
1076.501115719031
 20
-363.2072196736832
 30
0.0
 10
1074.856396065096
 20
-364.157502235595
 30
0.0
 10
1073.255769140874
 20
-363.7286155437392
 30
0.0
 10
1073.255769140874
 20
-363.7286155437392
 30
0.0
 10
1056.096449526025
 20
-359.130789708759
 30
0.0
 10
1056.096449526025
 20
-359.130789708759
 30
0.0
 10
1056.096449526025
 20
-359.130789708759
 30
0.0
 10
1056.097229725306
 20
-359.1278779653878
 30
0.0
 10
1056.097229725306
 20
-359.1278779653878
 30
0.0
 10
1056.092238165252
 20
-359.1265404809039
 30
0.0
 10
1056.08729833257
 20
-359.1283376538684
 30
0.0
 10
1056.082306772516
 20
-359.1270001693775
 30
0.0
 10
1054.481679848302
 20
-358.6981134774825
 30
0.0
 10
1053.532452127119
 20
-357.0527848109652
 30
0.0
 10
1053.961227361944
 20
-355.4525738500695
 30
0.0
 10
1054.390002596802
 20
-353.852362889188
 30
0.0
 10
1056.034722250739
 20
-352.9020803272833
 30
0.0
 10
1057.635349174961
 20
-353.3309670191391
 30
0.0
 10
1057.640340735017
 20
-353.3323045036191
 30
0.0
 10
1057.64372016909
 20
-353.3363308173978
 30
0.0
 10
1057.648711729146
 20
-353.3376683018887
 30
0.0
 10
1057.648711729146
 20
-353.3376683018887
 30
0.0
 10
1060.703414838316
 20
-341.9373611001777
 30
0.0
 10
1060.703414838316
 20
-341.9373611001777
 30
0.0
 10
1060.703414838316
 20
-341.9373611001777
 30
0.0
 10
1064.331202453216
 20
-324.4815626182745
 30
0.0
 10
1064.331202453216
 20
-324.4815626182745
 30
0.0
 10
1064.331202453216
 20
-324.4815626182745
 30
0.0
 10
1116.548907691208
 20
-129.6024336262472
 30
0.0
 10
1116.548907691208
 20
-129.6024336262472
 30
0.0
 10
1117.274916487235
 20
-129.2289820186468
 30
0.0
 10
1117.856004292461
 20
-128.5844224762157
 30
0.0
 10
1118.083933940289
 20
-127.733777450229
 30
0.0
 10
1118.311975045159
 20
-126.8827164608743
 30
0.0
 10
1118.13101801536
 20
-126.0339676202403
 30
0.0
 10
1117.689113215622
 20
-125.3471286795624
 30
0.0
 10
1117.689113215622
 20
-125.3471286795624
 30
0.0
 10
1117.69669229437
 20
-125.3188431725876
 30
0.0
 10
1117.69669229437
 20
-125.3188431725876
 30
0.0
 10
1117.69669229437
 20
-125.3188431725876
 30
0.0
 10
1110.603816962847
 20
-113.0652913792376
 30
0.0
 10
1110.603816962847
 20
-113.0652913792376
 30
0.0
 10
1110.603816962847
 20
-113.0652913792376
 30
0.0
 10
1105.614334370101
 20
-110.8595753884697
 30
0.0
 10
1105.614334370101
 20
-110.8595753884697
 30
0.0
  0
ENDBLK
  5
75
330
72
100
AcDbEntity
  8
0
100
AcDbBlockEnd
  0
ENDSEC
  0
SECTION
  2
ENTITIES
  0
INSERT
  5
42
330
1F
100
AcDbEntity
  8
dog bone slots
100
AcDbBlockReference
  2
block 2
 10
0.0
 20
0.0
 30
0.0
  0
INSERT
  5
47
330
1F
100
AcDbEntity
  8
dog bone slots
100
AcDbBlockReference
  2
block 3
 10
0.0
 20
0.0
 30
0.0
  0
INSERT
  5
4C
330
1F
100
AcDbEntity
  8
dog bone slots
100
AcDbBlockReference
  2
block 4
 10
0.0
 20
0.0
 30
0.0
  0
INSERT
  5
51
330
1F
100
AcDbEntity
  8
dog bone slots
100
AcDbBlockReference
  2
block 5
 10
0.0
 20
0.0
 30
0.0
  0
INSERT
  5
56
330
1F
100
AcDbEntity
  8
dog bone slots
100
AcDbBlockReference
  2
block 6
 10
0.0
 20
0.0
 30
0.0
  0
INSERT
  5
5C
330
1F
100
AcDbEntity
  8
frame
100
AcDbBlockReference
  2
block 7
 10
0.0
 20
0.0
 30
0.0
  0
INSERT
  5
67
330
1F
100
AcDbEntity
  8
frame
100
AcDbBlockReference
  2
block 8
 10
0.0
 20
0.0
 30
0.0
  0
INSERT
  5
73
330
1F
100
AcDbEntity
  8
frame2
100
AcDbBlockReference
  2
block 9
 10
0.0
 20
0.0
 30
0.0
  0
ENDSEC
  0
SECTION
  2
OBJECTS
  0
DICTIONARY
  5
C
330
0
100
AcDbDictionary
281
     1
  3
ACAD_GROUP
350
D
  3
ACAD_LAYOUT
350
1A
  3
ACAD_MATERIAL
350
3B
  3
ACAD_MLEADERSTYLE
350
78
  3
ACAD_MLINESTYLE
350
17
  3
ACAD_PLOTSETTINGS
350
19
  3
ACAD_PLOTSTYLENAME
350
E
  3
ACAD_TABLESTYLE
350
77
  3
ACAD_VISUALSTYLE
350
2A
  0
SUN
  5
3F
330
29
100
AcDbSun
 90
        1
290
     0
 63
     7
421
 16777215
 40
1.0
291
     1
 91
  2455826
 92
 54000000
292
     0
 70
     2
 71
   256
280
     1
  0
DICTIONARY
  5
D
102
{ACAD_REACTORS
330
C
102
}
330
C
100
AcDbDictionary
281
     1
  0
DICTIONARY
  5
1A
102
{ACAD_REACTORS
330
C
102
}
330
C
100
AcDbDictionary
281
     1
  3
Layout1
350
1E
  3
Layout2
350
26
  3
Model
350
22
  0
DICTIONARY
  5
3B
102
{ACAD_REACTORS
330
C
102
}
330
C
100
AcDbDictionary
281
     1
  3
ByBlock
350
3D
  3
ByLayer
350
3C
  3
Global
350
3E
  0
DICTIONARY
  5
78
102
{ACAD_REACTORS
330
C
102
}
330
C
100
AcDbDictionary
281
     1
  0
DICTIONARY
  5
17
102
{ACAD_REACTORS
330
C
102
}
330
C
100
AcDbDictionary
281
     1
  3
Standard
350
18
  0
DICTIONARY
  5
19
102
{ACAD_REACTORS
330
C
102
}
330
C
100
AcDbDictionary
281
     1
  0
ACDBDICTIONARYWDFLT
  5
E
102
{ACAD_REACTORS
330
C
102
}
330
C
100
AcDbDictionary
281
     1
  3
Normal
350
F
100
AcDbDictionaryWithDefault
340
F
  0
DICTIONARY
  5
77
102
{ACAD_REACTORS
330
C
102
}
330
C
100
AcDbDictionary
281
     1
  0
DICTIONARY
  5
2A
102
{ACAD_REACTORS
330
C
102
}
330
C
100
AcDbDictionary
281
     1
  3
2dWireframe
350
2F
  3
3D Hidden
350
31
  3
3dWireframe
350
30
  3
Basic
350
32
  3
Brighten
350
36
  3
ColorChange
350
3A
  3
Conceptual
350
34
  3
Dim
350
35
  3
Facepattern
350
39
  3
Flat
350
2B
  3
FlatWithEdges
350
2C
  3
Gouraud
350
2D
  3
GouraudWithEdges
350
2E
  3
Linepattern
350
38
  3
Realistic
350
33
  3
Thicken
350
37
  0
LAYOUT
  5
1E
102
{ACAD_REACTORS
330
1A
102
}
330
1A
100
AcDbPlotSettings
  1

  2
none_device
  4

  6

 40
0.0
 41
0.0
 42
0.0
 43
0.0
 44
0.0
 45
0.0
 46
0.0
 47
0.0
 48
0.0
 49
0.0
140
0.0
141
0.0
142
1.0
143
1.0
 70
   688
 72
     0
 73
     0
 74
     5
  7

 75
    16
 76
     0
 77
     2
 78
   300
147
1.0
148
0.0
149
0.0
100
AcDbLayout
  1
Layout1
 70
     1
 71
     1
 10
0.0
 20
0.0
 11
12.0
 21
9.0
 12
0.0
 22
0.0
 32
0.0
 14
1.000000000000000E+20
 24
1.000000000000000E+20
 34
1.000000000000000E+20
 15
-1.000000000000000E+20
 25
-1.000000000000000E+20
 35
-1.000000000000000E+20
146
0.0
 13
0.0
 23
0.0
 33
0.0
 16
1.0
 26
0.0
 36
0.0
 17
0.0
 27
1.0
 37
0.0
 76
     0
330
1B
  0
LAYOUT
  5
26
102
{ACAD_REACTORS
330
1A
102
}
330
1A
100
AcDbPlotSettings
  1

  2
none_device
  4

  6

 40
0.0
 41
0.0
 42
0.0
 43
0.0
 44
0.0
 45
0.0
 46
0.0
 47
0.0
 48
0.0
 49
0.0
140
0.0
141
0.0
142
1.0
143
1.0
 70
   688
 72
     0
 73
     0
 74
     5
  7

 75
    16
 76
     0
 77
     2
 78
   300
147
1.0
148
0.0
149
0.0
100
AcDbLayout
  1
Layout2
 70
     1
 71
     2
 10
0.0
 20
0.0
 11
0.0
 21
0.0
 12
0.0
 22
0.0
 32
0.0
 14
0.0
 24
0.0
 34
0.0
 15
0.0
 25
0.0
 35
0.0
146
0.0
 13
0.0
 23
0.0
 33
0.0
 16
1.0
 26
0.0
 36
0.0
 17
0.0
 27
1.0
 37
0.0
 76
     0
330
23
  0
LAYOUT
  5
22
102
{ACAD_REACTORS
330
1A
102
}
330
1A
100
AcDbPlotSettings
  1

  2
none_device
  4

  6

 40
0.0
 41
0.0
 42
0.0
 43
0.0
 44
0.0
 45
0.0
 46
0.0
 47
0.0
 48
0.0
 49
0.0
140
0.0
141
0.0
142
1.0
143
1.0
 70
  1712
 72
     0
 73
     0
 74
     0
  7

 75
     0
 76
     0
 77
     2
 78
   300
147
1.0
148
0.0
149
0.0
100
AcDbLayout
  1
Model
 70
     1
 71
     0
 10
0.0
 20
0.0
 11
12.0
 21
9.0
 12
0.0
 22
0.0
 32
0.0
 14
1.000000000000000E+20
 24
1.000000000000000E+20
 34
1.000000000000000E+20
 15
-1.000000000000000E+20
 25
-1.000000000000000E+20
 35
-1.000000000000000E+20
146
0.0
 13
0.0
 23
0.0
 33
0.0
 16
1.0
 26
0.0
 36
0.0
 17
0.0
 27
1.0
 37
0.0
 76
     0
330
1F
331
29
  0
MATERIAL
  5
3D
102
{ACAD_REACTORS
330
3B
102
}
330
3B
100
AcDbMaterial
  1
ByBlock
 72
     1
 94
      127
  0
MATERIAL
  5
3C
102
{ACAD_REACTORS
330
3B
102
}
330
3B
100
AcDbMaterial
  1
ByLayer
 72
     1
 94
      127
  0
MATERIAL
  5
3E
102
{ACAD_REACTORS
330
3B
102
}
330
3B
100
AcDbMaterial
  1
Global
 72
     1
 94
      127
  0
MLINESTYLE
  5
18
102
{ACAD_REACTORS
330
17
102
}
330
17
100
AcDbMlineStyle
  2
Standard
 70
     0
  3

 62
   256
 51
90.0
 52
90.0
 71
     2
 49
0.5
 62
   256
  6
BYLAYER
 49
-0.5
 62
   256
  6
BYLAYER
  0
ACDBPLACEHOLDER
  5
F
102
{ACAD_REACTORS
330
E
102
}
330
E
  0
VISUALSTYLE
  5
2F
102
{ACAD_REACTORS
330
2A
102
}
330
2A
100
AcDbVisualStyle
  2
2dWireframe
 70
     4
177
     2
291
     0
 71
     0
176
     1
 72
     2
176
     1
 73
     0
176
     1
 90
        0
176
     1
 40
-0.6
176
     1
 41
-30.0
176
     1
 62
     5
 63
     7
421
 16777215
176
     1
 74
     1
176
     1
 91
        4
176
     1
 64
     7
176
     1
 65
   257
176
     1
 75
     1
176
     1
175
     1
176
     1
 42
1.0
176
     1
 92
        0
176
     1
 66
   257
176
     1
 43
1.0
176
     1
 76
     1
176
     1
 77
     6
176
     1
 78
     2
176
     1
 67
     7
176
     1
 79
     5
176
     1
170
     0
176
     1
171
     0
176
     1
290
     0
176
     1
 93
        1
176
     1
 44
0.0
176
     1
173
     0
176
     1
  0
VISUALSTYLE
  5
31
102
{ACAD_REACTORS
330
2A
102
}
330
2A
100
AcDbVisualStyle
  2
3D Hidden
 70
     6
177
     2
291
     0
 71
     1
176
     1
 72
     2
176
     1
 73
     2
176
     1
 90
        0
176
     1
 40
-0.6
176
     1
 41
-30.0
176
     1
 62
     5
 63
     7
421
 16777215
176
     1
 74
     2
176
     1
 91
        2
176
     1
 64
     7
176
     1
 65
   257
176
     1
 75
     2
176
     1
175
     1
176
     1
 42
40.0
176
     1
 92
        0
176
     1
 66
   257
176
     1
 43
1.0
176
     1
 76
     1
176
     1
 77
     6
176
     1
 78
     2
176
     1
 67
     7
176
     1
 79
     3
176
     1
170
     0
176
     1
171
     0
176
     1
290
     0
176
     1
 93
        1
176
     1
 44
0.0
176
     1
173
     0
176
     1
  0
VISUALSTYLE
  5
30
102
{ACAD_REACTORS
330
2A
102
}
330
2A
100
AcDbVisualStyle
  2
3dWireframe
 70
     5
177
     2
291
     0
 71
     0
176
     1
 72
     2
176
     1
 73
     0
176
     1
 90
        0
176
     1
 40
-0.6
176
     1
 41
-30.0
176
     1
 62
     5
 63
     7
421
 16777215
176
     1
 74
     1
176
     1
 91
        4
176
     1
 64
     7
176
     1
 65
   257
176
     1
 75
     1
176
     1
175
     1
176
     1
 42
1.0
176
     1
 92
        0
176
     1
 66
   257
176
     1
 43
1.0
176
     1
 76
     1
176
     1
 77
     6
176
     1
 78
     2
176
     1
 67
     7
176
     1
 79
     5
176
     1
170
     0
176
     1
171
     0
176
     1
290
     0
176
     1
 93
        1
176
     1
 44
0.0
176
     1
173
     0
176
     1
  0
VISUALSTYLE
  5
32
102
{ACAD_REACTORS
330
2A
102
}
330
2A
100
AcDbVisualStyle
  2
Basic
 70
     7
177
     2
291
     1
 71
     1
176
     1
 72
     0
176
     1
 73
     1
176
     1
 90
        0
176
     1
 40
-0.6
176
     1
 41
-30.0
176
     1
 62
     5
 63
     7
421
 16777215
176
     1
 74
     0
176
     1
 91
        4
176
     1
 64
     7
176
     1
 65
   257
176
     1
 75
     1
176
     1
175
     1
176
     1
 42
1.0
176
     1
 92
        8
176
     1
 66
     7
176
     1
 43
1.0
176
     1
 76
     1
176
     1
 77
     6
176
     1
 78
     2
176
     1
 67
     7
176
     1
 79
     5
176
     1
170
     0
176
     1
171
     0
176
     1
290
     0
176
     1
 93
        1
176
     1
 44
0.0
176
     1
173
     0
176
     1
  0
VISUALSTYLE
  5
36
102
{ACAD_REACTORS
330
2A
102
}
330
2A
100
AcDbVisualStyle
  2
Brighten
 70
    12
177
     2
291
     1
 71
     2
176
     1
 72
     2
176
     1
 73
     0
176
     1
 90
        0
176
     1
 40
-0.6
176
     1
 41
-30.0
176
     1
 62
     5
 63
     7
421
 16777215
176
     1
 74
     1
176
     1
 91
        4
176
     1
 64
     7
176
     1
 65
   257
176
     1
 75
     1
176
     1
175
     1
176
     1
 42
1.0
176
     1
 92
        8
176
     1
 66
     7
176
     1
 43
1.0
176
     1
 76
     1
176
     1
 77
     6
176
     1
 78
     2
176
     1
 67
     7
176
     1
 79
     5
176
     1
170
     0
176
     1
171
     0
176
     1
290
     0
176
     1
 93
        1
176
     1
 44
50.0
176
     1
173
     0
176
     1
  0
VISUALSTYLE
  5
3A
102
{ACAD_REACTORS
330
2A
102
}
330
2A
100
AcDbVisualStyle
  2
ColorChange
 70
    16
177
     2
291
     1
 71
     2
176
     1
 72
     2
176
     1
 73
     3
176
     1
 90
        0
176
     1
 40
-0.6
176
     1
 41
-30.0
176
     1
 62
     5
 63
     8
421
  8421504
176
     1
 74
     1
176
     1
 91
        4
176
     1
 64
     7
176
     1
 65
   257
176
     1
 75
     1
176
     1
175
     1
176
     1
 42
1.0
176
     1
 92
        8
176
     1
 66
     8
424
  8421504
176
     1
 43
1.0
176
     1
 76
     1
176
     1
 77
     6
176
     1
 78
     2
176
     1
 67
     7
176
     1
 79
     5
176
     1
170
     0
176
     1
171
     0
176
     1
290
     0
176
     1
 93
        1
176
     1
 44
0.0
176
     1
173
     0
176
     1
  0
VISUALSTYLE
  5
34
102
{ACAD_REACTORS
330
2A
102
}
330
2A
100
AcDbVisualStyle
  2
Conceptual
 70
     9
177
     2
291
     0
 71
     3
176
     1
 72
     2
176
     1
 73
     0
176
     1
 90
        0
176
     1
 40
-0.6
176
     1
 41
-30.0
176
     1
 62
     5
 63
     7
421
 16777215
176
     1
 74
     2
176
     1
 91
        2
176
     1
 64
     7
176
     1
 65
   257
176
     1
 75
     1
176
     1
175
     1
176
     1
 42
40.0
176
     1
 92
        8
176
     1
 66
     7
176
     1
 43
1.0
176
     1
 76
     1
176
     1
 77
     6
176
     1
 78
     2
176
     1
 67
     7
176
     1
 79
     3
176
     1
170
     0
176
     1
171
     0
176
     1
290
     0
176
     1
 93
        1
176
     1
 44
0.0
176
     1
173
     0
176
     1
  0
VISUALSTYLE
  5
35
102
{ACAD_REACTORS
330
2A
102
}
330
2A
100
AcDbVisualStyle
  2
Dim
 70
    11
177
     2
291
     1
 71
     2
176
     1
 72
     2
176
     1
 73
     0
176
     1
 90
        0
176
     1
 40
-0.6
176
     1
 41
-30.0
176
     1
 62
     5
 63
     7
421
 16777215
176
     1
 74
     1
176
     1
 91
        4
176
     1
 64
     7
176
     1
 65
   257
176
     1
 75
     1
176
     1
175
     1
176
     1
 42
1.0
176
     1
 92
        8
176
     1
 66
     7
176
     1
 43
1.0
176
     1
 76
     1
176
     1
 77
     6
176
     1
 78
     2
176
     1
 67
     7
176
     1
 79
     5
176
     1
170
     0
176
     1
171
     0
176
     1
290
     0
176
     1
 93
        1
176
     1
 44
-50.0
176
     1
173
     0
176
     1
  0
VISUALSTYLE
  5
39
102
{ACAD_REACTORS
330
2A
102
}
330
2A
100
AcDbVisualStyle
  2
Facepattern
 70
    15
177
     2
291
     1
 71
     2
176
     1
 72
     2
176
     1
 73
     0
176
     1
 90
        0
176
     1
 40
-0.6
176
     1
 41
-30.0
176
     1
 62
     5
 63
     7
421
 16777215
176
     1
 74
     1
176
     1
 91
        4
176
     1
 64
     7
176
     1
 65
   257
176
     1
 75
     1
176
     1
175
     1
176
     1
 42
1.0
176
     1
 92
        8
176
     1
 66
     7
176
     1
 43
1.0
176
     1
 76
     1
176
     1
 77
     6
176
     1
 78
     2
176
     1
 67
     7
176
     1
 79
     5
176
     1
170
     0
176
     1
171
     0
176
     1
290
     0
176
     1
 93
        1
176
     1
 44
0.0
176
     1
173
     0
176
     1
  0
VISUALSTYLE
  5
2B
102
{ACAD_REACTORS
330
2A
102
}
330
2A
100
AcDbVisualStyle
  2
Flat
 70
     0
177
     2
291
     1
 71
     2
176
     1
 72
     1
176
     1
 73
     1
176
     1
 90
        2
176
     1
 40
-0.6
176
     1
 41
30.0
176
     1
 62
     5
 63
     7
421
 16777215
176
     1
 74
     0
176
     1
 91
        4
176
     1
 64
     7
176
     1
 65
   257
176
     1
 75
     1
176
     1
175
     1
176
     1
 42
1.0
176
     1
 92
        8
176
     1
 66
     7
176
     1
 43
1.0
176
     1
 76
     1
176
     1
 77
     6
176
     1
 78
     2
176
     1
 67
     7
176
     1
 79
     5
176
     1
170
     0
176
     1
171
     0
176
     1
290
     0
176
     1
 93
       13
176
     1
 44
0.0
176
     1
173
     0
176
     1
  0
VISUALSTYLE
  5
2C
102
{ACAD_REACTORS
330
2A
102
}
330
2A
100
AcDbVisualStyle
  2
FlatWithEdges
 70
     1
177
     2
291
     1
 71
     2
176
     1
 72
     1
176
     1
 73
     1
176
     1
 90
        2
176
     1
 40
-0.6
176
     1
 41
30.0
176
     1
 62
     5
 63
     7
421
 16777215
176
     1
 74
     1
176
     1
 91
        4
176
     1
 64
     7
176
     1
 65
   257
176
     1
 75
     1
176
     1
175
     1
176
     1
 42
1.0
176
     1
 92
        0
176
     1
 66
   257
176
     1
 43
1.0
176
     1
 76
     1
176
     1
 77
     6
176
     1
 78
     2
176
     1
 67
     7
176
     1
 79
     5
176
     1
170
     0
176
     1
171
     0
176
     1
290
     0
176
     1
 93
       13
176
     1
 44
0.0
176
     1
173
     0
176
     1
  0
VISUALSTYLE
  5
2D
102
{ACAD_REACTORS
330
2A
102
}
330
2A
100
AcDbVisualStyle
  2
Gouraud
 70
     2
177
     2
291
     1
 71
     2
176
     1
 72
     2
176
     1
 73
     1
176
     1
 90
        2
176
     1
 40
-0.6
176
     1
 41
30.0
176
     1
 62
     5
 63
     7
421
 16777215
176
     1
 74
     0
176
     1
 91
        4
176
     1
 64
     7
176
     1
 65
   257
176
     1
 75
     1
176
     1
175
     1
176
     1
 42
1.0
176
     1
 92
        0
176
     1
 66
     7
176
     1
 43
1.0
176
     1
 76
     1
176
     1
 77
     6
176
     1
 78
     2
176
     1
 67
     7
176
     1
 79
     5
176
     1
170
     0
176
     1
171
     0
176
     1
290
     0
176
     1
 93
       13
176
     1
 44
0.0
176
     1
173
     0
176
     1
  0
VISUALSTYLE
  5
2E
102
{ACAD_REACTORS
330
2A
102
}
330
2A
100
AcDbVisualStyle
  2
GouraudWithEdges
 70
     3
177
     2
291
     1
 71
     2
176
     1
 72
     2
176
     1
 73
     1
176
     1
 90
        2
176
     1
 40
-0.6
176
     1
 41
30.0
176
     1
 62
     5
 63
     7
421
 16777215
176
     1
 74
     1
176
     1
 91
        4
176
     1
 64
     7
176
     1
 65
   257
176
     1
 75
     1
176
     1
175
     1
176
     1
 42
1.0
176
     1
 92
        0
176
     1
 66
   257
176
     1
 43
1.0
176
     1
 76
     1
176
     1
 77
     6
176
     1
 78
     2
176
     1
 67
     7
176
     1
 79
     5
176
     1
170
     0
176
     1
171
     0
176
     1
290
     0
176
     1
 93
       13
176
     1
 44
0.0
176
     1
173
     0
176
     1
  0
VISUALSTYLE
  5
38
102
{ACAD_REACTORS
330
2A
102
}
330
2A
100
AcDbVisualStyle
  2
Linepattern
 70
    14
177
     2
291
     1
 71
     2
176
     1
 72
     2
176
     1
 73
     0
176
     1
 90
        0
176
     1
 40
-0.6
176
     1
 41
-30.0
176
     1
 62
     5
 63
     7
421
 16777215
176
     1
 74
     1
176
     1
 91
        4
176
     1
 64
     7
176
     1
 65
   257
176
     1
 75
     7
176
     1
175
     7
176
     1
 42
1.0
176
     1
 92
        8
176
     1
 66
     7
176
     1
 43
1.0
176
     1
 76
     1
176
     1
 77
     6
176
     1
 78
     2
176
     1
 67
     7
176
     1
 79
     5
176
     1
170
     0
176
     1
171
     0
176
     1
290
     0
176
     1
 93
        1
176
     1
 44
0.0
176
     1
173
     0
176
     1
  0
VISUALSTYLE
  5
33
102
{ACAD_REACTORS
330
2A
102
}
330
2A
100
AcDbVisualStyle
  2
Realistic
 70
     8
177
     2
291
     0
 71
     2
176
     1
 72
     2
176
     1
 73
     0
176
     1
 90
        0
176
     1
 40
-0.6
176
     1
 41
-30.0
176
     1
 62
     5
 63
     7
421
 16777215
176
     1
 74
     1
176
     1
 91
        0
176
     1
 64
     7
176
     1
 65
   257
176
     1
 75
     1
176
     1
175
     1
176
     1
 42
1.0
176
     1
 92
        8
176
     1
 66
     8
424
  7895160
176
     1
 43
1.0
176
     1
 76
     1
176
     1
 77
     6
176
     1
 78
     2
176
     1
 67
     7
176
     1
 79
     5
176
     1
170
     0
176
     1
171
     0
176
     1
290
     0
176
     1
 93
       13
176
     1
 44
0.0
176
     1
173
     0
176
     1
  0
VISUALSTYLE
  5
37
102
{ACAD_REACTORS
330
2A
102
}
330
2A
100
AcDbVisualStyle
  2
Thicken
 70
    13
177
     2
291
     1
 71
     2
176
     1
 72
     2
176
     1
 73
     0
176
     1
 90
        0
176
     1
 40
-0.6
176
     1
 41
-30.0
176
     1
 62
     5
 63
     7
421
 16777215
176
     1
 74
     1
176
     1
 91
        4
176
     1
 64
     7
176
     1
 65
   257
176
     1
 75
     1
176
     1
175
     1
176
     1
 42
1.0
176
     1
 92
       12
176
     1
 66
     7
176
     1
 43
1.0
176
     1
 76
     1
176
     1
 77
     6
176
     1
 78
     2
176
     1
 67
     7
176
     1
 79
     5
176
     1
170
     0
176
     1
171
     0
176
     1
290
     0
176
     1
 93
        1
176
     1
 44
0.0
176
     1
173
     0
176
     1
  0
ENDSEC
  0
EOF
