  0
SECTION
  2
HEADER
  9
$ACADVER
  1
AC1021
  9
$ACADMAINTVER
 70
    25
  9
$DWGCODEPAGE
  3
ANSI_1252
  9
$INSBASE
 10
0.0
 20
0.0
 30
0.0
  9
$EXTMIN
 10
2085.0783
 20
-495.7431
 30
0.0
  9
$EXTMAX
 10
2633.8144
 20
183.4067
 30
0.0
  9
$LIMMIN
 10
0.0
 20
0.0
  9
$LIMMAX
 10
12.0
 20
9.0
  9
$ORTHOMODE
 70
     0
  9
$REGENMODE
 70
     1
  9
$FILLMODE
 70
     1
  9
$QTEXTMODE
 70
     0
  9
$MIRRTEXT
 70
     1
  9
$LTSCALE
 40
1.0
  9
$ATTMODE
 70
     1
  9
$TEXTSIZE
 40
0.2
  9
$TRACEWID
 40
0.05
  9
$TEXTSTYLE
  7
Standard
  9
$CLAYER
  8
0
  9
$CELTYPE
  6
ByLayer
  9
$CECOLOR
 62
   256
  9
$CELTSCALE
 40
1.0
  9
$DISPSILH
 70
     0
  9
$DIMSCALE
 40
1.0
  9
$DIMASZ
 40
0.18
  9
$DIMEXO
 40
0.0625
  9
$DIMDLI
 40
0.38
  9
$DIMRND
 40
0.0
  9
$DIMDLE
 40
0.0
  9
$DIMEXE
 40
0.18
  9
$DIMTP
 40
0.0
  9
$DIMTM
 40
0.0
  9
$DIMTXT
 40
0.18
  9
$DIMCEN
 40
0.09
  9
$DIMTSZ
 40
0.0
  9
$DIMTOL
 70
     0
  9
$DIMLIM
 70
     0
  9
$DIMTIH
 70
     1
  9
$DIMTOH
 70
     1
  9
$DIMSE1
 70
     0
  9
$DIMSE2
 70
     0
  9
$DIMTAD
 70
     0
  9
$DIMZIN
 70
     0
  9
$DIMBLK
  1

  9
$DIMASO
 70
     1
  9
$DIMSHO
 70
     1
  9
$DIMPOST
  1

  9
$DIMAPOST
  1

  9
$DIMALT
 70
     0
  9
$DIMALTD
 70
     2
  9
$DIMALTF
 40
25.4
  9
$DIMLFAC
 40
1.0
  9
$DIMTOFL
 70
     0
  9
$DIMTVP
 40
0.0
  9
$DIMTIX
 70
     0
  9
$DIMSOXD
 70
     0
  9
$DIMSAH
 70
     0
  9
$DIMBLK1
  1

  9
$DIMBLK2
  1

  9
$DIMSTYLE
  2
Standard
  9
$DIMCLRD
 70
     0
  9
$DIMCLRE
 70
     0
  9
$DIMCLRT
 70
     0
  9
$DIMTFAC
 40
1.0
  9
$DIMGAP
 40
0.09
  9
$DIMJUST
 70
     0
  9
$DIMSD1
 70
     0
  9
$DIMSD2
 70
     0
  9
$DIMTOLJ
 70
     1
  9
$DIMTZIN
 70
     0
  9
$DIMALTZ
 70
     0
  9
$DIMALTTZ
 70
     0
  9
$DIMUPT
 70
     0
  9
$DIMDEC
 70
     4
  9
$DIMTDEC
 70
     4
  9
$DIMALTU
 70
     2
  9
$DIMALTTD
 70
     2
  9
$DIMTXSTY
  7
Standard
  9
$DIMAUNIT
 70
     0
  9
$DIMADEC
 70
     0
  9
$DIMALTRND
 40
0.0
  9
$DIMAZIN
 70
     0
  9
$DIMDSEP
 70
    46
  9
$DIMATFIT
 70
     3
  9
$DIMFRAC
 70
     0
  9
$DIMLDRBLK
  1

  9
$DIMLUNIT
 70
     2
  9
$DIMLWD
 70
    -2
  9
$DIMLWE
 70
    -2
  9
$DIMTMOVE
 70
     0
  9
$DIMFXL
 40
1.0
  9
$DIMFXLON
 70
     0
  9
$DIMJOGANG
 40
0.7853981633974483
  9
$DIMTFILL
 70
     0
  9
$DIMTFILLCLR
 70
     0
  9
$DIMARCSYM
 70
     0
  9
$DIMLTYPE
  6

  9
$DIMLTEX1
  6

  9
$DIMLTEX2
  6

  9
$LUNITS
 70
     2
  9
$LUPREC
 70
     4
  9
$SKETCHINC
 40
0.1
  9
$FILLETRAD
 40
0.5
  9
$AUNITS
 70
     0
  9
$AUPREC
 70
     0
  9
$MENU
  1
.
  9
$ELEVATION
 40
0.0
  9
$PELEVATION
 40
0.0
  9
$THICKNESS
 40
0.0
  9
$LIMCHECK
 70
     0
  9
$CHAMFERA
 40
0.0
  9
$CHAMFERB
 40
0.0
  9
$CHAMFERC
 40
0.0
  9
$CHAMFERD
 40
0.0
  9
$SKPOLY
 70
     0
  9
$TDCREATE
 40
2460059.694835208
  9
$TDUCREATE
 40
2460059.465668542
  9
$TDUPDATE
 40
2460059.694835475
  9
$TDUUPDATE
 40
2460059.465668808
  9
$TDINDWG
 40
0.0000000116
  9
$TDUSRTIMER
 40
0.0000000116
  9
$USRTIMER
 70
     1
  9
$ANGBASE
 50
0.0
  9
$ANGDIR
 70
     0
  9
$PDMODE
 70
     0
  9
$PDSIZE
 40
0.0
  9
$PLINEWID
 40
0.0
  9
$SPLFRAME
 70
     0
  9
$SPLINETYPE
 70
     6
  9
$SPLINESEGS
 70
     8
  9
$HANDSEED
  5
169
  9
$SURFTAB1
 70
     6
  9
$SURFTAB2
 70
     6
  9
$SURFTYPE
 70
     6
  9
$SURFU
 70
     6
  9
$SURFV
 70
     6
  9
$UCSBASE
  2

  9
$UCSNAME
  2

  9
$UCSORG
 10
0.0
 20
0.0
 30
0.0
  9
$UCSXDIR
 10
1.0
 20
0.0
 30
0.0
  9
$UCSYDIR
 10
0.0
 20
1.0
 30
0.0
  9
$UCSORTHOREF
  2

  9
$UCSORTHOVIEW
 70
     0
  9
$UCSORGTOP
 10
0.0
 20
0.0
 30
0.0
  9
$UCSORGBOTTOM
 10
0.0
 20
0.0
 30
0.0
  9
$UCSORGLEFT
 10
0.0
 20
0.0
 30
0.0
  9
$UCSORGRIGHT
 10
0.0
 20
0.0
 30
0.0
  9
$UCSORGFRONT
 10
0.0
 20
0.0
 30
0.0
  9
$UCSORGBACK
 10
0.0
 20
0.0
 30
0.0
  9
$PUCSBASE
  2

  9
$PUCSNAME
  2

  9
$PUCSORG
 10
0.0
 20
0.0
 30
0.0
  9
$PUCSXDIR
 10
1.0
 20
0.0
 30
0.0
  9
$PUCSYDIR
 10
0.0
 20
1.0
 30
0.0
  9
$PUCSORTHOREF
  2

  9
$PUCSORTHOVIEW
 70
     0
  9
$PUCSORGTOP
 10
0.0
 20
0.0
 30
0.0
  9
$PUCSORGBOTTOM
 10
0.0
 20
0.0
 30
0.0
  9
$PUCSORGLEFT
 10
0.0
 20
0.0
 30
0.0
  9
$PUCSORGRIGHT
 10
0.0
 20
0.0
 30
0.0
  9
$PUCSORGFRONT
 10
0.0
 20
0.0
 30
0.0
  9
$PUCSORGBACK
 10
0.0
 20
0.0
 30
0.0
  9
$USERI1
 70
     0
  9
$USERI2
 70
     0
  9
$USERI3
 70
     0
  9
$USERI4
 70
     0
  9
$USERI5
 70
     0
  9
$USERR1
 40
0.0
  9
$USERR2
 40
0.0
  9
$USERR3
 40
0.0
  9
$USERR4
 40
0.0
  9
$USERR5
 40
0.0
  9
$WORLDVIEW
 70
     1
  9
$SHADEDGE
 70
     3
  9
$SHADEDIF
 70
    70
  9
$TILEMODE
 70
     1
  9
$MAXACTVP
 70
    64
  9
$PINSBASE
 10
0.0
 20
0.0
 30
0.0
  9
$PLIMCHECK
 70
     0
  9
$PEXTMIN
 10
1.000000000000000E+20
 20
1.000000000000000E+20
 30
1.000000000000000E+20
  9
$PEXTMAX
 10
-1.000000000000000E+20
 20
-1.000000000000000E+20
 30
-1.000000000000000E+20
  9
$PLIMMIN
 10
0.0
 20
0.0
  9
$PLIMMAX
 10
12.0
 20
9.0
  9
$UNITMODE
 70
     0
  9
$VISRETAIN
 70
     1
  9
$PLINEGEN
 70
     0
  9
$PSLTSCALE
 70
     1
  9
$TREEDEPTH
 70
  3020
  9
$CMLSTYLE
  2
Standard
  9
$CMLJUST
 70
     0
  9
$CMLSCALE
 40
1.0
  9
$PROXYGRAPHICS
 70
     1
  9
$MEASUREMENT
 70
     0
  9
$CELWEIGHT
370
    -1
  9
$ENDCAPS
280
     0
  9
$JOINSTYLE
280
     0
  9
$LWDISPLAY
290
     0
  9
$INSUNITS
 70
     4
  9
$HYPERLINKBASE
  1

  9
$STYLESHEET
  1

  9
$XEDIT
290
     1
  9
$CEPSNTYPE
380
     0
  9
$PSTYLEMODE
290
     1
  9
$FINGERPRINTGUID
  2
{BD15F8D2-C19F-4419-B61F-64112DA7E764}
  9
$VERSIONGUID
  2
{FAEB1C32-E019-11D5-929B-00C0DF256EC4}
  9
$EXTNAMES
290
     1
  9
$PSVPSCALE
 40
0.0
  9
$OLESTARTUP
290
     0
  9
$SORTENTS
280
   127
  9
$INDEXCTL
280
     0
  9
$HIDETEXT
280
     1
  9
$XCLIPFRAME
290
     0
  9
$HALOGAP
280
     0
  9
$OBSCOLOR
 70
   257
  9
$OBSLTYPE
280
     0
  9
$INTERSECTIONDISPLAY
280
     0
  9
$INTERSECTIONCOLOR
 70
   257
  9
$DIMASSOC
280
     2
  9
$PROJECTNAME
  1

  9
$CAMERADISPLAY
290
     0
  9
$LENSLENGTH
 40
50.0
  9
$CAMERAHEIGHT
 40
0.0
  9
$STEPSPERSEC
 40
2.0
  9
$STEPSIZE
 40
6.0
  9
$3DDWFPREC
 40
2.0
  9
$PSOLWIDTH
 40
0.25
  9
$PSOLHEIGHT
 40
4.0
  9
$LOFTANG1
 40
1.570796326794897
  9
$LOFTANG2
 40
1.570796326794897
  9
$LOFTMAG1
 40
0.0
  9
$LOFTMAG2
 40
0.0
  9
$LOFTPARAM
 70
     7
  9
$LOFTNORMALS
280
     1
  9
$LATITUDE
 40
37.795
  9
$LONGITUDE
 40
-122.394
  9
$NORTHDIRECTION
 40
0.0
  9
$TIMEZONE
 70
 -8000
  9
$LIGHTGLYPHDISPLAY
280
     1
  9
$TILEMODELIGHTSYNCH
280
     1
  9
$CMATERIAL
347
44
  9
$SOLIDHIST
280
     0
  9
$SHOWHIST
280
     1
  9
$DWFFRAME
280
     2
  9
$DGNFRAME
280
     2
  9
$REALWORLDSCALE
290
     1
  9
$INTERFERECOLOR
 62
   256
  9
$CSHADOW
280
     0
  9
$SHADOWPLANELOCATION
 40
0.0
  0
ENDSEC
  0
SECTION
  2
CLASSES
  0
CLASS
  1
ACDBDICTIONARYWDFLT
  2
AcDbDictionaryWithDefault
  3
ObjectDBX Classes
 90
        0
 91
        4
280
     0
281
     0
  0
CLASS
  1
VISUALSTYLE
  2
AcDbVisualStyle
  3
ObjectDBX Classes
 90
     4095
 91
        4
280
     0
281
     0
  0
CLASS
  1
MATERIAL
  2
AcDbMaterial
  3
ObjectDBX Classes
 90
     1153
 91
        4
280
     0
281
     0
  0
CLASS
  1
SCALE
  2
AcDbScale
  3
ObjectDBX Classes
 90
     1153
 91
        4
280
     0
281
     0
  0
CLASS
  1
TABLESTYLE
  2
AcDbTableStyle
  3
ObjectDBX Classes
 90
     4095
 91
        4
280
     0
281
     0
  0
CLASS
  1
MLEADERSTYLE
  2
AcDbMLeaderStyle
  3
ACDB_MLEADERSTYLE_CLASS
 90
     4095
 91
        4
280
     0
281
     0
  0
CLASS
  1
SUN
  2
AcDbSun
  3
SCENEOE
 90
     1153
 91
        4
280
     0
281
     0
  0
CLASS
  1
DICTIONARYVAR
  2
AcDbDictionaryVar
  3
ObjectDBX Classes
 90
        0
 91
        4
280
     0
281
     0
  0
CLASS
  1
CELLSTYLEMAP
  2
AcDbCellStyleMap
  3
ObjectDBX Classes
 90
     1152
 91
        4
280
     0
281
     0
  0
ENDSEC
  0
SECTION
  2
TABLES
  0
TABLE
  2
VPORT
  5
8
330
0
100
AcDbSymbolTable
 70
     1
  0
VPORT
  5
29
330
8
100
AcDbSymbolTableRecord
100
AcDbViewportTableRecord
  2
*Active
 70
     0
 10
0.0
 20
0.0
 11
1.0
 21
1.0
 12
10.42990654205607
 22
4.5
 13
0.0
 23
0.0
 14
0.5
 24
0.5
 15
0.5
 25
0.5
 16
0.0
 26
0.0
 36
1.0
 17
0.0
 27
0.0
 37
0.0
 40
9.0
 41
1.972972972850329
 42
50.0
 43
0.0
 44
0.0
 50
0.0
 51
0.0
 71
     0
 72
   100
 73
     1
 74
     3
 75
     0
 76
     0
 77
     0
 78
     0
281
     0
 65
     1
110
0.0
120
0.0
130
0.0
111
1.0
121
0.0
131
0.0
112
0.0
122
1.0
132
0.0
 79
     0
146
0.0
348
2F
 60
     3
 61
     5
292
     1
282
     1
141
0.0
142
0.0
 63
   250
361
6D
  0
ENDTAB
  0
TABLE
  2
LTYPE
  5
5
330
0
100
AcDbSymbolTable
 70
     1
  0
LTYPE
  5
14
330
5
100
AcDbSymbolTableRecord
100
AcDbLinetypeTableRecord
  2
ByBlock
 70
     0
  3

 72
    65
 73
     0
 40
0.0
  0
LTYPE
  5
15
330
5
100
AcDbSymbolTableRecord
100
AcDbLinetypeTableRecord
  2
ByLayer
 70
     0
  3

 72
    65
 73
     0
 40
0.0
  0
LTYPE
  5
16
330
5
100
AcDbSymbolTableRecord
100
AcDbLinetypeTableRecord
  2
Continuous
 70
     0
  3
Solid line
 72
    65
 73
     0
 40
0.0
  0
ENDTAB
  0
TABLE
  2
LAYER
  5
2
330
0
100
AcDbSymbolTable
 70
     2
  0
LAYER
  5
10
330
2
100
AcDbSymbolTableRecord
100
AcDbLayerTableRecord
  2
0
 70
     0
 62
     7
  6
Continuous
370
    -3
390
F
347
46
  0
LAYER
  5
6F
330
2
100
AcDbSymbolTableRecord
100
AcDbLayerTableRecord
  2
Layer 1
 70
     0
 62
     7
  6
Continuous
370
    -3
390
F
347
46
  0
ENDTAB
  0
TABLE
  2
STYLE
  5
3
330
0
100
AcDbSymbolTable
 70
     1
  0
STYLE
  5
11
330
3
100
AcDbSymbolTableRecord
100
AcDbTextStyleTableRecord
  2
Standard
 70
     0
 40
0.0
 41
1.0
 50
0.0
 71
     0
 42
0.2
  3
txt
  4

  0
ENDTAB
  0
TABLE
  2
VIEW
  5
6
330
0
100
AcDbSymbolTable
 70
     0
  0
ENDTAB
  0
TABLE
  2
UCS
  5
7
330
0
100
AcDbSymbolTable
 70
     0
  0
ENDTAB
  0
TABLE
  2
APPID
  5
9
330
0
100
AcDbSymbolTable
 70
     3
  0
APPID
  5
12
330
9
100
AcDbSymbolTableRecord
100
AcDbRegAppTableRecord
  2
ACAD
 70
     0
  0
APPID
  5
6E
330
9
100
AcDbSymbolTableRecord
100
AcDbRegAppTableRecord
  2
ODA
 70
     0
  0
APPID
  5
161
330
9
100
AcDbSymbolTableRecord
100
AcDbRegAppTableRecord
  2
ACAD_MLEADERVER
 70
     0
  0
ENDTAB
  0
TABLE
  2
DIMSTYLE
  5
A
330
0
100
AcDbSymbolTable
 70
     1
100
AcDbDimStyleTable
  0
DIMSTYLE
105
27
330
A
100
AcDbSymbolTableRecord
100
AcDbDimStyleTableRecord
  2
Standard
 70
     0
178
     0
340
11
  0
ENDTAB
  0
TABLE
  2
BLOCK_RECORD
  5
1
330
0
100
AcDbSymbolTable
 70
     1
  0
BLOCK_RECORD
  5
1F
330
1
100
AcDbSymbolTableRecord
100
AcDbBlockTableRecord
  2
*Model_Space
340
22
 70
     0
280
     1
281
     0
  0
BLOCK_RECORD
  5
1B
330
1
100
AcDbSymbolTableRecord
100
AcDbBlockTableRecord
  2
*Paper_Space
340
1E
 70
     0
280
     1
281
     0
  0
BLOCK_RECORD
  5
23
330
1
100
AcDbSymbolTableRecord
100
AcDbBlockTableRecord
  2
*Paper_Space0
340
26
 70
     0
280
     1
281
     0
  0
ENDTAB
  0
ENDSEC
  0
SECTION
  2
BLOCKS
  0
BLOCK
  5
20
330
1F
100
AcDbEntity
  8
0
100
AcDbBlockBegin
  2
*Model_Space
 70
     0
 10
0.0
 20
0.0
 30
0.0
  3
*Model_Space
  1

  0
ENDBLK
  5
21
330
1F
100
AcDbEntity
  8
0
100
AcDbBlockEnd
  0
BLOCK
  5
1C
330
1B
100
AcDbEntity
 67
     1
  8
0
100
AcDbBlockBegin
  2
*Paper_Space
 70
     0
 10
0.0
 20
0.0
 30
0.0
  3
*Paper_Space
  1

  0
ENDBLK
  5
1D
330
1B
100
AcDbEntity
 67
     1
  8
0
100
AcDbBlockEnd
  0
BLOCK
  5
24
330
23
100
AcDbEntity
  8
0
100
AcDbBlockBegin
  2
*Paper_Space0
 70
     0
 10
0.0
 20
0.0
 30
0.0
  3
*Paper_Space0
  1

  0
ENDBLK
  5
25
330
23
100
AcDbEntity
  8
0
100
AcDbBlockEnd
  0
ENDSEC
  0
SECTION
  2
ENTITIES
  0
SPLINE
  5
70
330
1F
100
AcDbEntity
  8
Layer 1
 62
   250
370
    20
100
AcDbSpline
210
0.0
220
0.0
230
1.0
 70
    11
 71
     3
 72
    20
 73
    16
 74
     0
 42
0.000000001
 43
0.0000000001
 40
0.0
 40
0.0
 40
0.0
 40
0.0
 40
0.2
 40
0.2
 40
0.2
 40
0.2
 40
0.4
 40
0.4
 40
0.4
 40
0.4
 40
0.6
 40
0.6
 40
0.6
 40
0.6
 40
1.0
 40
1.0
 40
1.0
 40
1.0
 10
2414.0782
 20
23.5191
 30
0.0
 10
2414.0782
 20
27.1642
 30
0.0
 10
2417.0331
 20
30.1191
 30
0.0
 10
2420.6782
 20
30.1191
 30
0.0
 10
2420.6782
 20
30.1191
 30
0.0
 10
2424.3233
 20
30.1191
 30
0.0
 10
2427.2782
 20
27.1642
 30
0.0
 10
2427.2782
 20
23.5191
 30
0.0
 10
2427.2782
 20
23.5191
 30
0.0
 10
2427.2782
 20
19.874
 30
0.0
 10
2424.3232
 20
16.9191
 30
0.0
 10
2420.6782
 20
16.9191
 30
0.0
 10
2420.6782
 20
16.9191
 30
0.0
 10
2417.0331
 20
16.9191
 30
0.0
 10
2414.0782
 20
19.8741
 30
0.0
 10
2414.0782
 20
23.5191
 30
0.0
  0
SPLINE
  5
71
330
1F
100
AcDbEntity
  8
Layer 1
 62
   250
370
    20
100
AcDbSpline
210
0.0
220
0.0
230
1.0
 70
    11
 71
     3
 72
    36
 73
    32
 74
     0
 42
0.000000001
 43
0.0000000001
 40
0.0
 40
0.0
 40
0.0
 40
0.0
 40
0.1111111111111111
 40
0.1111111111111111
 40
0.1111111111111111
 40
0.1111111111111111
 40
0.2222222222222222
 40
0.2222222222222222
 40
0.2222222222222222
 40
0.2222222222222222
 40
0.3333333333333333
 40
0.3333333333333333
 40
0.3333333333333333
 40
0.3333333333333333
 40
0.4444444444444444
 40
0.4444444444444444
 40
0.4444444444444444
 40
0.4444444444444444
 40
0.5555555555555556
 40
0.5555555555555556
 40
0.5555555555555556
 40
0.5555555555555556
 40
0.6666666666666666
 40
0.6666666666666666
 40
0.6666666666666666
 40
0.6666666666666666
 40
0.7777777777777778
 40
0.7777777777777778
 40
0.7777777777777778
 40
0.7777777777777778
 40
1.0
 40
1.0
 40
1.0
 40
1.0
 10
2406.1782
 20
183.3067
 30
0.0
 10
2406.1782
 20
183.3067
 30
0.0
 10
2135.1783
 20
183.3067
 30
0.0
 10
2135.1783
 20
183.3067
 30
0.0
 10
2135.1783
 20
183.3067
 30
0.0
 10
2121.9259
 20
183.2983
 30
0.0
 10
2109.1563
 20
178.0257
 30
0.0
 10
2099.7913
 20
168.6489
 30
0.0
 10
2099.7913
 20
168.6489
 30
0.0
 10
2090.4264
 20
159.2721
 30
0.0
 10
2085.1699
 20
146.5591
 30
0.0
 10
2085.1783
 20
133.3067
 30
0.0
 10
2085.1783
 20
133.3067
 30
0.0
 10
2085.1783
 20
133.3067
 30
0.0
 10
2085.1783
 20
-19.9808
 30
0.0
 10
2085.1783
 20
-19.9808
 30
0.0
 10
2085.1783
 20
-19.9808
 30
0.0
 10
2085.1783
 20
-19.9808
 30
0.0
 10
2456.1782
 20
-19.9808
 30
0.0
 10
2456.1782
 20
-19.9808
 30
0.0
 10
2456.1782
 20
-19.9808
 30
0.0
 10
2456.1782
 20
-19.9808
 30
0.0
 10
2456.1782
 20
133.3067
 30
0.0
 10
2456.1782
 20
133.3067
 30
0.0
 10
2456.1782
 20
133.3067
 30
0.0
 10
2456.1698
 20
146.5591
 30
0.0
 10
2450.8973
 20
159.3287
 30
0.0
 10
2441.5204
 20
168.6937
 30
0.0
 10
2441.5204
 20
168.6937
 30
0.0
 10
2432.1436
 20
178.0586
 30
0.0
 10
2419.4306
 20
183.3151
 30
0.0
 10
2406.1782
 20
183.3067
 30
0.0
  0
SPLINE
  5
72
330
1F
100
AcDbEntity
  8
Layer 1
 62
   250
370
    20
100
AcDbSpline
210
0.0
220
0.0
230
1.0
 70
    11
 71
     3
 72
    20
 73
    16
 74
     0
 42
0.000000001
 43
0.0000000001
 40
0.0
 40
0.0
 40
0.0
 40
0.0
 40
0.2
 40
0.2
 40
0.2
 40
0.2
 40
0.4
 40
0.4
 40
0.4
 40
0.4
 40
0.6
 40
0.6
 40
0.6
 40
0.6
 40
1.0
 40
1.0
 40
1.0
 40
1.0
 10
2270.6782
 20
149.2067
 30
0.0
 10
2267.0331
 20
149.2067
 30
0.0
 10
2264.0782
 20
152.1616
 30
0.0
 10
2264.0782
 20
155.8067
 30
0.0
 10
2264.0782
 20
155.8067
 30
0.0
 10
2264.0782
 20
159.4518
 30
0.0
 10
2267.0331
 20
162.4067
 30
0.0
 10
2270.6782
 20
162.4067
 30
0.0
 10
2270.6782
 20
162.4067
 30
0.0
 10
2274.3233
 20
162.4067
 30
0.0
 10
2277.2782
 20
159.4518
 30
0.0
 10
2277.2782
 20
155.8066
 30
0.0
 10
2277.2782
 20
155.8066
 30
0.0
 10
2277.2782
 20
152.1616
 30
0.0
 10
2274.3232
 20
149.2067
 30
0.0
 10
2270.6782
 20
149.2067
 30
0.0
  0
SPLINE
  5
73
330
1F
100
AcDbEntity
  8
Layer 1
 62
   250
370
    20
100
AcDbSpline
210
0.0
220
0.0
230
1.0
 70
    11
 71
     3
 72
    20
 73
    16
 74
     0
 42
0.000000001
 43
0.0000000001
 40
0.0
 40
0.0
 40
0.0
 40
0.0
 40
0.2
 40
0.2
 40
0.2
 40
0.2
 40
0.4
 40
0.4
 40
0.4
 40
0.4
 40
0.6
 40
0.6
 40
0.6
 40
0.6
 40
1.0
 40
1.0
 40
1.0
 40
1.0
 10
2253.1782
 20
145.7067
 30
0.0
 10
2252.0185
 20
145.7067
 30
0.0
 10
2251.0783
 20
146.6469
 30
0.0
 10
2251.0783
 20
147.8067
 30
0.0
 10
2251.0783
 20
147.8067
 30
0.0
 10
2251.0783
 20
148.9665
 30
0.0
 10
2252.0185
 20
149.9067
 30
0.0
 10
2253.1782
 20
149.9067
 30
0.0
 10
2253.1782
 20
149.9067
 30
0.0
 10
2254.338
 20
149.9067
 30
0.0
 10
2255.2782
 20
148.9665
 30
0.0
 10
2255.2782
 20
147.8067
 30
0.0
 10
2255.2782
 20
147.8067
 30
0.0
 10
2255.2782
 20
146.6469
 30
0.0
 10
2254.338
 20
145.7067
 30
0.0
 10
2253.1782
 20
145.7067
 30
0.0
  0
SPLINE
  5
74
330
1F
100
AcDbEntity
  8
Layer 1
 62
   250
370
    20
100
AcDbSpline
210
0.0
220
0.0
230
1.0
 70
    11
 71
     3
 72
    20
 73
    16
 74
     0
 42
0.000000001
 43
0.0000000001
 40
0.0
 40
0.0
 40
0.0
 40
0.0
 40
0.2
 40
0.2
 40
0.2
 40
0.2
 40
0.4
 40
0.4
 40
0.4
 40
0.4
 40
0.6
 40
0.6
 40
0.6
 40
0.6
 40
1.0
 40
1.0
 40
1.0
 40
1.0
 10
2120.6783
 20
30.1191
 30
0.0
 10
2124.3234
 20
30.1191
 30
0.0
 10
2127.2783
 20
27.1642
 30
0.0
 10
2127.2783
 20
23.5191
 30
0.0
 10
2127.2783
 20
23.5191
 30
0.0
 10
2127.2783
 20
19.874
 30
0.0
 10
2124.3233
 20
16.9191
 30
0.0
 10
2120.6783
 20
16.9191
 30
0.0
 10
2120.6783
 20
16.9191
 30
0.0
 10
2117.0332
 20
16.9191
 30
0.0
 10
2114.0783
 20
19.8741
 30
0.0
 10
2114.0783
 20
23.5191
 30
0.0
 10
2114.0783
 20
23.5191
 30
0.0
 10
2114.0783
 20
27.1642
 30
0.0
 10
2117.0332
 20
30.1191
 30
0.0
 10
2120.6783
 20
30.1191
 30
0.0
  0
SPLINE
  5
75
330
1F
100
AcDbEntity
  8
Layer 1
 62
   250
370
    20
100
AcDbSpline
210
0.0
220
0.0
230
1.0
 70
    11
 71
     3
 72
    20
 73
    16
 74
     0
 42
0.000000001
 43
0.0000000001
 40
0.0
 40
0.0
 40
0.0
 40
0.0
 40
0.2
 40
0.2
 40
0.2
 40
0.2
 40
0.4
 40
0.4
 40
0.4
 40
0.4
 40
0.6
 40
0.6
 40
0.6
 40
0.6
 40
1.0
 40
1.0
 40
1.0
 40
1.0
 10
2138.1783
 20
17.6191
 30
0.0
 10
2139.3381
 20
17.6191
 30
0.0
 10
2140.2783
 20
16.6789
 30
0.0
 10
2140.2783
 20
15.5192
 30
0.0
 10
2140.2783
 20
15.5192
 30
0.0
 10
2140.2783
 20
14.3594
 30
0.0
 10
2139.3381
 20
13.4192
 30
0.0
 10
2138.1783
 20
13.4192
 30
0.0
 10
2138.1783
 20
13.4192
 30
0.0
 10
2137.0185
 20
13.4192
 30
0.0
 10
2136.0783
 20
14.3594
 30
0.0
 10
2136.0783
 20
15.5192
 30
0.0
 10
2136.0783
 20
15.5192
 30
0.0
 10
2136.0783
 20
16.6789
 30
0.0
 10
2137.0185
 20
17.6191
 30
0.0
 10
2138.1783
 20
17.6191
 30
0.0
  0
SPLINE
  5
76
330
1F
100
AcDbEntity
  8
Layer 1
 62
   250
370
    20
100
AcDbSpline
210
0.0
220
0.0
230
1.0
 70
    11
 71
     3
 72
    20
 73
    16
 74
     0
 42
0.000000001
 43
0.0000000001
 40
0.0
 40
0.0
 40
0.0
 40
0.0
 40
0.2
 40
0.2
 40
0.2
 40
0.2
 40
0.4
 40
0.4
 40
0.4
 40
0.4
 40
0.6
 40
0.6
 40
0.6
 40
0.6
 40
1.0
 40
1.0
 40
1.0
 40
1.0
 10
2288.1782
 20
145.7067
 30
0.0
 10
2287.0184
 20
145.7067
 30
0.0
 10
2286.0782
 20
146.6469
 30
0.0
 10
2286.0782
 20
147.8067
 30
0.0
 10
2286.0782
 20
147.8067
 30
0.0
 10
2286.0782
 20
148.9665
 30
0.0
 10
2287.0184
 20
149.9067
 30
0.0
 10
2288.1782
 20
149.9067
 30
0.0
 10
2288.1782
 20
149.9067
 30
0.0
 10
2289.338
 20
149.9067
 30
0.0
 10
2290.2782
 20
148.9665
 30
0.0
 10
2290.2782
 20
147.8067
 30
0.0
 10
2290.2782
 20
147.8067
 30
0.0
 10
2290.2782
 20
146.6469
 30
0.0
 10
2289.338
 20
145.7067
 30
0.0
 10
2288.1782
 20
145.7067
 30
0.0
  0
SPLINE
  5
77
330
1F
100
AcDbEntity
  8
Layer 1
 62
   250
370
    20
100
AcDbSpline
210
0.0
220
0.0
230
1.0
 70
    11
 71
     3
 72
    20
 73
    16
 74
     0
 42
0.000000001
 43
0.0000000001
 40
0.0
 40
0.0
 40
0.0
 40
0.0
 40
0.2
 40
0.2
 40
0.2
 40
0.2
 40
0.4
 40
0.4
 40
0.4
 40
0.4
 40
0.6
 40
0.6
 40
0.6
 40
0.6
 40
1.0
 40
1.0
 40
1.0
 40
1.0
 10
2436.0782
 20
15.5192
 30
0.0
 10
2436.0782
 20
16.6789
 30
0.0
 10
2437.0184
 20
17.6191
 30
0.0
 10
2438.1782
 20
17.6191
 30
0.0
 10
2438.1782
 20
17.6191
 30
0.0
 10
2439.338
 20
17.6191
 30
0.0
 10
2440.2782
 20
16.6789
 30
0.0
 10
2440.2782
 20
15.5192
 30
0.0
 10
2440.2782
 20
15.5192
 30
0.0
 10
2440.2782
 20
14.3594
 30
0.0
 10
2439.338
 20
13.4192
 30
0.0
 10
2438.1782
 20
13.4192
 30
0.0
 10
2438.1782
 20
13.4192
 30
0.0
 10
2437.0184
 20
13.4192
 30
0.0
 10
2436.0782
 20
14.3594
 30
0.0
 10
2436.0782
 20
15.5192
 30
0.0
  0
SPLINE
  5
78
330
1F
100
AcDbEntity
  8
Layer 1
 62
   250
370
    20
100
AcDbSpline
210
0.0
220
0.0
230
1.0
 70
    11
 71
     3
 72
    20
 73
    16
 74
     0
 42
0.000000001
 43
0.0000000001
 40
0.0
 40
0.0
 40
0.0
 40
0.0
 40
0.2
 40
0.2
 40
0.2
 40
0.2
 40
0.4
 40
0.4
 40
0.4
 40
0.4
 40
0.6
 40
0.6
 40
0.6
 40
0.6
 40
1.0
 40
1.0
 40
1.0
 40
1.0
 10
2401.0782
 20
15.5192
 30
0.0
 10
2401.0782
 20
16.6789
 30
0.0
 10
2402.0184
 20
17.6191
 30
0.0
 10
2403.1782
 20
17.6191
 30
0.0
 10
2403.1782
 20
17.6191
 30
0.0
 10
2404.338
 20
17.6191
 30
0.0
 10
2405.2782
 20
16.6789
 30
0.0
 10
2405.2782
 20
15.5192
 30
0.0
 10
2405.2782
 20
15.5192
 30
0.0
 10
2405.2782
 20
14.3594
 30
0.0
 10
2404.338
 20
13.4192
 30
0.0
 10
2403.1782
 20
13.4192
 30
0.0
 10
2403.1782
 20
13.4192
 30
0.0
 10
2402.0184
 20
13.4192
 30
0.0
 10
2401.0782
 20
14.3594
 30
0.0
 10
2401.0782
 20
15.5192
 30
0.0
  0
SPLINE
  5
79
330
1F
100
AcDbEntity
  8
Layer 1
 62
   250
370
    20
100
AcDbSpline
210
0.0
220
0.0
230
1.0
 70
    11
 71
     3
 72
    20
 73
    16
 74
     0
 42
0.000000001
 43
0.0000000001
 40
0.0
 40
0.0
 40
0.0
 40
0.0
 40
0.2
 40
0.2
 40
0.2
 40
0.2
 40
0.4
 40
0.4
 40
0.4
 40
0.4
 40
0.6
 40
0.6
 40
0.6
 40
0.6
 40
1.0
 40
1.0
 40
1.0
 40
1.0
 10
2103.1783
 20
17.6191
 30
0.0
 10
2104.3381
 20
17.6191
 30
0.0
 10
2105.2783
 20
16.6789
 30
0.0
 10
2105.2783
 20
15.5192
 30
0.0
 10
2105.2783
 20
15.5192
 30
0.0
 10
2105.2783
 20
14.3594
 30
0.0
 10
2104.3381
 20
13.4192
 30
0.0
 10
2103.1783
 20
13.4192
 30
0.0
 10
2103.1783
 20
13.4192
 30
0.0
 10
2102.0185
 20
13.4192
 30
0.0
 10
2101.0783
 20
14.3594
 30
0.0
 10
2101.0783
 20
15.5192
 30
0.0
 10
2101.0783
 20
15.5192
 30
0.0
 10
2101.0783
 20
16.6789
 30
0.0
 10
2102.0185
 20
17.6191
 30
0.0
 10
2103.1783
 20
17.6191
 30
0.0
  0
ELLIPSE
  5
7A
330
1F
100
AcDbEntity
  8
Layer 1
 62
   142
370
    20
100
AcDbEllipse
 10
2273.5228
 20
-185.0625
 30
0.0
 11
0.0
 21
4.0001
 31
0.0
210
0.0
220
0.0
230
1.0
 40
1.0
 41
0.0
 42
6.283185307179586
  0
ELLIPSE
  5
7B
330
1F
100
AcDbEntity
  8
Layer 1
 62
   142
370
    20
100
AcDbEllipse
 10
2273.5228
 20
-164.4626
 30
0.0
 11
0.0
 21
4.0001
 31
0.0
210
0.0
220
0.0
230
1.0
 40
1.0
 41
0.0
 42
6.283185307179586
  0
SPLINE
  5
7C
330
1F
100
AcDbEntity
  8
Layer 1
 62
   250
370
    20
100
AcDbSpline
210
0.0
220
0.0
230
1.0
 70
    11
 71
     3
 72
    20
 73
    16
 74
     0
 42
0.000000001
 43
0.0000000001
 40
0.0
 40
0.0
 40
0.0
 40
0.0
 40
0.2
 40
0.2
 40
0.2
 40
0.2
 40
0.4
 40
0.4
 40
0.4
 40
0.4
 40
0.6
 40
0.6
 40
0.6
 40
0.6
 40
1.0
 40
1.0
 40
1.0
 40
1.0
 10
2383.5227
 20
-174.7624
 30
0.0
 10
2383.5227
 20
-114.0112
 30
0.0
 10
2334.2741
 20
-64.7626
 30
0.0
 10
2273.5228
 20
-64.7625
 30
0.0
 10
2273.5228
 20
-64.7625
 30
0.0
 10
2212.7717
 20
-64.7624
 30
0.0
 10
2163.523
 20
-114.0109
 30
0.0
 10
2163.5228
 20
-174.7621
 30
0.0
 10
2163.5228
 20
-174.7621
 30
0.0
 10
2163.5226
 20
-235.5134
 30
0.0
 10
2212.7711
 20
-284.7622
 30
0.0
 10
2273.5223
 20
-284.7624
 30
0.0
 10
2273.5223
 20
-284.7624
 30
0.0
 10
2334.2735
 20
-284.7626
 30
0.0
 10
2383.5224
 20
-235.5142
 30
0.0
 10
2383.5227
 20
-174.7624
 30
0.0
  0
SPLINE
  5
7D
330
1F
100
AcDbEntity
  8
Layer 1
 62
   250
370
    20
100
AcDbSpline
210
0.0
220
0.0
230
1.0
 70
    11
 71
     3
 72
    20
 73
    16
 74
     0
 42
0.000000001
 43
0.0000000001
 40
0.0
 40
0.0
 40
0.0
 40
0.0
 40
0.2
 40
0.2
 40
0.2
 40
0.2
 40
0.4
 40
0.4
 40
0.4
 40
0.4
 40
0.6
 40
0.6
 40
0.6
 40
0.6
 40
1.0
 40
1.0
 40
1.0
 40
1.0
 10
2273.5227
 20
-162.4125
 30
0.0
 10
2274.6549
 20
-162.4125
 30
0.0
 10
2275.5727
 20
-163.3303
 30
0.0
 10
2275.5727
 20
-164.4625
 30
0.0
 10
2275.5727
 20
-164.4625
 30
0.0
 10
2275.5727
 20
-165.5947
 30
0.0
 10
2274.6549
 20
-166.5125
 30
0.0
 10
2273.5227
 20
-166.5125
 30
0.0
 10
2273.5227
 20
-166.5125
 30
0.0
 10
2272.3905
 20
-166.5125
 30
0.0
 10
2271.4727
 20
-165.5947
 30
0.0
 10
2271.4727
 20
-164.4625
 30
0.0
 10
2271.4727
 20
-164.4625
 30
0.0
 10
2271.4727
 20
-163.3303
 30
0.0
 10
2272.3905
 20
-162.4125
 30
0.0
 10
2273.5227
 20
-162.4125
 30
0.0
  0
SPLINE
  5
7E
330
1F
100
AcDbEntity
  8
Layer 1
 62
   250
370
    20
100
AcDbSpline
210
0.0
220
0.0
230
1.0
 70
    11
 71
     3
 72
    20
 73
    16
 74
     0
 42
0.000000001
 43
0.0000000001
 40
0.0
 40
0.0
 40
0.0
 40
0.0
 40
0.2
 40
0.2
 40
0.2
 40
0.2
 40
0.4
 40
0.4
 40
0.4
 40
0.4
 40
0.6
 40
0.6
 40
0.6
 40
0.6
 40
1.0
 40
1.0
 40
1.0
 40
1.0
 10
2273.5227
 20
-183.0124
 30
0.0
 10
2274.6549
 20
-183.0124
 30
0.0
 10
2275.5727
 20
-183.9302
 30
0.0
 10
2275.5727
 20
-185.0624
 30
0.0
 10
2275.5727
 20
-185.0624
 30
0.0
 10
2275.5727
 20
-186.1946
 30
0.0
 10
2274.6549
 20
-187.1124
 30
0.0
 10
2273.5227
 20
-187.1124
 30
0.0
 10
2273.5227
 20
-187.1124
 30
0.0
 10
2272.3905
 20
-187.1124
 30
0.0
 10
2271.4727
 20
-186.1946
 30
0.0
 10
2271.4727
 20
-185.0624
 30
0.0
 10
2271.4727
 20
-185.0624
 30
0.0
 10
2271.4727
 20
-183.9302
 30
0.0
 10
2272.3905
 20
-183.0124
 30
0.0
 10
2273.5227
 20
-183.0124
 30
0.0
  0
SPLINE
  5
7F
330
1F
100
AcDbEntity
  8
Layer 1
 62
   250
370
    20
100
AcDbSpline
210
0.0
220
0.0
230
1.0
 70
    11
 71
     3
 72
    20
 73
    16
 74
     0
 42
0.000000001
 43
0.0000000001
 40
0.0
 40
0.0
 40
0.0
 40
0.0
 40
0.2
 40
0.2
 40
0.2
 40
0.2
 40
0.4
 40
0.4
 40
0.4
 40
0.4
 40
0.6
 40
0.6
 40
0.6
 40
0.6
 40
1.0
 40
1.0
 40
1.0
 40
1.0
 10
2285.0149
 20
-428.0931
 30
0.0
 10
2285.8709
 20
-428.0931
 30
0.0
 10
2286.5649
 20
-428.7871
 30
0.0
 10
2286.5649
 20
-429.6431
 30
0.0
 10
2286.5649
 20
-429.6431
 30
0.0
 10
2286.5649
 20
-430.4991
 30
0.0
 10
2285.8709
 20
-431.1931
 30
0.0
 10
2285.0149
 20
-431.1931
 30
0.0
 10
2285.0149
 20
-431.1931
 30
0.0
 10
2284.1589
 20
-431.1931
 30
0.0
 10
2283.4649
 20
-430.4991
 30
0.0
 10
2283.4649
 20
-429.6431
 30
0.0
 10
2283.4649
 20
-429.6431
 30
0.0
 10
2283.4649
 20
-428.7871
 30
0.0
 10
2284.1589
 20
-428.0931
 30
0.0
 10
2285.0149
 20
-428.0931
 30
0.0
  0
SPLINE
  5
80
330
1F
100
AcDbEntity
  8
Layer 1
 62
   250
370
    20
100
AcDbSpline
210
0.0
220
0.0
230
1.0
 70
    11
 71
     3
 72
    36
 73
    32
 74
     0
 42
0.000000001
 43
0.0000000001
 40
0.0
 40
0.0
 40
0.0
 40
0.0
 40
0.1111111111111111
 40
0.1111111111111111
 40
0.1111111111111111
 40
0.1111111111111111
 40
0.2222222222222222
 40
0.2222222222222222
 40
0.2222222222222222
 40
0.2222222222222222
 40
0.3333333333333333
 40
0.3333333333333333
 40
0.3333333333333333
 40
0.3333333333333333
 40
0.4444444444444444
 40
0.4444444444444444
 40
0.4444444444444444
 40
0.4444444444444444
 40
0.5555555555555556
 40
0.5555555555555556
 40
0.5555555555555556
 40
0.5555555555555556
 40
0.6666666666666666
 40
0.6666666666666666
 40
0.6666666666666666
 40
0.6666666666666666
 40
0.7777777777777778
 40
0.7777777777777778
 40
0.7777777777777778
 40
0.7777777777777778
 40
1.0
 40
1.0
 40
1.0
 40
1.0
 10
2330.0149
 20
-334.6431
 30
0.0
 10
2330.0149
 20
-334.6431
 30
0.0
 10
2210.0149
 20
-334.6431
 30
0.0
 10
2210.0149
 20
-334.6431
 30
0.0
 10
2210.0149
 20
-334.6431
 30
0.0
 10
2204.5071
 20
-334.6431
 30
0.0
 10
2200.0149
 20
-339.1353
 30
0.0
 10
2200.0149
 20
-344.6431
 30
0.0
 10
2200.0149
 20
-344.6431
 30
0.0
 10
2200.0149
 20
-344.6431
 30
0.0
 10
2200.0149
 20
-429.6431
 30
0.0
 10
2200.0149
 20
-429.6431
 30
0.0
 10
2200.0149
 20
-429.6431
 30
0.0
 10
2200.0149
 20
-435.1509
 30
0.0
 10
2204.5071
 20
-439.6431
 30
0.0
 10
2210.0149
 20
-439.6431
 30
0.0
 10
2210.0149
 20
-439.6431
 30
0.0
 10
2210.0149
 20
-439.6431
 30
0.0
 10
2330.0149
 20
-439.6431
 30
0.0
 10
2330.0149
 20
-439.6431
 30
0.0
 10
2330.0149
 20
-439.6431
 30
0.0
 10
2335.5227
 20
-439.6431
 30
0.0
 10
2340.0149
 20
-435.1509
 30
0.0
 10
2340.0149
 20
-429.6431
 30
0.0
 10
2340.0149
 20
-429.6431
 30
0.0
 10
2340.0149
 20
-429.6431
 30
0.0
 10
2340.0149
 20
-344.6431
 30
0.0
 10
2340.0149
 20
-344.6431
 30
0.0
 10
2340.0149
 20
-344.6431
 30
0.0
 10
2340.0149
 20
-339.1353
 30
0.0
 10
2335.5227
 20
-334.6431
 30
0.0
 10
2330.0149
 20
-334.6431
 30
0.0
  0
SPLINE
  5
81
330
1F
100
AcDbEntity
  8
Layer 1
 62
   250
370
    20
100
AcDbSpline
210
0.0
220
0.0
230
1.0
 70
    11
 71
     3
 72
    20
 73
    16
 74
     0
 42
0.000000001
 43
0.0000000001
 40
0.0
 40
0.0
 40
0.0
 40
0.0
 40
0.2
 40
0.2
 40
0.2
 40
0.2
 40
0.4
 40
0.4
 40
0.4
 40
0.4
 40
0.6
 40
0.6
 40
0.6
 40
0.6
 40
1.0
 40
1.0
 40
1.0
 40
1.0
 10
2271.5649
 20
-344.6431
 30
0.0
 10
2271.5649
 20
-345.4991
 30
0.0
 10
2270.8709
 20
-346.1931
 30
0.0
 10
2270.0149
 20
-346.1931
 30
0.0
 10
2270.0149
 20
-346.1931
 30
0.0
 10
2269.1589
 20
-346.1931
 30
0.0
 10
2268.4649
 20
-345.4991
 30
0.0
 10
2268.4649
 20
-344.6431
 30
0.0
 10
2268.4649
 20
-344.6431
 30
0.0
 10
2268.4649
 20
-343.7871
 30
0.0
 10
2269.1589
 20
-343.0931
 30
0.0
 10
2270.0149
 20
-343.0931
 30
0.0
 10
2270.0149
 20
-343.0931
 30
0.0
 10
2270.8709
 20
-343.0931
 30
0.0
 10
2271.5649
 20
-343.7871
 30
0.0
 10
2271.5649
 20
-344.6431
 30
0.0
  0
SPLINE
  5
82
330
1F
100
AcDbEntity
  8
Layer 1
 62
   250
370
    20
100
AcDbSpline
210
0.0
220
0.0
230
1.0
 70
    11
 71
     3
 72
    20
 73
    16
 74
     0
 42
0.000000001
 43
0.0000000001
 40
0.0
 40
0.0
 40
0.0
 40
0.0
 40
0.2
 40
0.2
 40
0.2
 40
0.2
 40
0.4
 40
0.4
 40
0.4
 40
0.4
 40
0.6
 40
0.6
 40
0.6
 40
0.6
 40
1.0
 40
1.0
 40
1.0
 40
1.0
 10
2255.0149
 20
-343.0931
 30
0.0
 10
2255.8709
 20
-343.0931
 30
0.0
 10
2256.5649
 20
-343.7871
 30
0.0
 10
2256.5649
 20
-344.6431
 30
0.0
 10
2256.5649
 20
-344.6431
 30
0.0
 10
2256.5649
 20
-345.4991
 30
0.0
 10
2255.8709
 20
-346.1931
 30
0.0
 10
2255.0149
 20
-346.1931
 30
0.0
 10
2255.0149
 20
-346.1931
 30
0.0
 10
2254.1589
 20
-346.1931
 30
0.0
 10
2253.4649
 20
-345.4991
 30
0.0
 10
2253.4649
 20
-344.6431
 30
0.0
 10
2253.4649
 20
-344.6431
 30
0.0
 10
2253.4649
 20
-343.7871
 30
0.0
 10
2254.1589
 20
-343.0931
 30
0.0
 10
2255.0149
 20
-343.0931
 30
0.0
  0
SPLINE
  5
83
330
1F
100
AcDbEntity
  8
Layer 1
 62
   250
370
    20
100
AcDbSpline
210
0.0
220
0.0
230
1.0
 70
    11
 71
     3
 72
    20
 73
    16
 74
     0
 42
0.000000001
 43
0.0000000001
 40
0.0
 40
0.0
 40
0.0
 40
0.0
 40
0.2
 40
0.2
 40
0.2
 40
0.2
 40
0.4
 40
0.4
 40
0.4
 40
0.4
 40
0.6
 40
0.6
 40
0.6
 40
0.6
 40
1.0
 40
1.0
 40
1.0
 40
1.0
 10
2286.5649
 20
-344.6431
 30
0.0
 10
2286.5649
 20
-345.4991
 30
0.0
 10
2285.8709
 20
-346.1931
 30
0.0
 10
2285.0149
 20
-346.1931
 30
0.0
 10
2285.0149
 20
-346.1931
 30
0.0
 10
2284.1589
 20
-346.1931
 30
0.0
 10
2283.4649
 20
-345.4991
 30
0.0
 10
2283.4649
 20
-344.6431
 30
0.0
 10
2283.4649
 20
-344.6431
 30
0.0
 10
2283.4649
 20
-343.7871
 30
0.0
 10
2284.1589
 20
-343.0931
 30
0.0
 10
2285.0149
 20
-343.0931
 30
0.0
 10
2285.0149
 20
-343.0931
 30
0.0
 10
2285.8709
 20
-343.0931
 30
0.0
 10
2286.5649
 20
-343.7871
 30
0.0
 10
2286.5649
 20
-344.6431
 30
0.0
  0
SPLINE
  5
84
330
1F
100
AcDbEntity
  8
Layer 1
 62
   250
370
    20
100
AcDbSpline
210
0.0
220
0.0
230
1.0
 70
    11
 71
     3
 72
    20
 73
    16
 74
     0
 42
0.000000001
 43
0.0000000001
 40
0.0
 40
0.0
 40
0.0
 40
0.0
 40
0.2
 40
0.2
 40
0.2
 40
0.2
 40
0.4
 40
0.4
 40
0.4
 40
0.4
 40
0.6
 40
0.6
 40
0.6
 40
0.6
 40
1.0
 40
1.0
 40
1.0
 40
1.0
 10
2330.0149
 20
-428.0931
 30
0.0
 10
2330.8709
 20
-428.0931
 30
0.0
 10
2331.5649
 20
-428.7871
 30
0.0
 10
2331.5649
 20
-429.6431
 30
0.0
 10
2331.5649
 20
-429.6431
 30
0.0
 10
2331.5649
 20
-430.4991
 30
0.0
 10
2330.8709
 20
-431.1931
 30
0.0
 10
2330.0149
 20
-431.1931
 30
0.0
 10
2330.0149
 20
-431.1931
 30
0.0
 10
2329.1589
 20
-431.1931
 30
0.0
 10
2328.4649
 20
-430.4991
 30
0.0
 10
2328.4649
 20
-429.6431
 30
0.0
 10
2328.4649
 20
-429.6431
 30
0.0
 10
2328.4649
 20
-428.7871
 30
0.0
 10
2329.1589
 20
-428.0931
 30
0.0
 10
2330.0149
 20
-428.0931
 30
0.0
  0
SPLINE
  5
85
330
1F
100
AcDbEntity
  8
Layer 1
 62
   250
370
    20
100
AcDbSpline
210
0.0
220
0.0
230
1.0
 70
    11
 71
     3
 72
    20
 73
    16
 74
     0
 42
0.000000001
 43
0.0000000001
 40
0.0
 40
0.0
 40
0.0
 40
0.0
 40
0.2
 40
0.2
 40
0.2
 40
0.2
 40
0.4
 40
0.4
 40
0.4
 40
0.4
 40
0.6
 40
0.6
 40
0.6
 40
0.6
 40
1.0
 40
1.0
 40
1.0
 40
1.0
 10
2315.0149
 20
-428.0931
 30
0.0
 10
2315.8709
 20
-428.0931
 30
0.0
 10
2316.5649
 20
-428.7871
 30
0.0
 10
2316.5649
 20
-429.6431
 30
0.0
 10
2316.5649
 20
-429.6431
 30
0.0
 10
2316.5649
 20
-430.4991
 30
0.0
 10
2315.8709
 20
-431.1931
 30
0.0
 10
2315.0149
 20
-431.1931
 30
0.0
 10
2315.0149
 20
-431.1931
 30
0.0
 10
2314.1589
 20
-431.1931
 30
0.0
 10
2313.4649
 20
-430.4991
 30
0.0
 10
2313.4649
 20
-429.6431
 30
0.0
 10
2313.4649
 20
-429.6431
 30
0.0
 10
2313.4649
 20
-428.7871
 30
0.0
 10
2314.1589
 20
-428.0931
 30
0.0
 10
2315.0149
 20
-428.0931
 30
0.0
  0
SPLINE
  5
86
330
1F
100
AcDbEntity
  8
Layer 1
 62
   250
370
    20
100
AcDbSpline
210
0.0
220
0.0
230
1.0
 70
    11
 71
     3
 72
    20
 73
    16
 74
     0
 42
0.000000001
 43
0.0000000001
 40
0.0
 40
0.0
 40
0.0
 40
0.0
 40
0.2
 40
0.2
 40
0.2
 40
0.2
 40
0.4
 40
0.4
 40
0.4
 40
0.4
 40
0.6
 40
0.6
 40
0.6
 40
0.6
 40
1.0
 40
1.0
 40
1.0
 40
1.0
 10
2300.0149
 20
-428.0931
 30
0.0
 10
2300.8709
 20
-428.0931
 30
0.0
 10
2301.5649
 20
-428.7871
 30
0.0
 10
2301.5649
 20
-429.6431
 30
0.0
 10
2301.5649
 20
-429.6431
 30
0.0
 10
2301.5649
 20
-430.4991
 30
0.0
 10
2300.8709
 20
-431.1931
 30
0.0
 10
2300.0149
 20
-431.1931
 30
0.0
 10
2300.0149
 20
-431.1931
 30
0.0
 10
2299.1589
 20
-431.1931
 30
0.0
 10
2298.4649
 20
-430.4991
 30
0.0
 10
2298.4649
 20
-429.6431
 30
0.0
 10
2298.4649
 20
-429.6431
 30
0.0
 10
2298.4649
 20
-428.7871
 30
0.0
 10
2299.1589
 20
-428.0931
 30
0.0
 10
2300.0149
 20
-428.0931
 30
0.0
  0
SPLINE
  5
87
330
1F
100
AcDbEntity
  8
Layer 1
 62
   250
370
    20
100
AcDbSpline
210
0.0
220
0.0
230
1.0
 70
    11
 71
     3
 72
    20
 73
    16
 74
     0
 42
0.000000001
 43
0.0000000001
 40
0.0
 40
0.0
 40
0.0
 40
0.0
 40
0.2
 40
0.2
 40
0.2
 40
0.2
 40
0.4
 40
0.4
 40
0.4
 40
0.4
 40
0.6
 40
0.6
 40
0.6
 40
0.6
 40
1.0
 40
1.0
 40
1.0
 40
1.0
 10
2330.0149
 20
-346.1931
 30
0.0
 10
2329.1589
 20
-346.1931
 30
0.0
 10
2328.4649
 20
-345.4991
 30
0.0
 10
2328.4649
 20
-344.6431
 30
0.0
 10
2328.4649
 20
-344.6431
 30
0.0
 10
2328.4649
 20
-343.7871
 30
0.0
 10
2329.1589
 20
-343.0931
 30
0.0
 10
2330.0149
 20
-343.0931
 30
0.0
 10
2330.0149
 20
-343.0931
 30
0.0
 10
2330.8709
 20
-343.0931
 30
0.0
 10
2331.5649
 20
-343.7871
 30
0.0
 10
2331.5649
 20
-344.6431
 30
0.0
 10
2331.5649
 20
-344.6431
 30
0.0
 10
2331.5649
 20
-345.4991
 30
0.0
 10
2330.8709
 20
-346.1931
 30
0.0
 10
2330.0149
 20
-346.1931
 30
0.0
  0
SPLINE
  5
88
330
1F
100
AcDbEntity
  8
Layer 1
 62
   250
370
    20
100
AcDbSpline
210
0.0
220
0.0
230
1.0
 70
    11
 71
     3
 72
    20
 73
    16
 74
     0
 42
0.000000001
 43
0.0000000001
 40
0.0
 40
0.0
 40
0.0
 40
0.0
 40
0.2
 40
0.2
 40
0.2
 40
0.2
 40
0.4
 40
0.4
 40
0.4
 40
0.4
 40
0.6
 40
0.6
 40
0.6
 40
0.6
 40
1.0
 40
1.0
 40
1.0
 40
1.0
 10
2315.0149
 20
-346.1931
 30
0.0
 10
2314.1589
 20
-346.1931
 30
0.0
 10
2313.4649
 20
-345.4991
 30
0.0
 10
2313.4649
 20
-344.6431
 30
0.0
 10
2313.4649
 20
-344.6431
 30
0.0
 10
2313.4649
 20
-343.7871
 30
0.0
 10
2314.1589
 20
-343.0931
 30
0.0
 10
2315.0149
 20
-343.0931
 30
0.0
 10
2315.0149
 20
-343.0931
 30
0.0
 10
2315.8709
 20
-343.0931
 30
0.0
 10
2316.5649
 20
-343.7871
 30
0.0
 10
2316.5649
 20
-344.6431
 30
0.0
 10
2316.5649
 20
-344.6431
 30
0.0
 10
2316.5649
 20
-345.4991
 30
0.0
 10
2315.8709
 20
-346.1931
 30
0.0
 10
2315.0149
 20
-346.1931
 30
0.0
  0
SPLINE
  5
89
330
1F
100
AcDbEntity
  8
Layer 1
 62
   250
370
    20
100
AcDbSpline
210
0.0
220
0.0
230
1.0
 70
    11
 71
     3
 72
    20
 73
    16
 74
     0
 42
0.000000001
 43
0.0000000001
 40
0.0
 40
0.0
 40
0.0
 40
0.0
 40
0.2
 40
0.2
 40
0.2
 40
0.2
 40
0.4
 40
0.4
 40
0.4
 40
0.4
 40
0.6
 40
0.6
 40
0.6
 40
0.6
 40
1.0
 40
1.0
 40
1.0
 40
1.0
 10
2300.0149
 20
-346.1931
 30
0.0
 10
2299.1589
 20
-346.1931
 30
0.0
 10
2298.4649
 20
-345.4991
 30
0.0
 10
2298.4649
 20
-344.6431
 30
0.0
 10
2298.4649
 20
-344.6431
 30
0.0
 10
2298.4649
 20
-343.7871
 30
0.0
 10
2299.1589
 20
-343.0931
 30
0.0
 10
2300.0149
 20
-343.0931
 30
0.0
 10
2300.0149
 20
-343.0931
 30
0.0
 10
2300.8709
 20
-343.0931
 30
0.0
 10
2301.5649
 20
-343.7871
 30
0.0
 10
2301.5649
 20
-344.6431
 30
0.0
 10
2301.5649
 20
-344.6431
 30
0.0
 10
2301.5649
 20
-345.4991
 30
0.0
 10
2300.8709
 20
-346.1931
 30
0.0
 10
2300.0149
 20
-346.1931
 30
0.0
  0
SPLINE
  5
8A
330
1F
100
AcDbEntity
  8
Layer 1
 62
   250
370
    20
100
AcDbSpline
210
0.0
220
0.0
230
1.0
 70
    11
 71
     3
 72
    20
 73
    16
 74
     0
 42
0.000000001
 43
0.0000000001
 40
0.0
 40
0.0
 40
0.0
 40
0.0
 40
0.2
 40
0.2
 40
0.2
 40
0.2
 40
0.4
 40
0.4
 40
0.4
 40
0.4
 40
0.6
 40
0.6
 40
0.6
 40
0.6
 40
1.0
 40
1.0
 40
1.0
 40
1.0
 10
2240.0149
 20
-428.0931
 30
0.0
 10
2240.8709
 20
-428.0931
 30
0.0
 10
2241.5649
 20
-428.7871
 30
0.0
 10
2241.5649
 20
-429.6431
 30
0.0
 10
2241.5649
 20
-429.6431
 30
0.0
 10
2241.5649
 20
-430.4991
 30
0.0
 10
2240.8709
 20
-431.1931
 30
0.0
 10
2240.0149
 20
-431.1931
 30
0.0
 10
2240.0149
 20
-431.1931
 30
0.0
 10
2239.1589
 20
-431.1931
 30
0.0
 10
2238.4649
 20
-430.4991
 30
0.0
 10
2238.4649
 20
-429.6431
 30
0.0
 10
2238.4649
 20
-429.6431
 30
0.0
 10
2238.4649
 20
-428.7871
 30
0.0
 10
2239.1589
 20
-428.0931
 30
0.0
 10
2240.0149
 20
-428.0931
 30
0.0
  0
SPLINE
  5
8B
330
1F
100
AcDbEntity
  8
Layer 1
 62
   250
370
    20
100
AcDbSpline
210
0.0
220
0.0
230
1.0
 70
    11
 71
     3
 72
    20
 73
    16
 74
     0
 42
0.000000001
 43
0.0000000001
 40
0.0
 40
0.0
 40
0.0
 40
0.0
 40
0.2
 40
0.2
 40
0.2
 40
0.2
 40
0.4
 40
0.4
 40
0.4
 40
0.4
 40
0.6
 40
0.6
 40
0.6
 40
0.6
 40
1.0
 40
1.0
 40
1.0
 40
1.0
 10
2270.0149
 20
-428.0931
 30
0.0
 10
2270.8709
 20
-428.0931
 30
0.0
 10
2271.5649
 20
-428.7871
 30
0.0
 10
2271.5649
 20
-429.6431
 30
0.0
 10
2271.5649
 20
-429.6431
 30
0.0
 10
2271.5649
 20
-430.4991
 30
0.0
 10
2270.8709
 20
-431.1931
 30
0.0
 10
2270.0149
 20
-431.1931
 30
0.0
 10
2270.0149
 20
-431.1931
 30
0.0
 10
2269.1589
 20
-431.1931
 30
0.0
 10
2268.4649
 20
-430.4991
 30
0.0
 10
2268.4649
 20
-429.6431
 30
0.0
 10
2268.4649
 20
-429.6431
 30
0.0
 10
2268.4649
 20
-428.7871
 30
0.0
 10
2269.1589
 20
-428.0931
 30
0.0
 10
2270.0149
 20
-428.0931
 30
0.0
  0
SPLINE
  5
8C
330
1F
100
AcDbEntity
  8
Layer 1
 62
   250
370
    20
100
AcDbSpline
210
0.0
220
0.0
230
1.0
 70
    11
 71
     3
 72
    20
 73
    16
 74
     0
 42
0.000000001
 43
0.0000000001
 40
0.0
 40
0.0
 40
0.0
 40
0.0
 40
0.2
 40
0.2
 40
0.2
 40
0.2
 40
0.4
 40
0.4
 40
0.4
 40
0.4
 40
0.6
 40
0.6
 40
0.6
 40
0.6
 40
1.0
 40
1.0
 40
1.0
 40
1.0
 10
2255.0149
 20
-428.0931
 30
0.0
 10
2255.8709
 20
-428.0931
 30
0.0
 10
2256.5649
 20
-428.7871
 30
0.0
 10
2256.5649
 20
-429.6431
 30
0.0
 10
2256.5649
 20
-429.6431
 30
0.0
 10
2256.5649
 20
-430.4991
 30
0.0
 10
2255.8709
 20
-431.1931
 30
0.0
 10
2255.0149
 20
-431.1931
 30
0.0
 10
2255.0149
 20
-431.1931
 30
0.0
 10
2254.1589
 20
-431.1931
 30
0.0
 10
2253.4649
 20
-430.4991
 30
0.0
 10
2253.4649
 20
-429.6431
 30
0.0
 10
2253.4649
 20
-429.6431
 30
0.0
 10
2253.4649
 20
-428.7871
 30
0.0
 10
2254.1589
 20
-428.0931
 30
0.0
 10
2255.0149
 20
-428.0931
 30
0.0
  0
SPLINE
  5
8D
330
1F
100
AcDbEntity
  8
Layer 1
 62
   250
370
    20
100
AcDbSpline
210
0.0
220
0.0
230
1.0
 70
    11
 71
     3
 72
    20
 73
    16
 74
     0
 42
0.000000001
 43
0.0000000001
 40
0.0
 40
0.0
 40
0.0
 40
0.0
 40
0.2
 40
0.2
 40
0.2
 40
0.2
 40
0.4
 40
0.4
 40
0.4
 40
0.4
 40
0.6
 40
0.6
 40
0.6
 40
0.6
 40
1.0
 40
1.0
 40
1.0
 40
1.0
 10
2240.0149
 20
-343.0931
 30
0.0
 10
2240.8709
 20
-343.0931
 30
0.0
 10
2241.5649
 20
-343.7871
 30
0.0
 10
2241.5649
 20
-344.6431
 30
0.0
 10
2241.5649
 20
-344.6431
 30
0.0
 10
2241.5649
 20
-345.4991
 30
0.0
 10
2240.8709
 20
-346.1931
 30
0.0
 10
2240.0149
 20
-346.1931
 30
0.0
 10
2240.0149
 20
-346.1931
 30
0.0
 10
2239.1589
 20
-346.1931
 30
0.0
 10
2238.4649
 20
-345.4991
 30
0.0
 10
2238.4649
 20
-344.6431
 30
0.0
 10
2238.4649
 20
-344.6431
 30
0.0
 10
2238.4649
 20
-343.7871
 30
0.0
 10
2239.1589
 20
-343.0931
 30
0.0
 10
2240.0149
 20
-343.0931
 30
0.0
  0
SPLINE
  5
8E
330
1F
100
AcDbEntity
  8
Layer 1
 62
   250
370
    20
100
AcDbSpline
210
0.0
220
0.0
230
1.0
 70
    11
 71
     3
 72
    20
 73
    16
 74
     0
 42
0.000000001
 43
0.0000000001
 40
0.0
 40
0.0
 40
0.0
 40
0.0
 40
0.2
 40
0.2
 40
0.2
 40
0.2
 40
0.4
 40
0.4
 40
0.4
 40
0.4
 40
0.6
 40
0.6
 40
0.6
 40
0.6
 40
1.0
 40
1.0
 40
1.0
 40
1.0
 10
2225.0149
 20
-343.0931
 30
0.0
 10
2225.8709
 20
-343.0931
 30
0.0
 10
2226.5649
 20
-343.7871
 30
0.0
 10
2226.5649
 20
-344.6431
 30
0.0
 10
2226.5649
 20
-344.6431
 30
0.0
 10
2226.5649
 20
-345.4991
 30
0.0
 10
2225.8709
 20
-346.1931
 30
0.0
 10
2225.0149
 20
-346.1931
 30
0.0
 10
2225.0149
 20
-346.1931
 30
0.0
 10
2224.1589
 20
-346.1931
 30
0.0
 10
2223.4649
 20
-345.4991
 30
0.0
 10
2223.4649
 20
-344.6431
 30
0.0
 10
2223.4649
 20
-344.6431
 30
0.0
 10
2223.4649
 20
-343.7871
 30
0.0
 10
2224.1589
 20
-343.0931
 30
0.0
 10
2225.0149
 20
-343.0931
 30
0.0
  0
SPLINE
  5
8F
330
1F
100
AcDbEntity
  8
Layer 1
 62
   250
370
    20
100
AcDbSpline
210
0.0
220
0.0
230
1.0
 70
    11
 71
     3
 72
    20
 73
    16
 74
     0
 42
0.000000001
 43
0.0000000001
 40
0.0
 40
0.0
 40
0.0
 40
0.0
 40
0.2
 40
0.2
 40
0.2
 40
0.2
 40
0.4
 40
0.4
 40
0.4
 40
0.4
 40
0.6
 40
0.6
 40
0.6
 40
0.6
 40
1.0
 40
1.0
 40
1.0
 40
1.0
 10
2210.0149
 20
-343.0931
 30
0.0
 10
2210.8709
 20
-343.0931
 30
0.0
 10
2211.5649
 20
-343.7871
 30
0.0
 10
2211.5649
 20
-344.6431
 30
0.0
 10
2211.5649
 20
-344.6431
 30
0.0
 10
2211.5649
 20
-345.4991
 30
0.0
 10
2210.8709
 20
-346.1931
 30
0.0
 10
2210.0149
 20
-346.1931
 30
0.0
 10
2210.0149
 20
-346.1931
 30
0.0
 10
2209.1589
 20
-346.1931
 30
0.0
 10
2208.4649
 20
-345.4991
 30
0.0
 10
2208.4649
 20
-344.6431
 30
0.0
 10
2208.4649
 20
-344.6431
 30
0.0
 10
2208.4649
 20
-343.7871
 30
0.0
 10
2209.1589
 20
-343.0931
 30
0.0
 10
2210.0149
 20
-343.0931
 30
0.0
  0
SPLINE
  5
90
330
1F
100
AcDbEntity
  8
Layer 1
 62
   250
370
    20
100
AcDbSpline
210
0.0
220
0.0
230
1.0
 70
    11
 71
     3
 72
    20
 73
    16
 74
     0
 42
0.000000001
 43
0.0000000001
 40
0.0
 40
0.0
 40
0.0
 40
0.0
 40
0.2
 40
0.2
 40
0.2
 40
0.2
 40
0.4
 40
0.4
 40
0.4
 40
0.4
 40
0.6
 40
0.6
 40
0.6
 40
0.6
 40
1.0
 40
1.0
 40
1.0
 40
1.0
 10
2225.0149
 20
-428.0931
 30
0.0
 10
2225.8709
 20
-428.0931
 30
0.0
 10
2226.5649
 20
-428.7871
 30
0.0
 10
2226.5649
 20
-429.6431
 30
0.0
 10
2226.5649
 20
-429.6431
 30
0.0
 10
2226.5649
 20
-430.4991
 30
0.0
 10
2225.8709
 20
-431.1931
 30
0.0
 10
2225.0149
 20
-431.1931
 30
0.0
 10
2225.0149
 20
-431.1931
 30
0.0
 10
2224.1589
 20
-431.1931
 30
0.0
 10
2223.4649
 20
-430.4991
 30
0.0
 10
2223.4649
 20
-429.6431
 30
0.0
 10
2223.4649
 20
-429.6431
 30
0.0
 10
2223.4649
 20
-428.7871
 30
0.0
 10
2224.1589
 20
-428.0931
 30
0.0
 10
2225.0149
 20
-428.0931
 30
0.0
  0
SPLINE
  5
91
330
1F
100
AcDbEntity
  8
Layer 1
 62
   250
370
    20
100
AcDbSpline
210
0.0
220
0.0
230
1.0
 70
    11
 71
     3
 72
    20
 73
    16
 74
     0
 42
0.000000001
 43
0.0000000001
 40
0.0
 40
0.0
 40
0.0
 40
0.0
 40
0.2
 40
0.2
 40
0.2
 40
0.2
 40
0.4
 40
0.4
 40
0.4
 40
0.4
 40
0.6
 40
0.6
 40
0.6
 40
0.6
 40
1.0
 40
1.0
 40
1.0
 40
1.0
 10
2210.0149
 20
-428.0931
 30
0.0
 10
2210.8709
 20
-428.0931
 30
0.0
 10
2211.5649
 20
-428.7871
 30
0.0
 10
2211.5649
 20
-429.6431
 30
0.0
 10
2211.5649
 20
-429.6431
 30
0.0
 10
2211.5649
 20
-430.4991
 30
0.0
 10
2210.8709
 20
-431.1931
 30
0.0
 10
2210.0149
 20
-431.1931
 30
0.0
 10
2210.0149
 20
-431.1931
 30
0.0
 10
2209.1589
 20
-431.1931
 30
0.0
 10
2208.4649
 20
-430.4991
 30
0.0
 10
2208.4649
 20
-429.6431
 30
0.0
 10
2208.4649
 20
-429.6431
 30
0.0
 10
2208.4649
 20
-428.7871
 30
0.0
 10
2209.1589
 20
-428.0931
 30
0.0
 10
2210.0149
 20
-428.0931
 30
0.0
  0
SPLINE
  5
92
330
1F
100
AcDbEntity
  8
Layer 1
 62
   250
370
    20
100
AcDbSpline
210
0.0
220
0.0
230
1.0
 70
    11
 71
     3
 72
    36
 73
    32
 74
     0
 42
0.000000001
 43
0.0000000001
 40
0.0
 40
0.0
 40
0.0
 40
0.0
 40
0.1111111111111111
 40
0.1111111111111111
 40
0.1111111111111111
 40
0.1111111111111111
 40
0.2222222222222222
 40
0.2222222222222222
 40
0.2222222222222222
 40
0.2222222222222222
 40
0.3333333333333333
 40
0.3333333333333333
 40
0.3333333333333333
 40
0.3333333333333333
 40
0.4444444444444444
 40
0.4444444444444444
 40
0.4444444444444444
 40
0.4444444444444444
 40
0.5555555555555556
 40
0.5555555555555556
 40
0.5555555555555556
 40
0.5555555555555556
 40
0.6666666666666666
 40
0.6666666666666666
 40
0.6666666666666666
 40
0.6666666666666666
 40
0.7777777777777778
 40
0.7777777777777778
 40
0.7777777777777778
 40
0.7777777777777778
 40
1.0
 40
1.0
 40
1.0
 40
1.0
 10
2205.6149
 20
-462.0431
 30
0.0
 10
2205.6149
 20
-462.0431
 30
0.0
 10
2355.6149
 20
-462.0431
 30
0.0
 10
2355.6149
 20
-462.0431
 30
0.0
 10
2355.6149
 20
-462.0431
 30
0.0
 10
2357.6156
 20
-462.0431
 30
0.0
 10
2359.4643
 20
-460.9757
 30
0.0
 10
2360.4646
 20
-459.2431
 30
0.0
 10
2360.4646
 20
-459.2431
 30
0.0
 10
2361.465
 20
-457.5105
 30
0.0
 10
2361.465
 20
-455.3757
 30
0.0
 10
2360.4646
 20
-453.6431
 30
0.0
 10
2360.4646
 20
-453.6431
 30
0.0
 10
2359.4643
 20
-451.9105
 30
0.0
 10
2357.6156
 20
-450.8431
 30
0.0
 10
2355.6149
 20
-450.8431
 30
0.0
 10
2355.6149
 20
-450.8431
 30
0.0
 10
2355.6149
 20
-450.8431
 30
0.0
 10
2205.6149
 20
-450.8431
 30
0.0
 10
2205.6149
 20
-450.8431
 30
0.0
 10
2205.6149
 20
-450.8431
 30
0.0
 10
2203.6142
 20
-450.8431
 30
0.0
 10
2201.7655
 20
-451.9105
 30
0.0
 10
2200.7652
 20
-453.6431
 30
0.0
 10
2200.7652
 20
-453.6431
 30
0.0
 10
2199.7648
 20
-455.3757
 30
0.0
 10
2199.7648
 20
-457.5105
 30
0.0
 10
2200.7652
 20
-459.2431
 30
0.0
 10
2200.7652
 20
-459.2431
 30
0.0
 10
2201.7655
 20
-460.9757
 30
0.0
 10
2203.6142
 20
-462.0431
 30
0.0
 10
2205.6149
 20
-462.0431
 30
0.0
  0
SPLINE
  5
93
330
1F
100
AcDbEntity
  8
Layer 1
 62
   250
370
    20
100
AcDbSpline
210
0.0
220
0.0
230
1.0
 70
    11
 71
     3
 72
    20
 73
    16
 74
     0
 42
0.000000001
 43
0.0000000001
 40
0.0
 40
0.0
 40
0.0
 40
0.0
 40
0.2
 40
0.2
 40
0.2
 40
0.2
 40
0.4
 40
0.4
 40
0.4
 40
0.4
 40
0.6
 40
0.6
 40
0.6
 40
0.6
 40
1.0
 40
1.0
 40
1.0
 40
1.0
 10
2295.6149
 20
-458.0431
 30
0.0
 10
2294.7312
 20
-458.0431
 30
0.0
 10
2294.0149
 20
-457.3268
 30
0.0
 10
2294.0149
 20
-456.4431
 30
0.0
 10
2294.0149
 20
-456.4431
 30
0.0
 10
2294.0149
 20
-455.5594
 30
0.0
 10
2294.7312
 20
-454.8431
 30
0.0
 10
2295.6149
 20
-454.8431
 30
0.0
 10
2295.6149
 20
-454.8431
 30
0.0
 10
2296.4986
 20
-454.8431
 30
0.0
 10
2297.2149
 20
-455.5594
 30
0.0
 10
2297.2149
 20
-456.4431
 30
0.0
 10
2297.2149
 20
-456.4431
 30
0.0
 10
2297.2149
 20
-457.3268
 30
0.0
 10
2296.4986
 20
-458.0431
 30
0.0
 10
2295.6149
 20
-458.0431
 30
0.0
  0
SPLINE
  5
94
330
1F
100
AcDbEntity
  8
Layer 1
 62
   250
370
    20
100
AcDbSpline
210
0.0
220
0.0
230
1.0
 70
    11
 71
     3
 72
    20
 73
    16
 74
     0
 42
0.000000001
 43
0.0000000001
 40
0.0
 40
0.0
 40
0.0
 40
0.0
 40
0.2
 40
0.2
 40
0.2
 40
0.2
 40
0.4
 40
0.4
 40
0.4
 40
0.4
 40
0.6
 40
0.6
 40
0.6
 40
0.6
 40
1.0
 40
1.0
 40
1.0
 40
1.0
 10
2305.6149
 20
-458.0431
 30
0.0
 10
2304.7312
 20
-458.0431
 30
0.0
 10
2304.0149
 20
-457.3268
 30
0.0
 10
2304.0149
 20
-456.4431
 30
0.0
 10
2304.0149
 20
-456.4431
 30
0.0
 10
2304.0149
 20
-455.5594
 30
0.0
 10
2304.7312
 20
-454.8431
 30
0.0
 10
2305.6149
 20
-454.8431
 30
0.0
 10
2305.6149
 20
-454.8431
 30
0.0
 10
2306.4986
 20
-454.8431
 30
0.0
 10
2307.2149
 20
-455.5594
 30
0.0
 10
2307.2149
 20
-456.4431
 30
0.0
 10
2307.2149
 20
-456.4431
 30
0.0
 10
2307.2149
 20
-457.3268
 30
0.0
 10
2306.4986
 20
-458.0431
 30
0.0
 10
2305.6149
 20
-458.0431
 30
0.0
  0
SPLINE
  5
95
330
1F
100
AcDbEntity
  8
Layer 1
 62
   250
370
    20
100
AcDbSpline
210
0.0
220
0.0
230
1.0
 70
    11
 71
     3
 72
    20
 73
    16
 74
     0
 42
0.000000001
 43
0.0000000001
 40
0.0
 40
0.0
 40
0.0
 40
0.0
 40
0.2
 40
0.2
 40
0.2
 40
0.2
 40
0.4
 40
0.4
 40
0.4
 40
0.4
 40
0.6
 40
0.6
 40
0.6
 40
0.6
 40
1.0
 40
1.0
 40
1.0
 40
1.0
 10
2314.0149
 20
-456.4431
 30
0.0
 10
2314.0149
 20
-455.5594
 30
0.0
 10
2314.7312
 20
-454.8431
 30
0.0
 10
2315.6149
 20
-454.8431
 30
0.0
 10
2315.6149
 20
-454.8431
 30
0.0
 10
2316.4986
 20
-454.8431
 30
0.0
 10
2317.2149
 20
-455.5594
 30
0.0
 10
2317.2149
 20
-456.4431
 30
0.0
 10
2317.2149
 20
-456.4431
 30
0.0
 10
2317.2149
 20
-457.3268
 30
0.0
 10
2316.4986
 20
-458.0431
 30
0.0
 10
2315.6149
 20
-458.0431
 30
0.0
 10
2315.6149
 20
-458.0431
 30
0.0
 10
2314.7312
 20
-458.0431
 30
0.0
 10
2314.0149
 20
-457.3268
 30
0.0
 10
2314.0149
 20
-456.4431
 30
0.0
  0
SPLINE
  5
96
330
1F
100
AcDbEntity
  8
Layer 1
 62
   250
370
    20
100
AcDbSpline
210
0.0
220
0.0
230
1.0
 70
    11
 71
     3
 72
    20
 73
    16
 74
     0
 42
0.000000001
 43
0.0000000001
 40
0.0
 40
0.0
 40
0.0
 40
0.0
 40
0.2
 40
0.2
 40
0.2
 40
0.2
 40
0.4
 40
0.4
 40
0.4
 40
0.4
 40
0.6
 40
0.6
 40
0.6
 40
0.6
 40
1.0
 40
1.0
 40
1.0
 40
1.0
 10
2324.0149
 20
-456.4431
 30
0.0
 10
2324.0149
 20
-455.5594
 30
0.0
 10
2324.7312
 20
-454.8431
 30
0.0
 10
2325.6149
 20
-454.8431
 30
0.0
 10
2325.6149
 20
-454.8431
 30
0.0
 10
2326.4986
 20
-454.8431
 30
0.0
 10
2327.2149
 20
-455.5594
 30
0.0
 10
2327.2149
 20
-456.4431
 30
0.0
 10
2327.2149
 20
-456.4431
 30
0.0
 10
2327.2149
 20
-457.3268
 30
0.0
 10
2326.4986
 20
-458.0431
 30
0.0
 10
2325.6149
 20
-458.0431
 30
0.0
 10
2325.6149
 20
-458.0431
 30
0.0
 10
2324.7312
 20
-458.0431
 30
0.0
 10
2324.0149
 20
-457.3268
 30
0.0
 10
2324.0149
 20
-456.4431
 30
0.0
  0
SPLINE
  5
97
330
1F
100
AcDbEntity
  8
Layer 1
 62
   250
370
    20
100
AcDbSpline
210
0.0
220
0.0
230
1.0
 70
    11
 71
     3
 72
    20
 73
    16
 74
     0
 42
0.000000001
 43
0.0000000001
 40
0.0
 40
0.0
 40
0.0
 40
0.0
 40
0.2
 40
0.2
 40
0.2
 40
0.2
 40
0.4
 40
0.4
 40
0.4
 40
0.4
 40
0.6
 40
0.6
 40
0.6
 40
0.6
 40
1.0
 40
1.0
 40
1.0
 40
1.0
 10
2334.0149
 20
-456.4431
 30
0.0
 10
2334.0149
 20
-455.5594
 30
0.0
 10
2334.7312
 20
-454.8431
 30
0.0
 10
2335.6149
 20
-454.8431
 30
0.0
 10
2335.6149
 20
-454.8431
 30
0.0
 10
2336.4986
 20
-454.8431
 30
0.0
 10
2337.2149
 20
-455.5594
 30
0.0
 10
2337.2149
 20
-456.4431
 30
0.0
 10
2337.2149
 20
-456.4431
 30
0.0
 10
2337.2149
 20
-457.3268
 30
0.0
 10
2336.4986
 20
-458.0431
 30
0.0
 10
2335.6149
 20
-458.0431
 30
0.0
 10
2335.6149
 20
-458.0431
 30
0.0
 10
2334.7312
 20
-458.0431
 30
0.0
 10
2334.0149
 20
-457.3268
 30
0.0
 10
2334.0149
 20
-456.4431
 30
0.0
  0
SPLINE
  5
98
330
1F
100
AcDbEntity
  8
Layer 1
 62
   250
370
    20
100
AcDbSpline
210
0.0
220
0.0
230
1.0
 70
    11
 71
     3
 72
    20
 73
    16
 74
     0
 42
0.000000001
 43
0.0000000001
 40
0.0
 40
0.0
 40
0.0
 40
0.0
 40
0.2
 40
0.2
 40
0.2
 40
0.2
 40
0.4
 40
0.4
 40
0.4
 40
0.4
 40
0.6
 40
0.6
 40
0.6
 40
0.6
 40
1.0
 40
1.0
 40
1.0
 40
1.0
 10
2344.0149
 20
-456.4431
 30
0.0
 10
2344.0149
 20
-455.5594
 30
0.0
 10
2344.7312
 20
-454.8431
 30
0.0
 10
2345.6149
 20
-454.8431
 30
0.0
 10
2345.6149
 20
-454.8431
 30
0.0
 10
2346.4986
 20
-454.8431
 30
0.0
 10
2347.2149
 20
-455.5594
 30
0.0
 10
2347.2149
 20
-456.4431
 30
0.0
 10
2347.2149
 20
-456.4431
 30
0.0
 10
2347.2149
 20
-457.3268
 30
0.0
 10
2346.4986
 20
-458.0431
 30
0.0
 10
2345.6149
 20
-458.0431
 30
0.0
 10
2345.6149
 20
-458.0431
 30
0.0
 10
2344.7312
 20
-458.0431
 30
0.0
 10
2344.0149
 20
-457.3268
 30
0.0
 10
2344.0149
 20
-456.4431
 30
0.0
  0
SPLINE
  5
99
330
1F
100
AcDbEntity
  8
Layer 1
 62
   250
370
    20
100
AcDbSpline
210
0.0
220
0.0
230
1.0
 70
    11
 71
     3
 72
    20
 73
    16
 74
     0
 42
0.000000001
 43
0.0000000001
 40
0.0
 40
0.0
 40
0.0
 40
0.0
 40
0.2
 40
0.2
 40
0.2
 40
0.2
 40
0.4
 40
0.4
 40
0.4
 40
0.4
 40
0.6
 40
0.6
 40
0.6
 40
0.6
 40
1.0
 40
1.0
 40
1.0
 40
1.0
 10
2354.0149
 20
-456.4431
 30
0.0
 10
2354.0149
 20
-455.5594
 30
0.0
 10
2354.7312
 20
-454.8431
 30
0.0
 10
2355.6149
 20
-454.8431
 30
0.0
 10
2355.6149
 20
-454.8431
 30
0.0
 10
2356.4986
 20
-454.8431
 30
0.0
 10
2357.2149
 20
-455.5594
 30
0.0
 10
2357.2149
 20
-456.4431
 30
0.0
 10
2357.2149
 20
-456.4431
 30
0.0
 10
2357.2149
 20
-457.3268
 30
0.0
 10
2356.4986
 20
-458.0431
 30
0.0
 10
2355.6149
 20
-458.0431
 30
0.0
 10
2355.6149
 20
-458.0431
 30
0.0
 10
2354.7312
 20
-458.0431
 30
0.0
 10
2354.0149
 20
-457.3268
 30
0.0
 10
2354.0149
 20
-456.4431
 30
0.0
  0
SPLINE
  5
9A
330
1F
100
AcDbEntity
  8
Layer 1
 62
   250
370
    20
100
AcDbSpline
210
0.0
220
0.0
230
1.0
 70
    11
 71
     3
 72
    20
 73
    16
 74
     0
 42
0.000000001
 43
0.0000000001
 40
0.0
 40
0.0
 40
0.0
 40
0.0
 40
0.2
 40
0.2
 40
0.2
 40
0.2
 40
0.4
 40
0.4
 40
0.4
 40
0.4
 40
0.6
 40
0.6
 40
0.6
 40
0.6
 40
1.0
 40
1.0
 40
1.0
 40
1.0
 10
2227.2149
 20
-456.4431
 30
0.0
 10
2227.2149
 20
-457.3268
 30
0.0
 10
2226.4986
 20
-458.0431
 30
0.0
 10
2225.6149
 20
-458.0431
 30
0.0
 10
2225.6149
 20
-458.0431
 30
0.0
 10
2224.7312
 20
-458.0431
 30
0.0
 10
2224.0149
 20
-457.3268
 30
0.0
 10
2224.0149
 20
-456.4431
 30
0.0
 10
2224.0149
 20
-456.4431
 30
0.0
 10
2224.0149
 20
-455.5594
 30
0.0
 10
2224.7312
 20
-454.8431
 30
0.0
 10
2225.6149
 20
-454.8431
 30
0.0
 10
2225.6149
 20
-454.8431
 30
0.0
 10
2226.4986
 20
-454.8431
 30
0.0
 10
2227.2149
 20
-455.5594
 30
0.0
 10
2227.2149
 20
-456.4431
 30
0.0
  0
SPLINE
  5
9B
330
1F
100
AcDbEntity
  8
Layer 1
 62
   250
370
    20
100
AcDbSpline
210
0.0
220
0.0
230
1.0
 70
    11
 71
     3
 72
    20
 73
    16
 74
     0
 42
0.000000001
 43
0.0000000001
 40
0.0
 40
0.0
 40
0.0
 40
0.0
 40
0.2
 40
0.2
 40
0.2
 40
0.2
 40
0.4
 40
0.4
 40
0.4
 40
0.4
 40
0.6
 40
0.6
 40
0.6
 40
0.6
 40
1.0
 40
1.0
 40
1.0
 40
1.0
 10
2215.6149
 20
-454.8431
 30
0.0
 10
2216.4986
 20
-454.8431
 30
0.0
 10
2217.2149
 20
-455.5594
 30
0.0
 10
2217.2149
 20
-456.4431
 30
0.0
 10
2217.2149
 20
-456.4431
 30
0.0
 10
2217.2149
 20
-457.3268
 30
0.0
 10
2216.4986
 20
-458.0431
 30
0.0
 10
2215.6149
 20
-458.0431
 30
0.0
 10
2215.6149
 20
-458.0431
 30
0.0
 10
2214.7312
 20
-458.0431
 30
0.0
 10
2214.0149
 20
-457.3268
 30
0.0
 10
2214.0149
 20
-456.4431
 30
0.0
 10
2214.0149
 20
-456.4431
 30
0.0
 10
2214.0149
 20
-455.5594
 30
0.0
 10
2214.7312
 20
-454.8431
 30
0.0
 10
2215.6149
 20
-454.8431
 30
0.0
  0
SPLINE
  5
9C
330
1F
100
AcDbEntity
  8
Layer 1
 62
   250
370
    20
100
AcDbSpline
210
0.0
220
0.0
230
1.0
 70
    11
 71
     3
 72
    20
 73
    16
 74
     0
 42
0.000000001
 43
0.0000000001
 40
0.0
 40
0.0
 40
0.0
 40
0.0
 40
0.2
 40
0.2
 40
0.2
 40
0.2
 40
0.4
 40
0.4
 40
0.4
 40
0.4
 40
0.6
 40
0.6
 40
0.6
 40
0.6
 40
1.0
 40
1.0
 40
1.0
 40
1.0
 10
2205.6149
 20
-454.8431
 30
0.0
 10
2206.4986
 20
-454.8431
 30
0.0
 10
2207.2149
 20
-455.5594
 30
0.0
 10
2207.2149
 20
-456.4431
 30
0.0
 10
2207.2149
 20
-456.4431
 30
0.0
 10
2207.2149
 20
-457.3268
 30
0.0
 10
2206.4986
 20
-458.0431
 30
0.0
 10
2205.6149
 20
-458.0431
 30
0.0
 10
2205.6149
 20
-458.0431
 30
0.0
 10
2204.7312
 20
-458.0431
 30
0.0
 10
2204.0149
 20
-457.3268
 30
0.0
 10
2204.0149
 20
-456.4431
 30
0.0
 10
2204.0149
 20
-456.4431
 30
0.0
 10
2204.0149
 20
-455.5594
 30
0.0
 10
2204.7312
 20
-454.8431
 30
0.0
 10
2205.6149
 20
-454.8431
 30
0.0
  0
SPLINE
  5
9D
330
1F
100
AcDbEntity
  8
Layer 1
 62
   250
370
    20
100
AcDbSpline
210
0.0
220
0.0
230
1.0
 70
    11
 71
     3
 72
    20
 73
    16
 74
     0
 42
0.000000001
 43
0.0000000001
 40
0.0
 40
0.0
 40
0.0
 40
0.0
 40
0.2
 40
0.2
 40
0.2
 40
0.2
 40
0.4
 40
0.4
 40
0.4
 40
0.4
 40
0.6
 40
0.6
 40
0.6
 40
0.6
 40
1.0
 40
1.0
 40
1.0
 40
1.0
 10
2247.2149
 20
-490.0431
 30
0.0
 10
2247.2149
 20
-490.9268
 30
0.0
 10
2246.4986
 20
-491.6431
 30
0.0
 10
2245.6149
 20
-491.6431
 30
0.0
 10
2245.6149
 20
-491.6431
 30
0.0
 10
2244.7312
 20
-491.6431
 30
0.0
 10
2244.0149
 20
-490.9268
 30
0.0
 10
2244.0149
 20
-490.0431
 30
0.0
 10
2244.0149
 20
-490.0431
 30
0.0
 10
2244.0149
 20
-489.1594
 30
0.0
 10
2244.7312
 20
-488.4431
 30
0.0
 10
2245.6149
 20
-488.4431
 30
0.0
 10
2245.6149
 20
-488.4431
 30
0.0
 10
2246.4986
 20
-488.4431
 30
0.0
 10
2247.2149
 20
-489.1594
 30
0.0
 10
2247.2149
 20
-490.0431
 30
0.0
  0
SPLINE
  5
9E
330
1F
100
AcDbEntity
  8
Layer 1
 62
   250
370
    20
100
AcDbSpline
210
0.0
220
0.0
230
1.0
 70
    11
 71
     3
 72
    20
 73
    16
 74
     0
 42
0.000000001
 43
0.0000000001
 40
0.0
 40
0.0
 40
0.0
 40
0.0
 40
0.2
 40
0.2
 40
0.2
 40
0.2
 40
0.4
 40
0.4
 40
0.4
 40
0.4
 40
0.6
 40
0.6
 40
0.6
 40
0.6
 40
1.0
 40
1.0
 40
1.0
 40
1.0
 10
2237.2149
 20
-490.0431
 30
0.0
 10
2237.2149
 20
-490.9268
 30
0.0
 10
2236.4986
 20
-491.6431
 30
0.0
 10
2235.6149
 20
-491.6431
 30
0.0
 10
2235.6149
 20
-491.6431
 30
0.0
 10
2234.7312
 20
-491.6431
 30
0.0
 10
2234.0149
 20
-490.9268
 30
0.0
 10
2234.0149
 20
-490.0431
 30
0.0
 10
2234.0149
 20
-490.0431
 30
0.0
 10
2234.0149
 20
-489.1594
 30
0.0
 10
2234.7312
 20
-488.4431
 30
0.0
 10
2235.6149
 20
-488.4431
 30
0.0
 10
2235.6149
 20
-488.4431
 30
0.0
 10
2236.4986
 20
-488.4431
 30
0.0
 10
2237.2149
 20
-489.1594
 30
0.0
 10
2237.2149
 20
-490.0431
 30
0.0
  0
SPLINE
  5
9F
330
1F
100
AcDbEntity
  8
Layer 1
 62
   250
370
    20
100
AcDbSpline
210
0.0
220
0.0
230
1.0
 70
    11
 71
     3
 72
    20
 73
    16
 74
     0
 42
0.000000001
 43
0.0000000001
 40
0.0
 40
0.0
 40
0.0
 40
0.0
 40
0.2
 40
0.2
 40
0.2
 40
0.2
 40
0.4
 40
0.4
 40
0.4
 40
0.4
 40
0.6
 40
0.6
 40
0.6
 40
0.6
 40
1.0
 40
1.0
 40
1.0
 40
1.0
 10
2257.2149
 20
-490.0431
 30
0.0
 10
2257.2149
 20
-490.9268
 30
0.0
 10
2256.4986
 20
-491.6431
 30
0.0
 10
2255.6149
 20
-491.6431
 30
0.0
 10
2255.6149
 20
-491.6431
 30
0.0
 10
2254.7312
 20
-491.6431
 30
0.0
 10
2254.0149
 20
-490.9268
 30
0.0
 10
2254.0149
 20
-490.0431
 30
0.0
 10
2254.0149
 20
-490.0431
 30
0.0
 10
2254.0149
 20
-489.1594
 30
0.0
 10
2254.7312
 20
-488.4431
 30
0.0
 10
2255.6149
 20
-488.4431
 30
0.0
 10
2255.6149
 20
-488.4431
 30
0.0
 10
2256.4986
 20
-488.4431
 30
0.0
 10
2257.2149
 20
-489.1594
 30
0.0
 10
2257.2149
 20
-490.0431
 30
0.0
  0
SPLINE
  5
A0
330
1F
100
AcDbEntity
  8
Layer 1
 62
   250
370
    20
100
AcDbSpline
210
0.0
220
0.0
230
1.0
 70
    11
 71
     3
 72
    20
 73
    16
 74
     0
 42
0.000000001
 43
0.0000000001
 40
0.0
 40
0.0
 40
0.0
 40
0.0
 40
0.2
 40
0.2
 40
0.2
 40
0.2
 40
0.4
 40
0.4
 40
0.4
 40
0.4
 40
0.6
 40
0.6
 40
0.6
 40
0.6
 40
1.0
 40
1.0
 40
1.0
 40
1.0
 10
2267.2149
 20
-490.0431
 30
0.0
 10
2267.2149
 20
-490.9268
 30
0.0
 10
2266.4986
 20
-491.6431
 30
0.0
 10
2265.6149
 20
-491.6431
 30
0.0
 10
2265.6149
 20
-491.6431
 30
0.0
 10
2264.7312
 20
-491.6431
 30
0.0
 10
2264.0149
 20
-490.9268
 30
0.0
 10
2264.0149
 20
-490.0431
 30
0.0
 10
2264.0149
 20
-490.0431
 30
0.0
 10
2264.0149
 20
-489.1594
 30
0.0
 10
2264.7312
 20
-488.4431
 30
0.0
 10
2265.6149
 20
-488.4431
 30
0.0
 10
2265.6149
 20
-488.4431
 30
0.0
 10
2266.4986
 20
-488.4431
 30
0.0
 10
2267.2149
 20
-489.1594
 30
0.0
 10
2267.2149
 20
-490.0431
 30
0.0
  0
SPLINE
  5
A1
330
1F
100
AcDbEntity
  8
Layer 1
 62
   250
370
    20
100
AcDbSpline
210
0.0
220
0.0
230
1.0
 70
    11
 71
     3
 72
    44
 73
    40
 74
     0
 42
0.000000001
 43
0.0000000001
 40
0.0
 40
0.0
 40
0.0
 40
0.0
 40
0.0909090909090909
 40
0.0909090909090909
 40
0.0909090909090909
 40
0.0909090909090909
 40
0.1818181818181818
 40
0.1818181818181818
 40
0.1818181818181818
 40
0.1818181818181818
 40
0.2727272727272727
 40
0.2727272727272727
 40
0.2727272727272727
 40
0.2727272727272727
 40
0.3636363636363636
 40
0.3636363636363636
 40
0.3636363636363636
 40
0.3636363636363636
 40
0.4545454545454545
 40
0.4545454545454545
 40
0.4545454545454545
 40
0.4545454545454545
 40
0.5454545454545454
 40
0.5454545454545454
 40
0.5454545454545454
 40
0.5454545454545454
 40
0.6363636363636364
 40
0.6363636363636364
 40
0.6363636363636364
 40
0.6363636363636364
 40
0.7272727272727273
 40
0.7272727272727273
 40
0.7272727272727273
 40
0.7272727272727273
 40
0.8181818181818182
 40
0.8181818181818182
 40
0.8181818181818182
 40
0.8181818181818182
 40
1.0
 40
1.0
 40
1.0
 40
1.0
 10
2205.6149
 20
-495.6431
 30
0.0
 10
2205.6149
 20
-495.6431
 30
0.0
 10
2355.6149
 20
-495.6431
 30
0.0
 10
2355.6149
 20
-495.6431
 30
0.0
 10
2355.6149
 20
-495.6431
 30
0.0
 10
2355.6149
 20
-495.6431
 30
0.0
 10
2505.6149
 20
-495.6431
 30
0.0
 10
2505.6149
 20
-495.6431
 30
0.0
 10
2505.6149
 20
-495.6431
 30
0.0
 10
2507.6156
 20
-495.6431
 30
0.0
 10
2509.4643
 20
-494.5757
 30
0.0
 10
2510.4646
 20
-492.8431
 30
0.0
 10
2510.4646
 20
-492.8431
 30
0.0
 10
2511.465
 20
-491.1105
 30
0.0
 10
2511.465
 20
-488.9757
 30
0.0
 10
2510.4646
 20
-487.2431
 30
0.0
 10
2510.4646
 20
-487.2431
 30
0.0
 10
2509.4643
 20
-485.5105
 30
0.0
 10
2507.6156
 20
-484.4431
 30
0.0
 10
2505.6149
 20
-484.4431
 30
0.0
 10
2505.6149
 20
-484.4431
 30
0.0
 10
2505.6149
 20
-484.4431
 30
0.0
 10
2355.6149
 20
-484.4431
 30
0.0
 10
2355.6149
 20
-484.4431
 30
0.0
 10
2355.6149
 20
-484.4431
 30
0.0
 10
2355.6149
 20
-484.4431
 30
0.0
 10
2205.6149
 20
-484.4431
 30
0.0
 10
2205.6149
 20
-484.4431
 30
0.0
 10
2205.6149
 20
-484.4431
 30
0.0
 10
2203.6142
 20
-484.4431
 30
0.0
 10
2201.7655
 20
-485.5105
 30
0.0
 10
2200.7652
 20
-487.2431
 30
0.0
 10
2200.7652
 20
-487.2431
 30
0.0
 10
2199.7648
 20
-488.9757
 30
0.0
 10
2199.7648
 20
-491.1105
 30
0.0
 10
2200.7652
 20
-492.8431
 30
0.0
 10
2200.7652
 20
-492.8431
 30
0.0
 10
2201.7655
 20
-494.5757
 30
0.0
 10
2203.6142
 20
-495.6431
 30
0.0
 10
2205.6149
 20
-495.6431
 30
0.0
  0
SPLINE
  5
A2
330
1F
100
AcDbEntity
  8
Layer 1
 62
   250
370
    20
100
AcDbSpline
210
0.0
220
0.0
230
1.0
 70
    11
 71
     3
 72
    20
 73
    16
 74
     0
 42
0.000000001
 43
0.0000000001
 40
0.0
 40
0.0
 40
0.0
 40
0.0
 40
0.2
 40
0.2
 40
0.2
 40
0.2
 40
0.4
 40
0.4
 40
0.4
 40
0.4
 40
0.6
 40
0.6
 40
0.6
 40
0.6
 40
1.0
 40
1.0
 40
1.0
 40
1.0
 10
2274.0149
 20
-490.0431
 30
0.0
 10
2274.0149
 20
-489.1594
 30
0.0
 10
2274.7312
 20
-488.4431
 30
0.0
 10
2275.6149
 20
-488.4431
 30
0.0
 10
2275.6149
 20
-488.4431
 30
0.0
 10
2276.4986
 20
-488.4431
 30
0.0
 10
2277.2149
 20
-489.1594
 30
0.0
 10
2277.2149
 20
-490.0431
 30
0.0
 10
2277.2149
 20
-490.0431
 30
0.0
 10
2277.2149
 20
-490.9268
 30
0.0
 10
2276.4986
 20
-491.6431
 30
0.0
 10
2275.6149
 20
-491.6431
 30
0.0
 10
2275.6149
 20
-491.6431
 30
0.0
 10
2274.7312
 20
-491.6431
 30
0.0
 10
2274.0149
 20
-490.9268
 30
0.0
 10
2274.0149
 20
-490.0431
 30
0.0
  0
SPLINE
  5
A3
330
1F
100
AcDbEntity
  8
Layer 1
 62
   250
370
    20
100
AcDbSpline
210
0.0
220
0.0
230
1.0
 70
    11
 71
     3
 72
    20
 73
    16
 74
     0
 42
0.000000001
 43
0.0000000001
 40
0.0
 40
0.0
 40
0.0
 40
0.0
 40
0.2
 40
0.2
 40
0.2
 40
0.2
 40
0.4
 40
0.4
 40
0.4
 40
0.4
 40
0.6
 40
0.6
 40
0.6
 40
0.6
 40
1.0
 40
1.0
 40
1.0
 40
1.0
 10
2284.0149
 20
-490.0431
 30
0.0
 10
2284.0149
 20
-489.1594
 30
0.0
 10
2284.7312
 20
-488.4431
 30
0.0
 10
2285.6149
 20
-488.4431
 30
0.0
 10
2285.6149
 20
-488.4431
 30
0.0
 10
2286.4986
 20
-488.4431
 30
0.0
 10
2287.2149
 20
-489.1594
 30
0.0
 10
2287.2149
 20
-490.0431
 30
0.0
 10
2287.2149
 20
-490.0431
 30
0.0
 10
2287.2149
 20
-490.9268
 30
0.0
 10
2286.4986
 20
-491.6431
 30
0.0
 10
2285.6149
 20
-491.6431
 30
0.0
 10
2285.6149
 20
-491.6431
 30
0.0
 10
2284.7312
 20
-491.6431
 30
0.0
 10
2284.0149
 20
-490.9268
 30
0.0
 10
2284.0149
 20
-490.0431
 30
0.0
  0
SPLINE
  5
A4
330
1F
100
AcDbEntity
  8
Layer 1
 62
   250
370
    20
100
AcDbSpline
210
0.0
220
0.0
230
1.0
 70
    11
 71
     3
 72
    20
 73
    16
 74
     0
 42
0.000000001
 43
0.0000000001
 40
0.0
 40
0.0
 40
0.0
 40
0.0
 40
0.2
 40
0.2
 40
0.2
 40
0.2
 40
0.4
 40
0.4
 40
0.4
 40
0.4
 40
0.6
 40
0.6
 40
0.6
 40
0.6
 40
1.0
 40
1.0
 40
1.0
 40
1.0
 10
2294.0149
 20
-490.0431
 30
0.0
 10
2294.0149
 20
-489.1594
 30
0.0
 10
2294.7312
 20
-488.4431
 30
0.0
 10
2295.6149
 20
-488.4431
 30
0.0
 10
2295.6149
 20
-488.4431
 30
0.0
 10
2296.4986
 20
-488.4431
 30
0.0
 10
2297.2149
 20
-489.1594
 30
0.0
 10
2297.2149
 20
-490.0431
 30
0.0
 10
2297.2149
 20
-490.0431
 30
0.0
 10
2297.2149
 20
-490.9268
 30
0.0
 10
2296.4986
 20
-491.6431
 30
0.0
 10
2295.6149
 20
-491.6431
 30
0.0
 10
2295.6149
 20
-491.6431
 30
0.0
 10
2294.7312
 20
-491.6431
 30
0.0
 10
2294.0149
 20
-490.9268
 30
0.0
 10
2294.0149
 20
-490.0431
 30
0.0
  0
SPLINE
  5
A5
330
1F
100
AcDbEntity
  8
Layer 1
 62
   250
370
    20
100
AcDbSpline
210
0.0
220
0.0
230
1.0
 70
    11
 71
     3
 72
    20
 73
    16
 74
     0
 42
0.000000001
 43
0.0000000001
 40
0.0
 40
0.0
 40
0.0
 40
0.0
 40
0.2
 40
0.2
 40
0.2
 40
0.2
 40
0.4
 40
0.4
 40
0.4
 40
0.4
 40
0.6
 40
0.6
 40
0.6
 40
0.6
 40
1.0
 40
1.0
 40
1.0
 40
1.0
 10
2345.6149
 20
-491.6431
 30
0.0
 10
2344.7312
 20
-491.6431
 30
0.0
 10
2344.0149
 20
-490.9268
 30
0.0
 10
2344.0149
 20
-490.0431
 30
0.0
 10
2344.0149
 20
-490.0431
 30
0.0
 10
2344.0149
 20
-489.1594
 30
0.0
 10
2344.7312
 20
-488.4431
 30
0.0
 10
2345.6149
 20
-488.4431
 30
0.0
 10
2345.6149
 20
-488.4431
 30
0.0
 10
2346.4986
 20
-488.4431
 30
0.0
 10
2347.2149
 20
-489.1594
 30
0.0
 10
2347.2149
 20
-490.0431
 30
0.0
 10
2347.2149
 20
-490.0431
 30
0.0
 10
2347.2149
 20
-490.9268
 30
0.0
 10
2346.4986
 20
-491.6431
 30
0.0
 10
2345.6149
 20
-491.6431
 30
0.0
  0
SPLINE
  5
A6
330
1F
100
AcDbEntity
  8
Layer 1
 62
   250
370
    20
100
AcDbSpline
210
0.0
220
0.0
230
1.0
 70
    11
 71
     3
 72
    20
 73
    16
 74
     0
 42
0.000000001
 43
0.0000000001
 40
0.0
 40
0.0
 40
0.0
 40
0.0
 40
0.2
 40
0.2
 40
0.2
 40
0.2
 40
0.4
 40
0.4
 40
0.4
 40
0.4
 40
0.6
 40
0.6
 40
0.6
 40
0.6
 40
1.0
 40
1.0
 40
1.0
 40
1.0
 10
2355.6149
 20
-491.6431
 30
0.0
 10
2354.7312
 20
-491.6431
 30
0.0
 10
2354.0149
 20
-490.9268
 30
0.0
 10
2354.0149
 20
-490.0431
 30
0.0
 10
2354.0149
 20
-490.0431
 30
0.0
 10
2354.0149
 20
-489.1594
 30
0.0
 10
2354.7312
 20
-488.4431
 30
0.0
 10
2355.6149
 20
-488.4431
 30
0.0
 10
2355.6149
 20
-488.4431
 30
0.0
 10
2356.4986
 20
-488.4431
 30
0.0
 10
2357.2149
 20
-489.1594
 30
0.0
 10
2357.2149
 20
-490.0431
 30
0.0
 10
2357.2149
 20
-490.0431
 30
0.0
 10
2357.2149
 20
-490.9268
 30
0.0
 10
2356.4986
 20
-491.6431
 30
0.0
 10
2355.6149
 20
-491.6431
 30
0.0
  0
SPLINE
  5
A7
330
1F
100
AcDbEntity
  8
Layer 1
 62
   250
370
    20
100
AcDbSpline
210
0.0
220
0.0
230
1.0
 70
    11
 71
     3
 72
    20
 73
    16
 74
     0
 42
0.000000001
 43
0.0000000001
 40
0.0
 40
0.0
 40
0.0
 40
0.0
 40
0.2
 40
0.2
 40
0.2
 40
0.2
 40
0.4
 40
0.4
 40
0.4
 40
0.4
 40
0.6
 40
0.6
 40
0.6
 40
0.6
 40
1.0
 40
1.0
 40
1.0
 40
1.0
 10
2365.6149
 20
-491.6431
 30
0.0
 10
2364.7312
 20
-491.6431
 30
0.0
 10
2364.0149
 20
-490.9268
 30
0.0
 10
2364.0149
 20
-490.0431
 30
0.0
 10
2364.0149
 20
-490.0431
 30
0.0
 10
2364.0149
 20
-489.1594
 30
0.0
 10
2364.7312
 20
-488.4431
 30
0.0
 10
2365.6149
 20
-488.4431
 30
0.0
 10
2365.6149
 20
-488.4431
 30
0.0
 10
2366.4986
 20
-488.4431
 30
0.0
 10
2367.2149
 20
-489.1594
 30
0.0
 10
2367.2149
 20
-490.0431
 30
0.0
 10
2367.2149
 20
-490.0431
 30
0.0
 10
2367.2149
 20
-490.9268
 30
0.0
 10
2366.4986
 20
-491.6431
 30
0.0
 10
2365.6149
 20
-491.6431
 30
0.0
  0
SPLINE
  5
A8
330
1F
100
AcDbEntity
  8
Layer 1
 62
   250
370
    20
100
AcDbSpline
210
0.0
220
0.0
230
1.0
 70
    11
 71
     3
 72
    20
 73
    16
 74
     0
 42
0.000000001
 43
0.0000000001
 40
0.0
 40
0.0
 40
0.0
 40
0.0
 40
0.2
 40
0.2
 40
0.2
 40
0.2
 40
0.4
 40
0.4
 40
0.4
 40
0.4
 40
0.6
 40
0.6
 40
0.6
 40
0.6
 40
1.0
 40
1.0
 40
1.0
 40
1.0
 10
2375.6149
 20
-491.6431
 30
0.0
 10
2374.7312
 20
-491.6431
 30
0.0
 10
2374.0149
 20
-490.9268
 30
0.0
 10
2374.0149
 20
-490.0431
 30
0.0
 10
2374.0149
 20
-490.0431
 30
0.0
 10
2374.0149
 20
-489.1594
 30
0.0
 10
2374.7312
 20
-488.4431
 30
0.0
 10
2375.6149
 20
-488.4431
 30
0.0
 10
2375.6149
 20
-488.4431
 30
0.0
 10
2376.4986
 20
-488.4431
 30
0.0
 10
2377.2149
 20
-489.1594
 30
0.0
 10
2377.2149
 20
-490.0431
 30
0.0
 10
2377.2149
 20
-490.0431
 30
0.0
 10
2377.2149
 20
-490.9268
 30
0.0
 10
2376.4986
 20
-491.6431
 30
0.0
 10
2375.6149
 20
-491.6431
 30
0.0
  0
SPLINE
  5
A9
330
1F
100
AcDbEntity
  8
Layer 1
 62
   250
370
    20
100
AcDbSpline
210
0.0
220
0.0
230
1.0
 70
    11
 71
     3
 72
    20
 73
    16
 74
     0
 42
0.000000001
 43
0.0000000001
 40
0.0
 40
0.0
 40
0.0
 40
0.0
 40
0.2
 40
0.2
 40
0.2
 40
0.2
 40
0.4
 40
0.4
 40
0.4
 40
0.4
 40
0.6
 40
0.6
 40
0.6
 40
0.6
 40
1.0
 40
1.0
 40
1.0
 40
1.0
 10
2385.6149
 20
-491.6431
 30
0.0
 10
2384.7312
 20
-491.6431
 30
0.0
 10
2384.0149
 20
-490.9268
 30
0.0
 10
2384.0149
 20
-490.0431
 30
0.0
 10
2384.0149
 20
-490.0431
 30
0.0
 10
2384.0149
 20
-489.1594
 30
0.0
 10
2384.7312
 20
-488.4431
 30
0.0
 10
2385.6149
 20
-488.4431
 30
0.0
 10
2385.6149
 20
-488.4431
 30
0.0
 10
2386.4986
 20
-488.4431
 30
0.0
 10
2387.2149
 20
-489.1594
 30
0.0
 10
2387.2149
 20
-490.0431
 30
0.0
 10
2387.2149
 20
-490.0431
 30
0.0
 10
2387.2149
 20
-490.9268
 30
0.0
 10
2386.4986
 20
-491.6431
 30
0.0
 10
2385.6149
 20
-491.6431
 30
0.0
  0
SPLINE
  5
AA
330
1F
100
AcDbEntity
  8
Layer 1
 62
   250
370
    20
100
AcDbSpline
210
0.0
220
0.0
230
1.0
 70
    11
 71
     3
 72
    20
 73
    16
 74
     0
 42
0.000000001
 43
0.0000000001
 40
0.0
 40
0.0
 40
0.0
 40
0.0
 40
0.2
 40
0.2
 40
0.2
 40
0.2
 40
0.4
 40
0.4
 40
0.4
 40
0.4
 40
0.6
 40
0.6
 40
0.6
 40
0.6
 40
1.0
 40
1.0
 40
1.0
 40
1.0
 10
2305.6149
 20
-491.6431
 30
0.0
 10
2304.7312
 20
-491.6431
 30
0.0
 10
2304.0149
 20
-490.9268
 30
0.0
 10
2304.0149
 20
-490.0431
 30
0.0
 10
2304.0149
 20
-490.0431
 30
0.0
 10
2304.0149
 20
-489.1594
 30
0.0
 10
2304.7312
 20
-488.4431
 30
0.0
 10
2305.6149
 20
-488.4431
 30
0.0
 10
2305.6149
 20
-488.4431
 30
0.0
 10
2306.4986
 20
-488.4431
 30
0.0
 10
2307.2149
 20
-489.1594
 30
0.0
 10
2307.2149
 20
-490.0431
 30
0.0
 10
2307.2149
 20
-490.0431
 30
0.0
 10
2307.2149
 20
-490.9268
 30
0.0
 10
2306.4986
 20
-491.6431
 30
0.0
 10
2305.6149
 20
-491.6431
 30
0.0
  0
SPLINE
  5
AB
330
1F
100
AcDbEntity
  8
Layer 1
 62
   250
370
    20
100
AcDbSpline
210
0.0
220
0.0
230
1.0
 70
    11
 71
     3
 72
    20
 73
    16
 74
     0
 42
0.000000001
 43
0.0000000001
 40
0.0
 40
0.0
 40
0.0
 40
0.0
 40
0.2
 40
0.2
 40
0.2
 40
0.2
 40
0.4
 40
0.4
 40
0.4
 40
0.4
 40
0.6
 40
0.6
 40
0.6
 40
0.6
 40
1.0
 40
1.0
 40
1.0
 40
1.0
 10
2314.0149
 20
-490.0431
 30
0.0
 10
2314.0149
 20
-489.1594
 30
0.0
 10
2314.7312
 20
-488.4431
 30
0.0
 10
2315.6149
 20
-488.4431
 30
0.0
 10
2315.6149
 20
-488.4431
 30
0.0
 10
2316.4986
 20
-488.4431
 30
0.0
 10
2317.2149
 20
-489.1594
 30
0.0
 10
2317.2149
 20
-490.0431
 30
0.0
 10
2317.2149
 20
-490.0431
 30
0.0
 10
2317.2149
 20
-490.9268
 30
0.0
 10
2316.4986
 20
-491.6431
 30
0.0
 10
2315.6149
 20
-491.6431
 30
0.0
 10
2315.6149
 20
-491.6431
 30
0.0
 10
2314.7312
 20
-491.6431
 30
0.0
 10
2314.0149
 20
-490.9268
 30
0.0
 10
2314.0149
 20
-490.0431
 30
0.0
  0
SPLINE
  5
AC
330
1F
100
AcDbEntity
  8
Layer 1
 62
   250
370
    20
100
AcDbSpline
210
0.0
220
0.0
230
1.0
 70
    11
 71
     3
 72
    20
 73
    16
 74
     0
 42
0.000000001
 43
0.0000000001
 40
0.0
 40
0.0
 40
0.0
 40
0.0
 40
0.2
 40
0.2
 40
0.2
 40
0.2
 40
0.4
 40
0.4
 40
0.4
 40
0.4
 40
0.6
 40
0.6
 40
0.6
 40
0.6
 40
1.0
 40
1.0
 40
1.0
 40
1.0
 10
2324.0149
 20
-490.0431
 30
0.0
 10
2324.0149
 20
-489.1594
 30
0.0
 10
2324.7312
 20
-488.4431
 30
0.0
 10
2325.6149
 20
-488.4431
 30
0.0
 10
2325.6149
 20
-488.4431
 30
0.0
 10
2326.4986
 20
-488.4431
 30
0.0
 10
2327.2149
 20
-489.1594
 30
0.0
 10
2327.2149
 20
-490.0431
 30
0.0
 10
2327.2149
 20
-490.0431
 30
0.0
 10
2327.2149
 20
-490.9268
 30
0.0
 10
2326.4986
 20
-491.6431
 30
0.0
 10
2325.6149
 20
-491.6431
 30
0.0
 10
2325.6149
 20
-491.6431
 30
0.0
 10
2324.7312
 20
-491.6431
 30
0.0
 10
2324.0149
 20
-490.9268
 30
0.0
 10
2324.0149
 20
-490.0431
 30
0.0
  0
SPLINE
  5
AD
330
1F
100
AcDbEntity
  8
Layer 1
 62
   250
370
    20
100
AcDbSpline
210
0.0
220
0.0
230
1.0
 70
    11
 71
     3
 72
    20
 73
    16
 74
     0
 42
0.000000001
 43
0.0000000001
 40
0.0
 40
0.0
 40
0.0
 40
0.0
 40
0.2
 40
0.2
 40
0.2
 40
0.2
 40
0.4
 40
0.4
 40
0.4
 40
0.4
 40
0.6
 40
0.6
 40
0.6
 40
0.6
 40
1.0
 40
1.0
 40
1.0
 40
1.0
 10
2334.0149
 20
-490.0431
 30
0.0
 10
2334.0149
 20
-489.1594
 30
0.0
 10
2334.7312
 20
-488.4431
 30
0.0
 10
2335.6149
 20
-488.4431
 30
0.0
 10
2335.6149
 20
-488.4431
 30
0.0
 10
2336.4986
 20
-488.4431
 30
0.0
 10
2337.2149
 20
-489.1594
 30
0.0
 10
2337.2149
 20
-490.0431
 30
0.0
 10
2337.2149
 20
-490.0431
 30
0.0
 10
2337.2149
 20
-490.9268
 30
0.0
 10
2336.4986
 20
-491.6431
 30
0.0
 10
2335.6149
 20
-491.6431
 30
0.0
 10
2335.6149
 20
-491.6431
 30
0.0
 10
2334.7312
 20
-491.6431
 30
0.0
 10
2334.0149
 20
-490.9268
 30
0.0
 10
2334.0149
 20
-490.0431
 30
0.0
  0
SPLINE
  5
AE
330
1F
100
AcDbEntity
  8
Layer 1
 62
   250
370
    20
100
AcDbSpline
210
0.0
220
0.0
230
1.0
 70
    11
 71
     3
 72
    20
 73
    16
 74
     0
 42
0.000000001
 43
0.0000000001
 40
0.0
 40
0.0
 40
0.0
 40
0.0
 40
0.2
 40
0.2
 40
0.2
 40
0.2
 40
0.4
 40
0.4
 40
0.4
 40
0.4
 40
0.6
 40
0.6
 40
0.6
 40
0.6
 40
1.0
 40
1.0
 40
1.0
 40
1.0
 10
2395.6149
 20
-491.6431
 30
0.0
 10
2394.7312
 20
-491.6431
 30
0.0
 10
2394.0149
 20
-490.9268
 30
0.0
 10
2394.0149
 20
-490.0431
 30
0.0
 10
2394.0149
 20
-490.0431
 30
0.0
 10
2394.0149
 20
-489.1594
 30
0.0
 10
2394.7312
 20
-488.4431
 30
0.0
 10
2395.6149
 20
-488.4431
 30
0.0
 10
2395.6149
 20
-488.4431
 30
0.0
 10
2396.4986
 20
-488.4431
 30
0.0
 10
2397.2149
 20
-489.1594
 30
0.0
 10
2397.2149
 20
-490.0431
 30
0.0
 10
2397.2149
 20
-490.0431
 30
0.0
 10
2397.2149
 20
-490.9268
 30
0.0
 10
2396.4986
 20
-491.6431
 30
0.0
 10
2395.6149
 20
-491.6431
 30
0.0
  0
SPLINE
  5
AF
330
1F
100
AcDbEntity
  8
Layer 1
 62
   250
370
    20
100
AcDbSpline
210
0.0
220
0.0
230
1.0
 70
    11
 71
     3
 72
    20
 73
    16
 74
     0
 42
0.000000001
 43
0.0000000001
 40
0.0
 40
0.0
 40
0.0
 40
0.0
 40
0.2
 40
0.2
 40
0.2
 40
0.2
 40
0.4
 40
0.4
 40
0.4
 40
0.4
 40
0.6
 40
0.6
 40
0.6
 40
0.6
 40
1.0
 40
1.0
 40
1.0
 40
1.0
 10
2404.0149
 20
-490.0431
 30
0.0
 10
2404.0149
 20
-489.1594
 30
0.0
 10
2404.7313
 20
-488.4431
 30
0.0
 10
2405.6149
 20
-488.4431
 30
0.0
 10
2405.6149
 20
-488.4431
 30
0.0
 10
2406.4986
 20
-488.4431
 30
0.0
 10
2407.2149
 20
-489.1594
 30
0.0
 10
2407.2149
 20
-490.0431
 30
0.0
 10
2407.2149
 20
-490.0431
 30
0.0
 10
2407.2149
 20
-490.9268
 30
0.0
 10
2406.4986
 20
-491.6431
 30
0.0
 10
2405.6149
 20
-491.6431
 30
0.0
 10
2405.6149
 20
-491.6431
 30
0.0
 10
2404.7313
 20
-491.6431
 30
0.0
 10
2404.0149
 20
-490.9268
 30
0.0
 10
2404.0149
 20
-490.0431
 30
0.0
  0
SPLINE
  5
B0
330
1F
100
AcDbEntity
  8
Layer 1
 62
   250
370
    20
100
AcDbSpline
210
0.0
220
0.0
230
1.0
 70
    11
 71
     3
 72
    20
 73
    16
 74
     0
 42
0.000000001
 43
0.0000000001
 40
0.0
 40
0.0
 40
0.0
 40
0.0
 40
0.2
 40
0.2
 40
0.2
 40
0.2
 40
0.4
 40
0.4
 40
0.4
 40
0.4
 40
0.6
 40
0.6
 40
0.6
 40
0.6
 40
1.0
 40
1.0
 40
1.0
 40
1.0
 10
2414.0149
 20
-490.0431
 30
0.0
 10
2414.0149
 20
-489.1594
 30
0.0
 10
2414.7312
 20
-488.4431
 30
0.0
 10
2415.615
 20
-488.4431
 30
0.0
 10
2415.615
 20
-488.4431
 30
0.0
 10
2416.4986
 20
-488.4431
 30
0.0
 10
2417.2149
 20
-489.1594
 30
0.0
 10
2417.2149
 20
-490.0431
 30
0.0
 10
2417.2149
 20
-490.0431
 30
0.0
 10
2417.2149
 20
-490.9268
 30
0.0
 10
2416.4986
 20
-491.6431
 30
0.0
 10
2415.615
 20
-491.6431
 30
0.0
 10
2415.615
 20
-491.6431
 30
0.0
 10
2414.7312
 20
-491.6431
 30
0.0
 10
2414.0149
 20
-490.9268
 30
0.0
 10
2414.0149
 20
-490.0431
 30
0.0
  0
SPLINE
  5
B1
330
1F
100
AcDbEntity
  8
Layer 1
 62
   250
370
    20
100
AcDbSpline
210
0.0
220
0.0
230
1.0
 70
    11
 71
     3
 72
    20
 73
    16
 74
     0
 42
0.000000001
 43
0.0000000001
 40
0.0
 40
0.0
 40
0.0
 40
0.0
 40
0.2
 40
0.2
 40
0.2
 40
0.2
 40
0.4
 40
0.4
 40
0.4
 40
0.4
 40
0.6
 40
0.6
 40
0.6
 40
0.6
 40
1.0
 40
1.0
 40
1.0
 40
1.0
 10
2424.0149
 20
-490.0431
 30
0.0
 10
2424.0149
 20
-489.1594
 30
0.0
 10
2424.7312
 20
-488.4431
 30
0.0
 10
2425.6149
 20
-488.4431
 30
0.0
 10
2425.6149
 20
-488.4431
 30
0.0
 10
2426.4985
 20
-488.4431
 30
0.0
 10
2427.2149
 20
-489.1594
 30
0.0
 10
2427.2149
 20
-490.0431
 30
0.0
 10
2427.2149
 20
-490.0431
 30
0.0
 10
2427.2149
 20
-490.9268
 30
0.0
 10
2426.4985
 20
-491.6431
 30
0.0
 10
2425.6149
 20
-491.6431
 30
0.0
 10
2425.6149
 20
-491.6431
 30
0.0
 10
2424.7312
 20
-491.6431
 30
0.0
 10
2424.0149
 20
-490.9268
 30
0.0
 10
2424.0149
 20
-490.0431
 30
0.0
  0
SPLINE
  5
B2
330
1F
100
AcDbEntity
  8
Layer 1
 62
   250
370
    20
100
AcDbSpline
210
0.0
220
0.0
230
1.0
 70
    11
 71
     3
 72
    20
 73
    16
 74
     0
 42
0.000000001
 43
0.0000000001
 40
0.0
 40
0.0
 40
0.0
 40
0.0
 40
0.2
 40
0.2
 40
0.2
 40
0.2
 40
0.4
 40
0.4
 40
0.4
 40
0.4
 40
0.6
 40
0.6
 40
0.6
 40
0.6
 40
1.0
 40
1.0
 40
1.0
 40
1.0
 10
2434.0149
 20
-490.0431
 30
0.0
 10
2434.0149
 20
-489.1594
 30
0.0
 10
2434.7312
 20
-488.4431
 30
0.0
 10
2435.6149
 20
-488.4431
 30
0.0
 10
2435.6149
 20
-488.4431
 30
0.0
 10
2436.4986
 20
-488.4431
 30
0.0
 10
2437.2149
 20
-489.1594
 30
0.0
 10
2437.2149
 20
-490.0431
 30
0.0
 10
2437.2149
 20
-490.0431
 30
0.0
 10
2437.2149
 20
-490.9268
 30
0.0
 10
2436.4986
 20
-491.6431
 30
0.0
 10
2435.6149
 20
-491.6431
 30
0.0
 10
2435.6149
 20
-491.6431
 30
0.0
 10
2434.7312
 20
-491.6431
 30
0.0
 10
2434.0149
 20
-490.9268
 30
0.0
 10
2434.0149
 20
-490.0431
 30
0.0
  0
SPLINE
  5
B3
330
1F
100
AcDbEntity
  8
Layer 1
 62
   250
370
    20
100
AcDbSpline
210
0.0
220
0.0
230
1.0
 70
    11
 71
     3
 72
    20
 73
    16
 74
     0
 42
0.000000001
 43
0.0000000001
 40
0.0
 40
0.0
 40
0.0
 40
0.0
 40
0.2
 40
0.2
 40
0.2
 40
0.2
 40
0.4
 40
0.4
 40
0.4
 40
0.4
 40
0.6
 40
0.6
 40
0.6
 40
0.6
 40
1.0
 40
1.0
 40
1.0
 40
1.0
 10
2445.6149
 20
-491.6431
 30
0.0
 10
2444.7312
 20
-491.6431
 30
0.0
 10
2444.0149
 20
-490.9268
 30
0.0
 10
2444.0149
 20
-490.0431
 30
0.0
 10
2444.0149
 20
-490.0431
 30
0.0
 10
2444.0149
 20
-489.1594
 30
0.0
 10
2444.7312
 20
-488.4431
 30
0.0
 10
2445.6149
 20
-488.4431
 30
0.0
 10
2445.6149
 20
-488.4431
 30
0.0
 10
2446.4986
 20
-488.4431
 30
0.0
 10
2447.2149
 20
-489.1594
 30
0.0
 10
2447.2149
 20
-490.0431
 30
0.0
 10
2447.2149
 20
-490.0431
 30
0.0
 10
2447.2149
 20
-490.9268
 30
0.0
 10
2446.4986
 20
-491.6431
 30
0.0
 10
2445.6149
 20
-491.6431
 30
0.0
  0
SPLINE
  5
B4
330
1F
100
AcDbEntity
  8
Layer 1
 62
   250
370
    20
100
AcDbSpline
210
0.0
220
0.0
230
1.0
 70
    11
 71
     3
 72
    20
 73
    16
 74
     0
 42
0.000000001
 43
0.0000000001
 40
0.0
 40
0.0
 40
0.0
 40
0.0
 40
0.2
 40
0.2
 40
0.2
 40
0.2
 40
0.4
 40
0.4
 40
0.4
 40
0.4
 40
0.6
 40
0.6
 40
0.6
 40
0.6
 40
1.0
 40
1.0
 40
1.0
 40
1.0
 10
2455.6149
 20
-491.6431
 30
0.0
 10
2454.7312
 20
-491.6431
 30
0.0
 10
2454.0149
 20
-490.9268
 30
0.0
 10
2454.0149
 20
-490.0431
 30
0.0
 10
2454.0149
 20
-490.0431
 30
0.0
 10
2454.0149
 20
-489.1594
 30
0.0
 10
2454.7312
 20
-488.4431
 30
0.0
 10
2455.6149
 20
-488.4431
 30
0.0
 10
2455.6149
 20
-488.4431
 30
0.0
 10
2456.4986
 20
-488.4431
 30
0.0
 10
2457.2149
 20
-489.1594
 30
0.0
 10
2457.2149
 20
-490.0431
 30
0.0
 10
2457.2149
 20
-490.0431
 30
0.0
 10
2457.2149
 20
-490.9268
 30
0.0
 10
2456.4986
 20
-491.6431
 30
0.0
 10
2455.6149
 20
-491.6431
 30
0.0
  0
SPLINE
  5
B5
330
1F
100
AcDbEntity
  8
Layer 1
 62
   250
370
    20
100
AcDbSpline
210
0.0
220
0.0
230
1.0
 70
    11
 71
     3
 72
    20
 73
    16
 74
     0
 42
0.000000001
 43
0.0000000001
 40
0.0
 40
0.0
 40
0.0
 40
0.0
 40
0.2
 40
0.2
 40
0.2
 40
0.2
 40
0.4
 40
0.4
 40
0.4
 40
0.4
 40
0.6
 40
0.6
 40
0.6
 40
0.6
 40
1.0
 40
1.0
 40
1.0
 40
1.0
 10
2464.0149
 20
-490.0431
 30
0.0
 10
2464.0149
 20
-489.1594
 30
0.0
 10
2464.7312
 20
-488.4431
 30
0.0
 10
2465.6149
 20
-488.4431
 30
0.0
 10
2465.6149
 20
-488.4431
 30
0.0
 10
2466.4986
 20
-488.4431
 30
0.0
 10
2467.2149
 20
-489.1594
 30
0.0
 10
2467.2149
 20
-490.0431
 30
0.0
 10
2467.2149
 20
-490.0431
 30
0.0
 10
2467.2149
 20
-490.9268
 30
0.0
 10
2466.4986
 20
-491.6431
 30
0.0
 10
2465.6149
 20
-491.6431
 30
0.0
 10
2465.6149
 20
-491.6431
 30
0.0
 10
2464.7312
 20
-491.6431
 30
0.0
 10
2464.0149
 20
-490.9268
 30
0.0
 10
2464.0149
 20
-490.0431
 30
0.0
  0
SPLINE
  5
B6
330
1F
100
AcDbEntity
  8
Layer 1
 62
   250
370
    20
100
AcDbSpline
210
0.0
220
0.0
230
1.0
 70
    11
 71
     3
 72
    20
 73
    16
 74
     0
 42
0.000000001
 43
0.0000000001
 40
0.0
 40
0.0
 40
0.0
 40
0.0
 40
0.2
 40
0.2
 40
0.2
 40
0.2
 40
0.4
 40
0.4
 40
0.4
 40
0.4
 40
0.6
 40
0.6
 40
0.6
 40
0.6
 40
1.0
 40
1.0
 40
1.0
 40
1.0
 10
2474.0149
 20
-490.0431
 30
0.0
 10
2474.0149
 20
-489.1594
 30
0.0
 10
2474.7312
 20
-488.4431
 30
0.0
 10
2475.6149
 20
-488.4431
 30
0.0
 10
2475.6149
 20
-488.4431
 30
0.0
 10
2476.4986
 20
-488.4431
 30
0.0
 10
2477.2149
 20
-489.1594
 30
0.0
 10
2477.2149
 20
-490.0431
 30
0.0
 10
2477.2149
 20
-490.0431
 30
0.0
 10
2477.2149
 20
-490.9268
 30
0.0
 10
2476.4986
 20
-491.6431
 30
0.0
 10
2475.6149
 20
-491.6431
 30
0.0
 10
2475.6149
 20
-491.6431
 30
0.0
 10
2474.7312
 20
-491.6431
 30
0.0
 10
2474.0149
 20
-490.9268
 30
0.0
 10
2474.0149
 20
-490.0431
 30
0.0
  0
SPLINE
  5
B7
330
1F
100
AcDbEntity
  8
Layer 1
 62
   250
370
    20
100
AcDbSpline
210
0.0
220
0.0
230
1.0
 70
    11
 71
     3
 72
    20
 73
    16
 74
     0
 42
0.000000001
 43
0.0000000001
 40
0.0
 40
0.0
 40
0.0
 40
0.0
 40
0.2
 40
0.2
 40
0.2
 40
0.2
 40
0.4
 40
0.4
 40
0.4
 40
0.4
 40
0.6
 40
0.6
 40
0.6
 40
0.6
 40
1.0
 40
1.0
 40
1.0
 40
1.0
 10
2484.0149
 20
-490.0431
 30
0.0
 10
2484.0149
 20
-489.1594
 30
0.0
 10
2484.7312
 20
-488.4431
 30
0.0
 10
2485.6149
 20
-488.4431
 30
0.0
 10
2485.6149
 20
-488.4431
 30
0.0
 10
2486.4986
 20
-488.4431
 30
0.0
 10
2487.2149
 20
-489.1594
 30
0.0
 10
2487.2149
 20
-490.0431
 30
0.0
 10
2487.2149
 20
-490.0431
 30
0.0
 10
2487.2149
 20
-490.9268
 30
0.0
 10
2486.4986
 20
-491.6431
 30
0.0
 10
2485.6149
 20
-491.6431
 30
0.0
 10
2485.6149
 20
-491.6431
 30
0.0
 10
2484.7312
 20
-491.6431
 30
0.0
 10
2484.0149
 20
-490.9268
 30
0.0
 10
2484.0149
 20
-490.0431
 30
0.0
  0
SPLINE
  5
B8
330
1F
100
AcDbEntity
  8
Layer 1
 62
   250
370
    20
100
AcDbSpline
210
0.0
220
0.0
230
1.0
 70
    11
 71
     3
 72
    20
 73
    16
 74
     0
 42
0.000000001
 43
0.0000000001
 40
0.0
 40
0.0
 40
0.0
 40
0.0
 40
0.2
 40
0.2
 40
0.2
 40
0.2
 40
0.4
 40
0.4
 40
0.4
 40
0.4
 40
0.6
 40
0.6
 40
0.6
 40
0.6
 40
1.0
 40
1.0
 40
1.0
 40
1.0
 10
2494.0149
 20
-490.0431
 30
0.0
 10
2494.0149
 20
-489.1594
 30
0.0
 10
2494.7312
 20
-488.4431
 30
0.0
 10
2495.6149
 20
-488.4431
 30
0.0
 10
2495.6149
 20
-488.4431
 30
0.0
 10
2496.4986
 20
-488.4431
 30
0.0
 10
2497.2149
 20
-489.1594
 30
0.0
 10
2497.2149
 20
-490.0431
 30
0.0
 10
2497.2149
 20
-490.0431
 30
0.0
 10
2497.2149
 20
-490.9268
 30
0.0
 10
2496.4986
 20
-491.6431
 30
0.0
 10
2495.6149
 20
-491.6431
 30
0.0
 10
2495.6149
 20
-491.6431
 30
0.0
 10
2494.7312
 20
-491.6431
 30
0.0
 10
2494.0149
 20
-490.9268
 30
0.0
 10
2494.0149
 20
-490.0431
 30
0.0
  0
SPLINE
  5
B9
330
1F
100
AcDbEntity
  8
Layer 1
 62
   250
370
    20
100
AcDbSpline
210
0.0
220
0.0
230
1.0
 70
    11
 71
     3
 72
    20
 73
    16
 74
     0
 42
0.000000001
 43
0.0000000001
 40
0.0
 40
0.0
 40
0.0
 40
0.0
 40
0.2
 40
0.2
 40
0.2
 40
0.2
 40
0.4
 40
0.4
 40
0.4
 40
0.4
 40
0.6
 40
0.6
 40
0.6
 40
0.6
 40
1.0
 40
1.0
 40
1.0
 40
1.0
 10
2504.0149
 20
-490.0431
 30
0.0
 10
2504.0149
 20
-489.1594
 30
0.0
 10
2504.7312
 20
-488.4431
 30
0.0
 10
2505.6149
 20
-488.4431
 30
0.0
 10
2505.6149
 20
-488.4431
 30
0.0
 10
2506.4986
 20
-488.4431
 30
0.0
 10
2507.2149
 20
-489.1594
 30
0.0
 10
2507.2149
 20
-490.0431
 30
0.0
 10
2507.2149
 20
-490.0431
 30
0.0
 10
2507.2149
 20
-490.9268
 30
0.0
 10
2506.4986
 20
-491.6431
 30
0.0
 10
2505.6149
 20
-491.6431
 30
0.0
 10
2505.6149
 20
-491.6431
 30
0.0
 10
2504.7312
 20
-491.6431
 30
0.0
 10
2504.0149
 20
-490.9268
 30
0.0
 10
2504.0149
 20
-490.0431
 30
0.0
  0
SPLINE
  5
BA
330
1F
100
AcDbEntity
  8
Layer 1
 62
   250
370
    20
100
AcDbSpline
210
0.0
220
0.0
230
1.0
 70
    11
 71
     3
 72
    20
 73
    16
 74
     0
 42
0.000000001
 43
0.0000000001
 40
0.0
 40
0.0
 40
0.0
 40
0.0
 40
0.2
 40
0.2
 40
0.2
 40
0.2
 40
0.4
 40
0.4
 40
0.4
 40
0.4
 40
0.6
 40
0.6
 40
0.6
 40
0.6
 40
1.0
 40
1.0
 40
1.0
 40
1.0
 10
2227.2149
 20
-490.0431
 30
0.0
 10
2227.2149
 20
-490.9268
 30
0.0
 10
2226.4986
 20
-491.6431
 30
0.0
 10
2225.6149
 20
-491.6431
 30
0.0
 10
2225.6149
 20
-491.6431
 30
0.0
 10
2224.7312
 20
-491.6431
 30
0.0
 10
2224.0149
 20
-490.9268
 30
0.0
 10
2224.0149
 20
-490.0431
 30
0.0
 10
2224.0149
 20
-490.0431
 30
0.0
 10
2224.0149
 20
-489.1594
 30
0.0
 10
2224.7312
 20
-488.4431
 30
0.0
 10
2225.6149
 20
-488.4431
 30
0.0
 10
2225.6149
 20
-488.4431
 30
0.0
 10
2226.4986
 20
-488.4431
 30
0.0
 10
2227.2149
 20
-489.1594
 30
0.0
 10
2227.2149
 20
-490.0431
 30
0.0
  0
SPLINE
  5
BB
330
1F
100
AcDbEntity
  8
Layer 1
 62
   250
370
    20
100
AcDbSpline
210
0.0
220
0.0
230
1.0
 70
    11
 71
     3
 72
    20
 73
    16
 74
     0
 42
0.000000001
 43
0.0000000001
 40
0.0
 40
0.0
 40
0.0
 40
0.0
 40
0.2
 40
0.2
 40
0.2
 40
0.2
 40
0.4
 40
0.4
 40
0.4
 40
0.4
 40
0.6
 40
0.6
 40
0.6
 40
0.6
 40
1.0
 40
1.0
 40
1.0
 40
1.0
 10
2215.6149
 20
-488.4431
 30
0.0
 10
2216.4986
 20
-488.4431
 30
0.0
 10
2217.2149
 20
-489.1594
 30
0.0
 10
2217.2149
 20
-490.0431
 30
0.0
 10
2217.2149
 20
-490.0431
 30
0.0
 10
2217.2149
 20
-490.9268
 30
0.0
 10
2216.4986
 20
-491.6431
 30
0.0
 10
2215.6149
 20
-491.6431
 30
0.0
 10
2215.6149
 20
-491.6431
 30
0.0
 10
2214.7312
 20
-491.6431
 30
0.0
 10
2214.0149
 20
-490.9268
 30
0.0
 10
2214.0149
 20
-490.0431
 30
0.0
 10
2214.0149
 20
-490.0431
 30
0.0
 10
2214.0149
 20
-489.1594
 30
0.0
 10
2214.7312
 20
-488.4431
 30
0.0
 10
2215.6149
 20
-488.4431
 30
0.0
  0
SPLINE
  5
BC
330
1F
100
AcDbEntity
  8
Layer 1
 62
   250
370
    20
100
AcDbSpline
210
0.0
220
0.0
230
1.0
 70
    11
 71
     3
 72
    20
 73
    16
 74
     0
 42
0.000000001
 43
0.0000000001
 40
0.0
 40
0.0
 40
0.0
 40
0.0
 40
0.2
 40
0.2
 40
0.2
 40
0.2
 40
0.4
 40
0.4
 40
0.4
 40
0.4
 40
0.6
 40
0.6
 40
0.6
 40
0.6
 40
1.0
 40
1.0
 40
1.0
 40
1.0
 10
2205.6149
 20
-488.4431
 30
0.0
 10
2206.4986
 20
-488.4431
 30
0.0
 10
2207.2149
 20
-489.1594
 30
0.0
 10
2207.2149
 20
-490.0431
 30
0.0
 10
2207.2149
 20
-490.0431
 30
0.0
 10
2207.2149
 20
-490.9268
 30
0.0
 10
2206.4986
 20
-491.6431
 30
0.0
 10
2205.6149
 20
-491.6431
 30
0.0
 10
2205.6149
 20
-491.6431
 30
0.0
 10
2204.7312
 20
-491.6431
 30
0.0
 10
2204.0149
 20
-490.9268
 30
0.0
 10
2204.0149
 20
-490.0431
 30
0.0
 10
2204.0149
 20
-490.0431
 30
0.0
 10
2204.0149
 20
-489.1594
 30
0.0
 10
2204.7312
 20
-488.4431
 30
0.0
 10
2205.6149
 20
-488.4431
 30
0.0
  0
SPLINE
  5
BD
330
1F
100
AcDbEntity
  8
Layer 1
 62
   250
370
    20
100
AcDbSpline
210
0.0
220
0.0
230
1.0
 70
    11
 71
     3
 72
    20
 73
    16
 74
     0
 42
0.000000001
 43
0.0000000001
 40
0.0
 40
0.0
 40
0.0
 40
0.0
 40
0.2
 40
0.2
 40
0.2
 40
0.2
 40
0.4
 40
0.4
 40
0.4
 40
0.4
 40
0.6
 40
0.6
 40
0.6
 40
0.6
 40
1.0
 40
1.0
 40
1.0
 40
1.0
 10
2247.2149
 20
-478.8431
 30
0.0
 10
2247.2149
 20
-477.9594
 30
0.0
 10
2246.4986
 20
-477.2431
 30
0.0
 10
2245.6149
 20
-477.2431
 30
0.0
 10
2245.6149
 20
-477.2431
 30
0.0
 10
2244.7312
 20
-477.2431
 30
0.0
 10
2244.0149
 20
-477.9594
 30
0.0
 10
2244.0149
 20
-478.8431
 30
0.0
 10
2244.0149
 20
-478.8431
 30
0.0
 10
2244.0149
 20
-479.7268
 30
0.0
 10
2244.7312
 20
-480.4431
 30
0.0
 10
2245.6149
 20
-480.4431
 30
0.0
 10
2245.6149
 20
-480.4431
 30
0.0
 10
2246.4986
 20
-480.4431
 30
0.0
 10
2247.2149
 20
-479.7268
 30
0.0
 10
2247.2149
 20
-478.8431
 30
0.0
  0
SPLINE
  5
BE
330
1F
100
AcDbEntity
  8
Layer 1
 62
   250
370
    20
100
AcDbSpline
210
0.0
220
0.0
230
1.0
 70
    11
 71
     3
 72
    20
 73
    16
 74
     0
 42
0.000000001
 43
0.0000000001
 40
0.0
 40
0.0
 40
0.0
 40
0.0
 40
0.2
 40
0.2
 40
0.2
 40
0.2
 40
0.4
 40
0.4
 40
0.4
 40
0.4
 40
0.6
 40
0.6
 40
0.6
 40
0.6
 40
1.0
 40
1.0
 40
1.0
 40
1.0
 10
2237.2149
 20
-478.8431
 30
0.0
 10
2237.2149
 20
-477.9594
 30
0.0
 10
2236.4986
 20
-477.2431
 30
0.0
 10
2235.6149
 20
-477.2431
 30
0.0
 10
2235.6149
 20
-477.2431
 30
0.0
 10
2234.7312
 20
-477.2431
 30
0.0
 10
2234.0149
 20
-477.9594
 30
0.0
 10
2234.0149
 20
-478.8431
 30
0.0
 10
2234.0149
 20
-478.8431
 30
0.0
 10
2234.0149
 20
-479.7268
 30
0.0
 10
2234.7312
 20
-480.4431
 30
0.0
 10
2235.6149
 20
-480.4431
 30
0.0
 10
2235.6149
 20
-480.4431
 30
0.0
 10
2236.4986
 20
-480.4431
 30
0.0
 10
2237.2149
 20
-479.7268
 30
0.0
 10
2237.2149
 20
-478.8431
 30
0.0
  0
SPLINE
  5
BF
330
1F
100
AcDbEntity
  8
Layer 1
 62
   250
370
    20
100
AcDbSpline
210
0.0
220
0.0
230
1.0
 70
    11
 71
     3
 72
    20
 73
    16
 74
     0
 42
0.000000001
 43
0.0000000001
 40
0.0
 40
0.0
 40
0.0
 40
0.0
 40
0.2
 40
0.2
 40
0.2
 40
0.2
 40
0.4
 40
0.4
 40
0.4
 40
0.4
 40
0.6
 40
0.6
 40
0.6
 40
0.6
 40
1.0
 40
1.0
 40
1.0
 40
1.0
 10
2257.2149
 20
-478.8431
 30
0.0
 10
2257.2149
 20
-477.9594
 30
0.0
 10
2256.4986
 20
-477.2431
 30
0.0
 10
2255.6149
 20
-477.2431
 30
0.0
 10
2255.6149
 20
-477.2431
 30
0.0
 10
2254.7312
 20
-477.2431
 30
0.0
 10
2254.0149
 20
-477.9594
 30
0.0
 10
2254.0149
 20
-478.8431
 30
0.0
 10
2254.0149
 20
-478.8431
 30
0.0
 10
2254.0149
 20
-479.7268
 30
0.0
 10
2254.7312
 20
-480.4431
 30
0.0
 10
2255.6149
 20
-480.4431
 30
0.0
 10
2255.6149
 20
-480.4431
 30
0.0
 10
2256.4986
 20
-480.4431
 30
0.0
 10
2257.2149
 20
-479.7268
 30
0.0
 10
2257.2149
 20
-478.8431
 30
0.0
  0
SPLINE
  5
C0
330
1F
100
AcDbEntity
  8
Layer 1
 62
   250
370
    20
100
AcDbSpline
210
0.0
220
0.0
230
1.0
 70
    11
 71
     3
 72
    20
 73
    16
 74
     0
 42
0.000000001
 43
0.0000000001
 40
0.0
 40
0.0
 40
0.0
 40
0.0
 40
0.2
 40
0.2
 40
0.2
 40
0.2
 40
0.4
 40
0.4
 40
0.4
 40
0.4
 40
0.6
 40
0.6
 40
0.6
 40
0.6
 40
1.0
 40
1.0
 40
1.0
 40
1.0
 10
2267.2149
 20
-478.8431
 30
0.0
 10
2267.2149
 20
-477.9594
 30
0.0
 10
2266.4986
 20
-477.2431
 30
0.0
 10
2265.6149
 20
-477.2431
 30
0.0
 10
2265.6149
 20
-477.2431
 30
0.0
 10
2264.7312
 20
-477.2431
 30
0.0
 10
2264.0149
 20
-477.9594
 30
0.0
 10
2264.0149
 20
-478.8431
 30
0.0
 10
2264.0149
 20
-478.8431
 30
0.0
 10
2264.0149
 20
-479.7268
 30
0.0
 10
2264.7312
 20
-480.4431
 30
0.0
 10
2265.6149
 20
-480.4431
 30
0.0
 10
2265.6149
 20
-480.4431
 30
0.0
 10
2266.4986
 20
-480.4431
 30
0.0
 10
2267.2149
 20
-479.7268
 30
0.0
 10
2267.2149
 20
-478.8431
 30
0.0
  0
SPLINE
  5
C1
330
1F
100
AcDbEntity
  8
Layer 1
 62
   250
370
    20
100
AcDbSpline
210
0.0
220
0.0
230
1.0
 70
    11
 71
     3
 72
    44
 73
    40
 74
     0
 42
0.000000001
 43
0.0000000001
 40
0.0
 40
0.0
 40
0.0
 40
0.0
 40
0.0909090909090909
 40
0.0909090909090909
 40
0.0909090909090909
 40
0.0909090909090909
 40
0.1818181818181818
 40
0.1818181818181818
 40
0.1818181818181818
 40
0.1818181818181818
 40
0.2727272727272727
 40
0.2727272727272727
 40
0.2727272727272727
 40
0.2727272727272727
 40
0.3636363636363636
 40
0.3636363636363636
 40
0.3636363636363636
 40
0.3636363636363636
 40
0.4545454545454545
 40
0.4545454545454545
 40
0.4545454545454545
 40
0.4545454545454545
 40
0.5454545454545454
 40
0.5454545454545454
 40
0.5454545454545454
 40
0.5454545454545454
 40
0.6363636363636364
 40
0.6363636363636364
 40
0.6363636363636364
 40
0.6363636363636364
 40
0.7272727272727273
 40
0.7272727272727273
 40
0.7272727272727273
 40
0.7272727272727273
 40
0.8181818181818182
 40
0.8181818181818182
 40
0.8181818181818182
 40
0.8181818181818182
 40
1.0
 40
1.0
 40
1.0
 40
1.0
 10
2205.6149
 20
-473.2431
 30
0.0
 10
2205.6149
 20
-473.2431
 30
0.0
 10
2355.6149
 20
-473.2431
 30
0.0
 10
2355.6149
 20
-473.2431
 30
0.0
 10
2355.6149
 20
-473.2431
 30
0.0
 10
2355.6149
 20
-473.2431
 30
0.0
 10
2505.6149
 20
-473.2431
 30
0.0
 10
2505.6149
 20
-473.2431
 30
0.0
 10
2505.6149
 20
-473.2431
 30
0.0
 10
2507.6156
 20
-473.2431
 30
0.0
 10
2509.4643
 20
-474.3105
 30
0.0
 10
2510.4646
 20
-476.0431
 30
0.0
 10
2510.4646
 20
-476.0431
 30
0.0
 10
2511.465
 20
-477.7757
 30
0.0
 10
2511.465
 20
-479.9105
 30
0.0
 10
2510.4646
 20
-481.6431
 30
0.0
 10
2510.4646
 20
-481.6431
 30
0.0
 10
2509.4643
 20
-483.3757
 30
0.0
 10
2507.6156
 20
-484.4431
 30
0.0
 10
2505.6149
 20
-484.4431
 30
0.0
 10
2505.6149
 20
-484.4431
 30
0.0
 10
2505.6149
 20
-484.4431
 30
0.0
 10
2355.6149
 20
-484.4431
 30
0.0
 10
2355.6149
 20
-484.4431
 30
0.0
 10
2355.6149
 20
-484.4431
 30
0.0
 10
2355.6149
 20
-484.4431
 30
0.0
 10
2205.6149
 20
-484.4431
 30
0.0
 10
2205.6149
 20
-484.4431
 30
0.0
 10
2205.6149
 20
-484.4431
 30
0.0
 10
2203.6142
 20
-484.4431
 30
0.0
 10
2201.7655
 20
-483.3757
 30
0.0
 10
2200.7652
 20
-481.6431
 30
0.0
 10
2200.7652
 20
-481.6431
 30
0.0
 10
2199.7648
 20
-479.9105
 30
0.0
 10
2199.7648
 20
-477.7757
 30
0.0
 10
2200.7652
 20
-476.0431
 30
0.0
 10
2200.7652
 20
-476.0431
 30
0.0
 10
2201.7655
 20
-474.3105
 30
0.0
 10
2203.6142
 20
-473.2431
 30
0.0
 10
2205.6149
 20
-473.2431
 30
0.0
  0
SPLINE
  5
C2
330
1F
100
AcDbEntity
  8
Layer 1
 62
   250
370
    20
100
AcDbSpline
210
0.0
220
0.0
230
1.0
 70
    11
 71
     3
 72
    20
 73
    16
 74
     0
 42
0.000000001
 43
0.0000000001
 40
0.0
 40
0.0
 40
0.0
 40
0.0
 40
0.2
 40
0.2
 40
0.2
 40
0.2
 40
0.4
 40
0.4
 40
0.4
 40
0.4
 40
0.6
 40
0.6
 40
0.6
 40
0.6
 40
1.0
 40
1.0
 40
1.0
 40
1.0
 10
2274.0149
 20
-478.8431
 30
0.0
 10
2274.0149
 20
-479.7268
 30
0.0
 10
2274.7312
 20
-480.4431
 30
0.0
 10
2275.6149
 20
-480.4431
 30
0.0
 10
2275.6149
 20
-480.4431
 30
0.0
 10
2276.4986
 20
-480.4431
 30
0.0
 10
2277.2149
 20
-479.7268
 30
0.0
 10
2277.2149
 20
-478.8431
 30
0.0
 10
2277.2149
 20
-478.8431
 30
0.0
 10
2277.2149
 20
-477.9594
 30
0.0
 10
2276.4986
 20
-477.2431
 30
0.0
 10
2275.6149
 20
-477.2431
 30
0.0
 10
2275.6149
 20
-477.2431
 30
0.0
 10
2274.7312
 20
-477.2431
 30
0.0
 10
2274.0149
 20
-477.9594
 30
0.0
 10
2274.0149
 20
-478.8431
 30
0.0
  0
SPLINE
  5
C3
330
1F
100
AcDbEntity
  8
Layer 1
 62
   250
370
    20
100
AcDbSpline
210
0.0
220
0.0
230
1.0
 70
    11
 71
     3
 72
    20
 73
    16
 74
     0
 42
0.000000001
 43
0.0000000001
 40
0.0
 40
0.0
 40
0.0
 40
0.0
 40
0.2
 40
0.2
 40
0.2
 40
0.2
 40
0.4
 40
0.4
 40
0.4
 40
0.4
 40
0.6
 40
0.6
 40
0.6
 40
0.6
 40
1.0
 40
1.0
 40
1.0
 40
1.0
 10
2284.0149
 20
-478.8431
 30
0.0
 10
2284.0149
 20
-479.7268
 30
0.0
 10
2284.7312
 20
-480.4431
 30
0.0
 10
2285.6149
 20
-480.4431
 30
0.0
 10
2285.6149
 20
-480.4431
 30
0.0
 10
2286.4986
 20
-480.4431
 30
0.0
 10
2287.2149
 20
-479.7268
 30
0.0
 10
2287.2149
 20
-478.8431
 30
0.0
 10
2287.2149
 20
-478.8431
 30
0.0
 10
2287.2149
 20
-477.9594
 30
0.0
 10
2286.4986
 20
-477.2431
 30
0.0
 10
2285.6149
 20
-477.2431
 30
0.0
 10
2285.6149
 20
-477.2431
 30
0.0
 10
2284.7312
 20
-477.2431
 30
0.0
 10
2284.0149
 20
-477.9594
 30
0.0
 10
2284.0149
 20
-478.8431
 30
0.0
  0
SPLINE
  5
C4
330
1F
100
AcDbEntity
  8
Layer 1
 62
   250
370
    20
100
AcDbSpline
210
0.0
220
0.0
230
1.0
 70
    11
 71
     3
 72
    20
 73
    16
 74
     0
 42
0.000000001
 43
0.0000000001
 40
0.0
 40
0.0
 40
0.0
 40
0.0
 40
0.2
 40
0.2
 40
0.2
 40
0.2
 40
0.4
 40
0.4
 40
0.4
 40
0.4
 40
0.6
 40
0.6
 40
0.6
 40
0.6
 40
1.0
 40
1.0
 40
1.0
 40
1.0
 10
2294.0149
 20
-478.8431
 30
0.0
 10
2294.0149
 20
-479.7268
 30
0.0
 10
2294.7312
 20
-480.4431
 30
0.0
 10
2295.6149
 20
-480.4431
 30
0.0
 10
2295.6149
 20
-480.4431
 30
0.0
 10
2296.4986
 20
-480.4431
 30
0.0
 10
2297.2149
 20
-479.7268
 30
0.0
 10
2297.2149
 20
-478.8431
 30
0.0
 10
2297.2149
 20
-478.8431
 30
0.0
 10
2297.2149
 20
-477.9594
 30
0.0
 10
2296.4986
 20
-477.2431
 30
0.0
 10
2295.6149
 20
-477.2431
 30
0.0
 10
2295.6149
 20
-477.2431
 30
0.0
 10
2294.7312
 20
-477.2431
 30
0.0
 10
2294.0149
 20
-477.9594
 30
0.0
 10
2294.0149
 20
-478.8431
 30
0.0
  0
SPLINE
  5
C5
330
1F
100
AcDbEntity
  8
Layer 1
 62
   250
370
    20
100
AcDbSpline
210
0.0
220
0.0
230
1.0
 70
    11
 71
     3
 72
    20
 73
    16
 74
     0
 42
0.000000001
 43
0.0000000001
 40
0.0
 40
0.0
 40
0.0
 40
0.0
 40
0.2
 40
0.2
 40
0.2
 40
0.2
 40
0.4
 40
0.4
 40
0.4
 40
0.4
 40
0.6
 40
0.6
 40
0.6
 40
0.6
 40
1.0
 40
1.0
 40
1.0
 40
1.0
 10
2345.6149
 20
-477.2431
 30
0.0
 10
2344.7312
 20
-477.2431
 30
0.0
 10
2344.0149
 20
-477.9594
 30
0.0
 10
2344.0149
 20
-478.8431
 30
0.0
 10
2344.0149
 20
-478.8431
 30
0.0
 10
2344.0149
 20
-479.7268
 30
0.0
 10
2344.7312
 20
-480.4431
 30
0.0
 10
2345.6149
 20
-480.4431
 30
0.0
 10
2345.6149
 20
-480.4431
 30
0.0
 10
2346.4986
 20
-480.4431
 30
0.0
 10
2347.2149
 20
-479.7268
 30
0.0
 10
2347.2149
 20
-478.8431
 30
0.0
 10
2347.2149
 20
-478.8431
 30
0.0
 10
2347.2149
 20
-477.9594
 30
0.0
 10
2346.4986
 20
-477.2431
 30
0.0
 10
2345.6149
 20
-477.2431
 30
0.0
  0
SPLINE
  5
C6
330
1F
100
AcDbEntity
  8
Layer 1
 62
   250
370
    20
100
AcDbSpline
210
0.0
220
0.0
230
1.0
 70
    11
 71
     3
 72
    20
 73
    16
 74
     0
 42
0.000000001
 43
0.0000000001
 40
0.0
 40
0.0
 40
0.0
 40
0.0
 40
0.2
 40
0.2
 40
0.2
 40
0.2
 40
0.4
 40
0.4
 40
0.4
 40
0.4
 40
0.6
 40
0.6
 40
0.6
 40
0.6
 40
1.0
 40
1.0
 40
1.0
 40
1.0
 10
2355.6149
 20
-477.2431
 30
0.0
 10
2354.7312
 20
-477.2431
 30
0.0
 10
2354.0149
 20
-477.9594
 30
0.0
 10
2354.0149
 20
-478.8431
 30
0.0
 10
2354.0149
 20
-478.8431
 30
0.0
 10
2354.0149
 20
-479.7268
 30
0.0
 10
2354.7312
 20
-480.4431
 30
0.0
 10
2355.6149
 20
-480.4431
 30
0.0
 10
2355.6149
 20
-480.4431
 30
0.0
 10
2356.4986
 20
-480.4431
 30
0.0
 10
2357.2149
 20
-479.7268
 30
0.0
 10
2357.2149
 20
-478.8431
 30
0.0
 10
2357.2149
 20
-478.8431
 30
0.0
 10
2357.2149
 20
-477.9594
 30
0.0
 10
2356.4986
 20
-477.2431
 30
0.0
 10
2355.6149
 20
-477.2431
 30
0.0
  0
SPLINE
  5
C7
330
1F
100
AcDbEntity
  8
Layer 1
 62
   250
370
    20
100
AcDbSpline
210
0.0
220
0.0
230
1.0
 70
    11
 71
     3
 72
    20
 73
    16
 74
     0
 42
0.000000001
 43
0.0000000001
 40
0.0
 40
0.0
 40
0.0
 40
0.0
 40
0.2
 40
0.2
 40
0.2
 40
0.2
 40
0.4
 40
0.4
 40
0.4
 40
0.4
 40
0.6
 40
0.6
 40
0.6
 40
0.6
 40
1.0
 40
1.0
 40
1.0
 40
1.0
 10
2365.6149
 20
-477.2431
 30
0.0
 10
2364.7312
 20
-477.2431
 30
0.0
 10
2364.0149
 20
-477.9594
 30
0.0
 10
2364.0149
 20
-478.8431
 30
0.0
 10
2364.0149
 20
-478.8431
 30
0.0
 10
2364.0149
 20
-479.7268
 30
0.0
 10
2364.7312
 20
-480.4431
 30
0.0
 10
2365.6149
 20
-480.4431
 30
0.0
 10
2365.6149
 20
-480.4431
 30
0.0
 10
2366.4986
 20
-480.4431
 30
0.0
 10
2367.2149
 20
-479.7268
 30
0.0
 10
2367.2149
 20
-478.8431
 30
0.0
 10
2367.2149
 20
-478.8431
 30
0.0
 10
2367.2149
 20
-477.9594
 30
0.0
 10
2366.4986
 20
-477.2431
 30
0.0
 10
2365.6149
 20
-477.2431
 30
0.0
  0
SPLINE
  5
C8
330
1F
100
AcDbEntity
  8
Layer 1
 62
   250
370
    20
100
AcDbSpline
210
0.0
220
0.0
230
1.0
 70
    11
 71
     3
 72
    20
 73
    16
 74
     0
 42
0.000000001
 43
0.0000000001
 40
0.0
 40
0.0
 40
0.0
 40
0.0
 40
0.2
 40
0.2
 40
0.2
 40
0.2
 40
0.4
 40
0.4
 40
0.4
 40
0.4
 40
0.6
 40
0.6
 40
0.6
 40
0.6
 40
1.0
 40
1.0
 40
1.0
 40
1.0
 10
2375.6149
 20
-477.2431
 30
0.0
 10
2374.7312
 20
-477.2431
 30
0.0
 10
2374.0149
 20
-477.9594
 30
0.0
 10
2374.0149
 20
-478.8431
 30
0.0
 10
2374.0149
 20
-478.8431
 30
0.0
 10
2374.0149
 20
-479.7268
 30
0.0
 10
2374.7312
 20
-480.4431
 30
0.0
 10
2375.6149
 20
-480.4431
 30
0.0
 10
2375.6149
 20
-480.4431
 30
0.0
 10
2376.4986
 20
-480.4431
 30
0.0
 10
2377.2149
 20
-479.7268
 30
0.0
 10
2377.2149
 20
-478.8431
 30
0.0
 10
2377.2149
 20
-478.8431
 30
0.0
 10
2377.2149
 20
-477.9594
 30
0.0
 10
2376.4986
 20
-477.2431
 30
0.0
 10
2375.6149
 20
-477.2431
 30
0.0
  0
SPLINE
  5
C9
330
1F
100
AcDbEntity
  8
Layer 1
 62
   250
370
    20
100
AcDbSpline
210
0.0
220
0.0
230
1.0
 70
    11
 71
     3
 72
    20
 73
    16
 74
     0
 42
0.000000001
 43
0.0000000001
 40
0.0
 40
0.0
 40
0.0
 40
0.0
 40
0.2
 40
0.2
 40
0.2
 40
0.2
 40
0.4
 40
0.4
 40
0.4
 40
0.4
 40
0.6
 40
0.6
 40
0.6
 40
0.6
 40
1.0
 40
1.0
 40
1.0
 40
1.0
 10
2385.6149
 20
-477.2431
 30
0.0
 10
2384.7312
 20
-477.2431
 30
0.0
 10
2384.0149
 20
-477.9594
 30
0.0
 10
2384.0149
 20
-478.8431
 30
0.0
 10
2384.0149
 20
-478.8431
 30
0.0
 10
2384.0149
 20
-479.7268
 30
0.0
 10
2384.7312
 20
-480.4431
 30
0.0
 10
2385.6149
 20
-480.4431
 30
0.0
 10
2385.6149
 20
-480.4431
 30
0.0
 10
2386.4986
 20
-480.4431
 30
0.0
 10
2387.2149
 20
-479.7268
 30
0.0
 10
2387.2149
 20
-478.8431
 30
0.0
 10
2387.2149
 20
-478.8431
 30
0.0
 10
2387.2149
 20
-477.9594
 30
0.0
 10
2386.4986
 20
-477.2431
 30
0.0
 10
2385.6149
 20
-477.2431
 30
0.0
  0
SPLINE
  5
CA
330
1F
100
AcDbEntity
  8
Layer 1
 62
   250
370
    20
100
AcDbSpline
210
0.0
220
0.0
230
1.0
 70
    11
 71
     3
 72
    20
 73
    16
 74
     0
 42
0.000000001
 43
0.0000000001
 40
0.0
 40
0.0
 40
0.0
 40
0.0
 40
0.2
 40
0.2
 40
0.2
 40
0.2
 40
0.4
 40
0.4
 40
0.4
 40
0.4
 40
0.6
 40
0.6
 40
0.6
 40
0.6
 40
1.0
 40
1.0
 40
1.0
 40
1.0
 10
2305.6149
 20
-477.2431
 30
0.0
 10
2304.7312
 20
-477.2431
 30
0.0
 10
2304.0149
 20
-477.9594
 30
0.0
 10
2304.0149
 20
-478.8431
 30
0.0
 10
2304.0149
 20
-478.8431
 30
0.0
 10
2304.0149
 20
-479.7268
 30
0.0
 10
2304.7312
 20
-480.4431
 30
0.0
 10
2305.6149
 20
-480.4431
 30
0.0
 10
2305.6149
 20
-480.4431
 30
0.0
 10
2306.4986
 20
-480.4431
 30
0.0
 10
2307.2149
 20
-479.7268
 30
0.0
 10
2307.2149
 20
-478.8431
 30
0.0
 10
2307.2149
 20
-478.8431
 30
0.0
 10
2307.2149
 20
-477.9594
 30
0.0
 10
2306.4986
 20
-477.2431
 30
0.0
 10
2305.6149
 20
-477.2431
 30
0.0
  0
SPLINE
  5
CB
330
1F
100
AcDbEntity
  8
Layer 1
 62
   250
370
    20
100
AcDbSpline
210
0.0
220
0.0
230
1.0
 70
    11
 71
     3
 72
    20
 73
    16
 74
     0
 42
0.000000001
 43
0.0000000001
 40
0.0
 40
0.0
 40
0.0
 40
0.0
 40
0.2
 40
0.2
 40
0.2
 40
0.2
 40
0.4
 40
0.4
 40
0.4
 40
0.4
 40
0.6
 40
0.6
 40
0.6
 40
0.6
 40
1.0
 40
1.0
 40
1.0
 40
1.0
 10
2314.0149
 20
-478.8431
 30
0.0
 10
2314.0149
 20
-479.7268
 30
0.0
 10
2314.7312
 20
-480.4431
 30
0.0
 10
2315.6149
 20
-480.4431
 30
0.0
 10
2315.6149
 20
-480.4431
 30
0.0
 10
2316.4986
 20
-480.4431
 30
0.0
 10
2317.2149
 20
-479.7268
 30
0.0
 10
2317.2149
 20
-478.8431
 30
0.0
 10
2317.2149
 20
-478.8431
 30
0.0
 10
2317.2149
 20
-477.9594
 30
0.0
 10
2316.4986
 20
-477.2431
 30
0.0
 10
2315.6149
 20
-477.2431
 30
0.0
 10
2315.6149
 20
-477.2431
 30
0.0
 10
2314.7312
 20
-477.2431
 30
0.0
 10
2314.0149
 20
-477.9594
 30
0.0
 10
2314.0149
 20
-478.8431
 30
0.0
  0
SPLINE
  5
CC
330
1F
100
AcDbEntity
  8
Layer 1
 62
   250
370
    20
100
AcDbSpline
210
0.0
220
0.0
230
1.0
 70
    11
 71
     3
 72
    20
 73
    16
 74
     0
 42
0.000000001
 43
0.0000000001
 40
0.0
 40
0.0
 40
0.0
 40
0.0
 40
0.2
 40
0.2
 40
0.2
 40
0.2
 40
0.4
 40
0.4
 40
0.4
 40
0.4
 40
0.6
 40
0.6
 40
0.6
 40
0.6
 40
1.0
 40
1.0
 40
1.0
 40
1.0
 10
2324.0149
 20
-478.8431
 30
0.0
 10
2324.0149
 20
-479.7268
 30
0.0
 10
2324.7312
 20
-480.4431
 30
0.0
 10
2325.6149
 20
-480.4431
 30
0.0
 10
2325.6149
 20
-480.4431
 30
0.0
 10
2326.4986
 20
-480.4431
 30
0.0
 10
2327.2149
 20
-479.7268
 30
0.0
 10
2327.2149
 20
-478.8431
 30
0.0
 10
2327.2149
 20
-478.8431
 30
0.0
 10
2327.2149
 20
-477.9594
 30
0.0
 10
2326.4986
 20
-477.2431
 30
0.0
 10
2325.6149
 20
-477.2431
 30
0.0
 10
2325.6149
 20
-477.2431
 30
0.0
 10
2324.7312
 20
-477.2431
 30
0.0
 10
2324.0149
 20
-477.9594
 30
0.0
 10
2324.0149
 20
-478.8431
 30
0.0
  0
SPLINE
  5
CD
330
1F
100
AcDbEntity
  8
Layer 1
 62
   250
370
    20
100
AcDbSpline
210
0.0
220
0.0
230
1.0
 70
    11
 71
     3
 72
    20
 73
    16
 74
     0
 42
0.000000001
 43
0.0000000001
 40
0.0
 40
0.0
 40
0.0
 40
0.0
 40
0.2
 40
0.2
 40
0.2
 40
0.2
 40
0.4
 40
0.4
 40
0.4
 40
0.4
 40
0.6
 40
0.6
 40
0.6
 40
0.6
 40
1.0
 40
1.0
 40
1.0
 40
1.0
 10
2334.0149
 20
-478.8431
 30
0.0
 10
2334.0149
 20
-479.7268
 30
0.0
 10
2334.7312
 20
-480.4431
 30
0.0
 10
2335.6149
 20
-480.4431
 30
0.0
 10
2335.6149
 20
-480.4431
 30
0.0
 10
2336.4986
 20
-480.4431
 30
0.0
 10
2337.2149
 20
-479.7268
 30
0.0
 10
2337.2149
 20
-478.8431
 30
0.0
 10
2337.2149
 20
-478.8431
 30
0.0
 10
2337.2149
 20
-477.9594
 30
0.0
 10
2336.4986
 20
-477.2431
 30
0.0
 10
2335.6149
 20
-477.2431
 30
0.0
 10
2335.6149
 20
-477.2431
 30
0.0
 10
2334.7312
 20
-477.2431
 30
0.0
 10
2334.0149
 20
-477.9594
 30
0.0
 10
2334.0149
 20
-478.8431
 30
0.0
  0
SPLINE
  5
CE
330
1F
100
AcDbEntity
  8
Layer 1
 62
   250
370
    20
100
AcDbSpline
210
0.0
220
0.0
230
1.0
 70
    11
 71
     3
 72
    20
 73
    16
 74
     0
 42
0.000000001
 43
0.0000000001
 40
0.0
 40
0.0
 40
0.0
 40
0.0
 40
0.2
 40
0.2
 40
0.2
 40
0.2
 40
0.4
 40
0.4
 40
0.4
 40
0.4
 40
0.6
 40
0.6
 40
0.6
 40
0.6
 40
1.0
 40
1.0
 40
1.0
 40
1.0
 10
2395.6149
 20
-477.2431
 30
0.0
 10
2394.7312
 20
-477.2431
 30
0.0
 10
2394.0149
 20
-477.9594
 30
0.0
 10
2394.0149
 20
-478.8431
 30
0.0
 10
2394.0149
 20
-478.8431
 30
0.0
 10
2394.0149
 20
-479.7268
 30
0.0
 10
2394.7312
 20
-480.4431
 30
0.0
 10
2395.6149
 20
-480.4431
 30
0.0
 10
2395.6149
 20
-480.4431
 30
0.0
 10
2396.4986
 20
-480.4431
 30
0.0
 10
2397.2149
 20
-479.7268
 30
0.0
 10
2397.2149
 20
-478.8431
 30
0.0
 10
2397.2149
 20
-478.8431
 30
0.0
 10
2397.2149
 20
-477.9594
 30
0.0
 10
2396.4986
 20
-477.2431
 30
0.0
 10
2395.6149
 20
-477.2431
 30
0.0
  0
SPLINE
  5
CF
330
1F
100
AcDbEntity
  8
Layer 1
 62
   250
370
    20
100
AcDbSpline
210
0.0
220
0.0
230
1.0
 70
    11
 71
     3
 72
    20
 73
    16
 74
     0
 42
0.000000001
 43
0.0000000001
 40
0.0
 40
0.0
 40
0.0
 40
0.0
 40
0.2
 40
0.2
 40
0.2
 40
0.2
 40
0.4
 40
0.4
 40
0.4
 40
0.4
 40
0.6
 40
0.6
 40
0.6
 40
0.6
 40
1.0
 40
1.0
 40
1.0
 40
1.0
 10
2404.0149
 20
-478.8431
 30
0.0
 10
2404.0149
 20
-479.7268
 30
0.0
 10
2404.7313
 20
-480.4431
 30
0.0
 10
2405.6149
 20
-480.4431
 30
0.0
 10
2405.6149
 20
-480.4431
 30
0.0
 10
2406.4986
 20
-480.4431
 30
0.0
 10
2407.2149
 20
-479.7268
 30
0.0
 10
2407.2149
 20
-478.8431
 30
0.0
 10
2407.2149
 20
-478.8431
 30
0.0
 10
2407.2149
 20
-477.9594
 30
0.0
 10
2406.4986
 20
-477.2431
 30
0.0
 10
2405.6149
 20
-477.2431
 30
0.0
 10
2405.6149
 20
-477.2431
 30
0.0
 10
2404.7313
 20
-477.2431
 30
0.0
 10
2404.0149
 20
-477.9594
 30
0.0
 10
2404.0149
 20
-478.8431
 30
0.0
  0
SPLINE
  5
D0
330
1F
100
AcDbEntity
  8
Layer 1
 62
   250
370
    20
100
AcDbSpline
210
0.0
220
0.0
230
1.0
 70
    11
 71
     3
 72
    20
 73
    16
 74
     0
 42
0.000000001
 43
0.0000000001
 40
0.0
 40
0.0
 40
0.0
 40
0.0
 40
0.2
 40
0.2
 40
0.2
 40
0.2
 40
0.4
 40
0.4
 40
0.4
 40
0.4
 40
0.6
 40
0.6
 40
0.6
 40
0.6
 40
1.0
 40
1.0
 40
1.0
 40
1.0
 10
2414.0149
 20
-478.8431
 30
0.0
 10
2414.0149
 20
-479.7268
 30
0.0
 10
2414.7312
 20
-480.4431
 30
0.0
 10
2415.615
 20
-480.4431
 30
0.0
 10
2415.615
 20
-480.4431
 30
0.0
 10
2416.4986
 20
-480.4431
 30
0.0
 10
2417.2149
 20
-479.7268
 30
0.0
 10
2417.2149
 20
-478.8431
 30
0.0
 10
2417.2149
 20
-478.8431
 30
0.0
 10
2417.2149
 20
-477.9594
 30
0.0
 10
2416.4986
 20
-477.2431
 30
0.0
 10
2415.615
 20
-477.2431
 30
0.0
 10
2415.615
 20
-477.2431
 30
0.0
 10
2414.7312
 20
-477.2431
 30
0.0
 10
2414.0149
 20
-477.9594
 30
0.0
 10
2414.0149
 20
-478.8431
 30
0.0
  0
SPLINE
  5
D1
330
1F
100
AcDbEntity
  8
Layer 1
 62
   250
370
    20
100
AcDbSpline
210
0.0
220
0.0
230
1.0
 70
    11
 71
     3
 72
    20
 73
    16
 74
     0
 42
0.000000001
 43
0.0000000001
 40
0.0
 40
0.0
 40
0.0
 40
0.0
 40
0.2
 40
0.2
 40
0.2
 40
0.2
 40
0.4
 40
0.4
 40
0.4
 40
0.4
 40
0.6
 40
0.6
 40
0.6
 40
0.6
 40
1.0
 40
1.0
 40
1.0
 40
1.0
 10
2424.0149
 20
-478.8431
 30
0.0
 10
2424.0149
 20
-479.7268
 30
0.0
 10
2424.7312
 20
-480.4431
 30
0.0
 10
2425.6149
 20
-480.4431
 30
0.0
 10
2425.6149
 20
-480.4431
 30
0.0
 10
2426.4985
 20
-480.4431
 30
0.0
 10
2427.2149
 20
-479.7268
 30
0.0
 10
2427.2149
 20
-478.8431
 30
0.0
 10
2427.2149
 20
-478.8431
 30
0.0
 10
2427.2149
 20
-477.9594
 30
0.0
 10
2426.4985
 20
-477.2431
 30
0.0
 10
2425.6149
 20
-477.2431
 30
0.0
 10
2425.6149
 20
-477.2431
 30
0.0
 10
2424.7312
 20
-477.2431
 30
0.0
 10
2424.0149
 20
-477.9594
 30
0.0
 10
2424.0149
 20
-478.8431
 30
0.0
  0
SPLINE
  5
D2
330
1F
100
AcDbEntity
  8
Layer 1
 62
   250
370
    20
100
AcDbSpline
210
0.0
220
0.0
230
1.0
 70
    11
 71
     3
 72
    20
 73
    16
 74
     0
 42
0.000000001
 43
0.0000000001
 40
0.0
 40
0.0
 40
0.0
 40
0.0
 40
0.2
 40
0.2
 40
0.2
 40
0.2
 40
0.4
 40
0.4
 40
0.4
 40
0.4
 40
0.6
 40
0.6
 40
0.6
 40
0.6
 40
1.0
 40
1.0
 40
1.0
 40
1.0
 10
2434.0149
 20
-478.8431
 30
0.0
 10
2434.0149
 20
-479.7268
 30
0.0
 10
2434.7312
 20
-480.4431
 30
0.0
 10
2435.6149
 20
-480.4431
 30
0.0
 10
2435.6149
 20
-480.4431
 30
0.0
 10
2436.4986
 20
-480.4431
 30
0.0
 10
2437.2149
 20
-479.7268
 30
0.0
 10
2437.2149
 20
-478.8431
 30
0.0
 10
2437.2149
 20
-478.8431
 30
0.0
 10
2437.2149
 20
-477.9594
 30
0.0
 10
2436.4986
 20
-477.2431
 30
0.0
 10
2435.6149
 20
-477.2431
 30
0.0
 10
2435.6149
 20
-477.2431
 30
0.0
 10
2434.7312
 20
-477.2431
 30
0.0
 10
2434.0149
 20
-477.9594
 30
0.0
 10
2434.0149
 20
-478.8431
 30
0.0
  0
SPLINE
  5
D3
330
1F
100
AcDbEntity
  8
Layer 1
 62
   250
370
    20
100
AcDbSpline
210
0.0
220
0.0
230
1.0
 70
    11
 71
     3
 72
    20
 73
    16
 74
     0
 42
0.000000001
 43
0.0000000001
 40
0.0
 40
0.0
 40
0.0
 40
0.0
 40
0.2
 40
0.2
 40
0.2
 40
0.2
 40
0.4
 40
0.4
 40
0.4
 40
0.4
 40
0.6
 40
0.6
 40
0.6
 40
0.6
 40
1.0
 40
1.0
 40
1.0
 40
1.0
 10
2445.6149
 20
-477.2431
 30
0.0
 10
2444.7312
 20
-477.2431
 30
0.0
 10
2444.0149
 20
-477.9594
 30
0.0
 10
2444.0149
 20
-478.8431
 30
0.0
 10
2444.0149
 20
-478.8431
 30
0.0
 10
2444.0149
 20
-479.7268
 30
0.0
 10
2444.7312
 20
-480.4431
 30
0.0
 10
2445.6149
 20
-480.4431
 30
0.0
 10
2445.6149
 20
-480.4431
 30
0.0
 10
2446.4986
 20
-480.4431
 30
0.0
 10
2447.2149
 20
-479.7268
 30
0.0
 10
2447.2149
 20
-478.8431
 30
0.0
 10
2447.2149
 20
-478.8431
 30
0.0
 10
2447.2149
 20
-477.9594
 30
0.0
 10
2446.4986
 20
-477.2431
 30
0.0
 10
2445.6149
 20
-477.2431
 30
0.0
  0
SPLINE
  5
D4
330
1F
100
AcDbEntity
  8
Layer 1
 62
   250
370
    20
100
AcDbSpline
210
0.0
220
0.0
230
1.0
 70
    11
 71
     3
 72
    20
 73
    16
 74
     0
 42
0.000000001
 43
0.0000000001
 40
0.0
 40
0.0
 40
0.0
 40
0.0
 40
0.2
 40
0.2
 40
0.2
 40
0.2
 40
0.4
 40
0.4
 40
0.4
 40
0.4
 40
0.6
 40
0.6
 40
0.6
 40
0.6
 40
1.0
 40
1.0
 40
1.0
 40
1.0
 10
2455.6149
 20
-477.2431
 30
0.0
 10
2454.7312
 20
-477.2431
 30
0.0
 10
2454.0149
 20
-477.9594
 30
0.0
 10
2454.0149
 20
-478.8431
 30
0.0
 10
2454.0149
 20
-478.8431
 30
0.0
 10
2454.0149
 20
-479.7268
 30
0.0
 10
2454.7312
 20
-480.4431
 30
0.0
 10
2455.6149
 20
-480.4431
 30
0.0
 10
2455.6149
 20
-480.4431
 30
0.0
 10
2456.4986
 20
-480.4431
 30
0.0
 10
2457.2149
 20
-479.7268
 30
0.0
 10
2457.2149
 20
-478.8431
 30
0.0
 10
2457.2149
 20
-478.8431
 30
0.0
 10
2457.2149
 20
-477.9594
 30
0.0
 10
2456.4986
 20
-477.2431
 30
0.0
 10
2455.6149
 20
-477.2431
 30
0.0
  0
SPLINE
  5
D5
330
1F
100
AcDbEntity
  8
Layer 1
 62
   250
370
    20
100
AcDbSpline
210
0.0
220
0.0
230
1.0
 70
    11
 71
     3
 72
    20
 73
    16
 74
     0
 42
0.000000001
 43
0.0000000001
 40
0.0
 40
0.0
 40
0.0
 40
0.0
 40
0.2
 40
0.2
 40
0.2
 40
0.2
 40
0.4
 40
0.4
 40
0.4
 40
0.4
 40
0.6
 40
0.6
 40
0.6
 40
0.6
 40
1.0
 40
1.0
 40
1.0
 40
1.0
 10
2464.0149
 20
-478.8431
 30
0.0
 10
2464.0149
 20
-479.7268
 30
0.0
 10
2464.7312
 20
-480.4431
 30
0.0
 10
2465.6149
 20
-480.4431
 30
0.0
 10
2465.6149
 20
-480.4431
 30
0.0
 10
2466.4986
 20
-480.4431
 30
0.0
 10
2467.2149
 20
-479.7268
 30
0.0
 10
2467.2149
 20
-478.8431
 30
0.0
 10
2467.2149
 20
-478.8431
 30
0.0
 10
2467.2149
 20
-477.9594
 30
0.0
 10
2466.4986
 20
-477.2431
 30
0.0
 10
2465.6149
 20
-477.2431
 30
0.0
 10
2465.6149
 20
-477.2431
 30
0.0
 10
2464.7312
 20
-477.2431
 30
0.0
 10
2464.0149
 20
-477.9594
 30
0.0
 10
2464.0149
 20
-478.8431
 30
0.0
  0
SPLINE
  5
D6
330
1F
100
AcDbEntity
  8
Layer 1
 62
   250
370
    20
100
AcDbSpline
210
0.0
220
0.0
230
1.0
 70
    11
 71
     3
 72
    20
 73
    16
 74
     0
 42
0.000000001
 43
0.0000000001
 40
0.0
 40
0.0
 40
0.0
 40
0.0
 40
0.2
 40
0.2
 40
0.2
 40
0.2
 40
0.4
 40
0.4
 40
0.4
 40
0.4
 40
0.6
 40
0.6
 40
0.6
 40
0.6
 40
1.0
 40
1.0
 40
1.0
 40
1.0
 10
2474.0149
 20
-478.8431
 30
0.0
 10
2474.0149
 20
-479.7268
 30
0.0
 10
2474.7312
 20
-480.4431
 30
0.0
 10
2475.6149
 20
-480.4431
 30
0.0
 10
2475.6149
 20
-480.4431
 30
0.0
 10
2476.4986
 20
-480.4431
 30
0.0
 10
2477.2149
 20
-479.7268
 30
0.0
 10
2477.2149
 20
-478.8431
 30
0.0
 10
2477.2149
 20
-478.8431
 30
0.0
 10
2477.2149
 20
-477.9594
 30
0.0
 10
2476.4986
 20
-477.2431
 30
0.0
 10
2475.6149
 20
-477.2431
 30
0.0
 10
2475.6149
 20
-477.2431
 30
0.0
 10
2474.7312
 20
-477.2431
 30
0.0
 10
2474.0149
 20
-477.9594
 30
0.0
 10
2474.0149
 20
-478.8431
 30
0.0
  0
SPLINE
  5
D7
330
1F
100
AcDbEntity
  8
Layer 1
 62
   250
370
    20
100
AcDbSpline
210
0.0
220
0.0
230
1.0
 70
    11
 71
     3
 72
    20
 73
    16
 74
     0
 42
0.000000001
 43
0.0000000001
 40
0.0
 40
0.0
 40
0.0
 40
0.0
 40
0.2
 40
0.2
 40
0.2
 40
0.2
 40
0.4
 40
0.4
 40
0.4
 40
0.4
 40
0.6
 40
0.6
 40
0.6
 40
0.6
 40
1.0
 40
1.0
 40
1.0
 40
1.0
 10
2484.0149
 20
-478.8431
 30
0.0
 10
2484.0149
 20
-479.7268
 30
0.0
 10
2484.7312
 20
-480.4431
 30
0.0
 10
2485.6149
 20
-480.4431
 30
0.0
 10
2485.6149
 20
-480.4431
 30
0.0
 10
2486.4986
 20
-480.4431
 30
0.0
 10
2487.2149
 20
-479.7268
 30
0.0
 10
2487.2149
 20
-478.8431
 30
0.0
 10
2487.2149
 20
-478.8431
 30
0.0
 10
2487.2149
 20
-477.9594
 30
0.0
 10
2486.4986
 20
-477.2431
 30
0.0
 10
2485.6149
 20
-477.2431
 30
0.0
 10
2485.6149
 20
-477.2431
 30
0.0
 10
2484.7312
 20
-477.2431
 30
0.0
 10
2484.0149
 20
-477.9594
 30
0.0
 10
2484.0149
 20
-478.8431
 30
0.0
  0
SPLINE
  5
D8
330
1F
100
AcDbEntity
  8
Layer 1
 62
   250
370
    20
100
AcDbSpline
210
0.0
220
0.0
230
1.0
 70
    11
 71
     3
 72
    20
 73
    16
 74
     0
 42
0.000000001
 43
0.0000000001
 40
0.0
 40
0.0
 40
0.0
 40
0.0
 40
0.2
 40
0.2
 40
0.2
 40
0.2
 40
0.4
 40
0.4
 40
0.4
 40
0.4
 40
0.6
 40
0.6
 40
0.6
 40
0.6
 40
1.0
 40
1.0
 40
1.0
 40
1.0
 10
2494.0149
 20
-478.8431
 30
0.0
 10
2494.0149
 20
-479.7268
 30
0.0
 10
2494.7312
 20
-480.4431
 30
0.0
 10
2495.6149
 20
-480.4431
 30
0.0
 10
2495.6149
 20
-480.4431
 30
0.0
 10
2496.4986
 20
-480.4431
 30
0.0
 10
2497.2149
 20
-479.7268
 30
0.0
 10
2497.2149
 20
-478.8431
 30
0.0
 10
2497.2149
 20
-478.8431
 30
0.0
 10
2497.2149
 20
-477.9594
 30
0.0
 10
2496.4986
 20
-477.2431
 30
0.0
 10
2495.6149
 20
-477.2431
 30
0.0
 10
2495.6149
 20
-477.2431
 30
0.0
 10
2494.7312
 20
-477.2431
 30
0.0
 10
2494.0149
 20
-477.9594
 30
0.0
 10
2494.0149
 20
-478.8431
 30
0.0
  0
SPLINE
  5
D9
330
1F
100
AcDbEntity
  8
Layer 1
 62
   250
370
    20
100
AcDbSpline
210
0.0
220
0.0
230
1.0
 70
    11
 71
     3
 72
    20
 73
    16
 74
     0
 42
0.000000001
 43
0.0000000001
 40
0.0
 40
0.0
 40
0.0
 40
0.0
 40
0.2
 40
0.2
 40
0.2
 40
0.2
 40
0.4
 40
0.4
 40
0.4
 40
0.4
 40
0.6
 40
0.6
 40
0.6
 40
0.6
 40
1.0
 40
1.0
 40
1.0
 40
1.0
 10
2504.0149
 20
-478.8431
 30
0.0
 10
2504.0149
 20
-479.7268
 30
0.0
 10
2504.7312
 20
-480.4431
 30
0.0
 10
2505.6149
 20
-480.4431
 30
0.0
 10
2505.6149
 20
-480.4431
 30
0.0
 10
2506.4986
 20
-480.4431
 30
0.0
 10
2507.2149
 20
-479.7268
 30
0.0
 10
2507.2149
 20
-478.8431
 30
0.0
 10
2507.2149
 20
-478.8431
 30
0.0
 10
2507.2149
 20
-477.9594
 30
0.0
 10
2506.4986
 20
-477.2431
 30
0.0
 10
2505.6149
 20
-477.2431
 30
0.0
 10
2505.6149
 20
-477.2431
 30
0.0
 10
2504.7312
 20
-477.2431
 30
0.0
 10
2504.0149
 20
-477.9594
 30
0.0
 10
2504.0149
 20
-478.8431
 30
0.0
  0
SPLINE
  5
DA
330
1F
100
AcDbEntity
  8
Layer 1
 62
   250
370
    20
100
AcDbSpline
210
0.0
220
0.0
230
1.0
 70
    11
 71
     3
 72
    20
 73
    16
 74
     0
 42
0.000000001
 43
0.0000000001
 40
0.0
 40
0.0
 40
0.0
 40
0.0
 40
0.2
 40
0.2
 40
0.2
 40
0.2
 40
0.4
 40
0.4
 40
0.4
 40
0.4
 40
0.6
 40
0.6
 40
0.6
 40
0.6
 40
1.0
 40
1.0
 40
1.0
 40
1.0
 10
2227.2149
 20
-478.8431
 30
0.0
 10
2227.2149
 20
-477.9594
 30
0.0
 10
2226.4986
 20
-477.2431
 30
0.0
 10
2225.6149
 20
-477.2431
 30
0.0
 10
2225.6149
 20
-477.2431
 30
0.0
 10
2224.7312
 20
-477.2431
 30
0.0
 10
2224.0149
 20
-477.9594
 30
0.0
 10
2224.0149
 20
-478.8431
 30
0.0
 10
2224.0149
 20
-478.8431
 30
0.0
 10
2224.0149
 20
-479.7268
 30
0.0
 10
2224.7312
 20
-480.4431
 30
0.0
 10
2225.6149
 20
-480.4431
 30
0.0
 10
2225.6149
 20
-480.4431
 30
0.0
 10
2226.4986
 20
-480.4431
 30
0.0
 10
2227.2149
 20
-479.7268
 30
0.0
 10
2227.2149
 20
-478.8431
 30
0.0
  0
SPLINE
  5
DB
330
1F
100
AcDbEntity
  8
Layer 1
 62
   250
370
    20
100
AcDbSpline
210
0.0
220
0.0
230
1.0
 70
    11
 71
     3
 72
    20
 73
    16
 74
     0
 42
0.000000001
 43
0.0000000001
 40
0.0
 40
0.0
 40
0.0
 40
0.0
 40
0.2
 40
0.2
 40
0.2
 40
0.2
 40
0.4
 40
0.4
 40
0.4
 40
0.4
 40
0.6
 40
0.6
 40
0.6
 40
0.6
 40
1.0
 40
1.0
 40
1.0
 40
1.0
 10
2215.6149
 20
-480.4431
 30
0.0
 10
2216.4986
 20
-480.4431
 30
0.0
 10
2217.2149
 20
-479.7268
 30
0.0
 10
2217.2149
 20
-478.8431
 30
0.0
 10
2217.2149
 20
-478.8431
 30
0.0
 10
2217.2149
 20
-477.9594
 30
0.0
 10
2216.4986
 20
-477.2431
 30
0.0
 10
2215.6149
 20
-477.2431
 30
0.0
 10
2215.6149
 20
-477.2431
 30
0.0
 10
2214.7312
 20
-477.2431
 30
0.0
 10
2214.0149
 20
-477.9594
 30
0.0
 10
2214.0149
 20
-478.8431
 30
0.0
 10
2214.0149
 20
-478.8431
 30
0.0
 10
2214.0149
 20
-479.7268
 30
0.0
 10
2214.7312
 20
-480.4431
 30
0.0
 10
2215.6149
 20
-480.4431
 30
0.0
  0
SPLINE
  5
DC
330
1F
100
AcDbEntity
  8
Layer 1
 62
   250
370
    20
100
AcDbSpline
210
0.0
220
0.0
230
1.0
 70
    11
 71
     3
 72
    20
 73
    16
 74
     0
 42
0.000000001
 43
0.0000000001
 40
0.0
 40
0.0
 40
0.0
 40
0.0
 40
0.2
 40
0.2
 40
0.2
 40
0.2
 40
0.4
 40
0.4
 40
0.4
 40
0.4
 40
0.6
 40
0.6
 40
0.6
 40
0.6
 40
1.0
 40
1.0
 40
1.0
 40
1.0
 10
2205.6149
 20
-480.4431
 30
0.0
 10
2206.4986
 20
-480.4431
 30
0.0
 10
2207.2149
 20
-479.7268
 30
0.0
 10
2207.2149
 20
-478.8431
 30
0.0
 10
2207.2149
 20
-478.8431
 30
0.0
 10
2207.2149
 20
-477.9594
 30
0.0
 10
2206.4986
 20
-477.2431
 30
0.0
 10
2205.6149
 20
-477.2431
 30
0.0
 10
2205.6149
 20
-477.2431
 30
0.0
 10
2204.7312
 20
-477.2431
 30
0.0
 10
2204.0149
 20
-477.9594
 30
0.0
 10
2204.0149
 20
-478.8431
 30
0.0
 10
2204.0149
 20
-478.8431
 30
0.0
 10
2204.0149
 20
-479.7268
 30
0.0
 10
2204.7312
 20
-480.4431
 30
0.0
 10
2205.6149
 20
-480.4431
 30
0.0
  0
SPLINE
  5
DD
330
1F
100
AcDbEntity
  8
Layer 1
 62
   250
370
    20
100
AcDbSpline
210
0.0
220
0.0
230
1.0
 70
    11
 71
     3
 72
    44
 73
    40
 74
     0
 42
0.000000001
 43
0.0000000001
 40
0.0
 40
0.0
 40
0.0
 40
0.0
 40
0.0909090909090909
 40
0.0909090909090909
 40
0.0909090909090909
 40
0.0909090909090909
 40
0.1818181818181818
 40
0.1818181818181818
 40
0.1818181818181818
 40
0.1818181818181818
 40
0.2727272727272727
 40
0.2727272727272727
 40
0.2727272727272727
 40
0.2727272727272727
 40
0.3636363636363636
 40
0.3636363636363636
 40
0.3636363636363636
 40
0.3636363636363636
 40
0.4545454545454545
 40
0.4545454545454545
 40
0.4545454545454545
 40
0.4545454545454545
 40
0.5454545454545454
 40
0.5454545454545454
 40
0.5454545454545454
 40
0.5454545454545454
 40
0.6363636363636364
 40
0.6363636363636364
 40
0.6363636363636364
 40
0.6363636363636364
 40
0.7272727272727273
 40
0.7272727272727273
 40
0.7272727272727273
 40
0.7272727272727273
 40
0.8181818181818182
 40
0.8181818181818182
 40
0.8181818181818182
 40
0.8181818181818182
 40
1.0
 40
1.0
 40
1.0
 40
1.0
 10
2255.6149
 20
-462.0431
 30
0.0
 10
2255.6149
 20
-462.0431
 30
0.0
 10
2205.6149
 20
-462.0431
 30
0.0
 10
2205.6149
 20
-462.0431
 30
0.0
 10
2205.6149
 20
-462.0431
 30
0.0
 10
2203.6142
 20
-462.0431
 30
0.0
 10
2201.7655
 20
-463.1105
 30
0.0
 10
2200.7652
 20
-464.8431
 30
0.0
 10
2200.7652
 20
-464.8431
 30
0.0
 10
2199.7648
 20
-466.5757
 30
0.0
 10
2199.7648
 20
-468.7105
 30
0.0
 10
2200.7652
 20
-470.4431
 30
0.0
 10
2200.7652
 20
-470.4431
 30
0.0
 10
2201.7655
 20
-472.1757
 30
0.0
 10
2203.6142
 20
-473.2431
 30
0.0
 10
2205.6149
 20
-473.2431
 30
0.0
 10
2205.6149
 20
-473.2431
 30
0.0
 10
2205.6149
 20
-473.2431
 30
0.0
 10
2255.6149
 20
-473.2431
 30
0.0
 10
2255.6149
 20
-473.2431
 30
0.0
 10
2255.6149
 20
-473.2431
 30
0.0
 10
2255.6149
 20
-473.2431
 30
0.0
 10
2305.6149
 20
-473.2431
 30
0.0
 10
2305.6149
 20
-473.2431
 30
0.0
 10
2305.6149
 20
-473.2431
 30
0.0
 10
2307.6156
 20
-473.2431
 30
0.0
 10
2309.4643
 20
-472.1757
 30
0.0
 10
2310.4646
 20
-470.4431
 30
0.0
 10
2310.4646
 20
-470.4431
 30
0.0
 10
2311.465
 20
-468.7105
 30
0.0
 10
2311.465
 20
-466.5757
 30
0.0
 10
2310.4646
 20
-464.8431
 30
0.0
 10
2310.4646
 20
-464.8431
 30
0.0
 10
2309.4643
 20
-463.1105
 30
0.0
 10
2307.6156
 20
-462.0431
 30
0.0
 10
2305.6149
 20
-462.0431
 30
0.0
 10
2305.6149
 20
-462.0431
 30
0.0
 10
2305.6149
 20
-462.0431
 30
0.0
 10
2255.6149
 20
-462.0431
 30
0.0
 10
2255.6149
 20
-462.0431
 30
0.0
  0
SPLINE
  5
DE
330
1F
100
AcDbEntity
  8
Layer 1
 62
   250
370
    20
100
AcDbSpline
210
0.0
220
0.0
230
1.0
 70
    11
 71
     3
 72
    20
 73
    16
 74
     0
 42
0.000000001
 43
0.0000000001
 40
0.0
 40
0.0
 40
0.0
 40
0.0
 40
0.2
 40
0.2
 40
0.2
 40
0.2
 40
0.4
 40
0.4
 40
0.4
 40
0.4
 40
0.6
 40
0.6
 40
0.6
 40
0.6
 40
1.0
 40
1.0
 40
1.0
 40
1.0
 10
2247.2149
 20
-467.6431
 30
0.0
 10
2247.2149
 20
-468.5268
 30
0.0
 10
2246.4986
 20
-469.2431
 30
0.0
 10
2245.6149
 20
-469.2431
 30
0.0
 10
2245.6149
 20
-469.2431
 30
0.0
 10
2244.7312
 20
-469.2431
 30
0.0
 10
2244.0149
 20
-468.5268
 30
0.0
 10
2244.0149
 20
-467.6431
 30
0.0
 10
2244.0149
 20
-467.6431
 30
0.0
 10
2244.0149
 20
-466.7594
 30
0.0
 10
2244.7312
 20
-466.0431
 30
0.0
 10
2245.6149
 20
-466.0431
 30
0.0
 10
2245.6149
 20
-466.0431
 30
0.0
 10
2246.4986
 20
-466.0431
 30
0.0
 10
2247.2149
 20
-466.7594
 30
0.0
 10
2247.2149
 20
-467.6431
 30
0.0
  0
SPLINE
  5
DF
330
1F
100
AcDbEntity
  8
Layer 1
 62
   250
370
    20
100
AcDbSpline
210
0.0
220
0.0
230
1.0
 70
    11
 71
     3
 72
    20
 73
    16
 74
     0
 42
0.000000001
 43
0.0000000001
 40
0.0
 40
0.0
 40
0.0
 40
0.0
 40
0.2
 40
0.2
 40
0.2
 40
0.2
 40
0.4
 40
0.4
 40
0.4
 40
0.4
 40
0.6
 40
0.6
 40
0.6
 40
0.6
 40
1.0
 40
1.0
 40
1.0
 40
1.0
 10
2237.2149
 20
-467.6431
 30
0.0
 10
2237.2149
 20
-468.5268
 30
0.0
 10
2236.4986
 20
-469.2431
 30
0.0
 10
2235.6149
 20
-469.2431
 30
0.0
 10
2235.6149
 20
-469.2431
 30
0.0
 10
2234.7312
 20
-469.2431
 30
0.0
 10
2234.0149
 20
-468.5268
 30
0.0
 10
2234.0149
 20
-467.6431
 30
0.0
 10
2234.0149
 20
-467.6431
 30
0.0
 10
2234.0149
 20
-466.7594
 30
0.0
 10
2234.7312
 20
-466.0431
 30
0.0
 10
2235.6149
 20
-466.0431
 30
0.0
 10
2235.6149
 20
-466.0431
 30
0.0
 10
2236.4986
 20
-466.0431
 30
0.0
 10
2237.2149
 20
-466.7594
 30
0.0
 10
2237.2149
 20
-467.6431
 30
0.0
  0
SPLINE
  5
E0
330
1F
100
AcDbEntity
  8
Layer 1
 62
   250
370
    20
100
AcDbSpline
210
0.0
220
0.0
230
1.0
 70
    11
 71
     3
 72
    20
 73
    16
 74
     0
 42
0.000000001
 43
0.0000000001
 40
0.0
 40
0.0
 40
0.0
 40
0.0
 40
0.2
 40
0.2
 40
0.2
 40
0.2
 40
0.4
 40
0.4
 40
0.4
 40
0.4
 40
0.6
 40
0.6
 40
0.6
 40
0.6
 40
1.0
 40
1.0
 40
1.0
 40
1.0
 10
2227.2149
 20
-467.6431
 30
0.0
 10
2227.2149
 20
-468.5268
 30
0.0
 10
2226.4986
 20
-469.2431
 30
0.0
 10
2225.6149
 20
-469.2431
 30
0.0
 10
2225.6149
 20
-469.2431
 30
0.0
 10
2224.7312
 20
-469.2431
 30
0.0
 10
2224.0149
 20
-468.5268
 30
0.0
 10
2224.0149
 20
-467.6431
 30
0.0
 10
2224.0149
 20
-467.6431
 30
0.0
 10
2224.0149
 20
-466.7594
 30
0.0
 10
2224.7312
 20
-466.0431
 30
0.0
 10
2225.6149
 20
-466.0431
 30
0.0
 10
2225.6149
 20
-466.0431
 30
0.0
 10
2226.4986
 20
-466.0431
 30
0.0
 10
2227.2149
 20
-466.7594
 30
0.0
 10
2227.2149
 20
-467.6431
 30
0.0
  0
SPLINE
  5
E1
330
1F
100
AcDbEntity
  8
Layer 1
 62
   250
370
    20
100
AcDbSpline
210
0.0
220
0.0
230
1.0
 70
    11
 71
     3
 72
    20
 73
    16
 74
     0
 42
0.000000001
 43
0.0000000001
 40
0.0
 40
0.0
 40
0.0
 40
0.0
 40
0.2
 40
0.2
 40
0.2
 40
0.2
 40
0.4
 40
0.4
 40
0.4
 40
0.4
 40
0.6
 40
0.6
 40
0.6
 40
0.6
 40
1.0
 40
1.0
 40
1.0
 40
1.0
 10
2255.6149
 20
-469.2431
 30
0.0
 10
2254.7312
 20
-469.2431
 30
0.0
 10
2254.0149
 20
-468.5268
 30
0.0
 10
2254.0149
 20
-467.6431
 30
0.0
 10
2254.0149
 20
-467.6431
 30
0.0
 10
2254.0149
 20
-466.7594
 30
0.0
 10
2254.7312
 20
-466.0431
 30
0.0
 10
2255.6149
 20
-466.0431
 30
0.0
 10
2255.6149
 20
-466.0431
 30
0.0
 10
2256.4986
 20
-466.0431
 30
0.0
 10
2257.2149
 20
-466.7594
 30
0.0
 10
2257.2149
 20
-467.6431
 30
0.0
 10
2257.2149
 20
-467.6431
 30
0.0
 10
2257.2149
 20
-468.5268
 30
0.0
 10
2256.4986
 20
-469.2431
 30
0.0
 10
2255.6149
 20
-469.2431
 30
0.0
  0
SPLINE
  5
E2
330
1F
100
AcDbEntity
  8
Layer 1
 62
   250
370
    20
100
AcDbSpline
210
0.0
220
0.0
230
1.0
 70
    11
 71
     3
 72
    20
 73
    16
 74
     0
 42
0.000000001
 43
0.0000000001
 40
0.0
 40
0.0
 40
0.0
 40
0.0
 40
0.2
 40
0.2
 40
0.2
 40
0.2
 40
0.4
 40
0.4
 40
0.4
 40
0.4
 40
0.6
 40
0.6
 40
0.6
 40
0.6
 40
1.0
 40
1.0
 40
1.0
 40
1.0
 10
2265.6149
 20
-469.2431
 30
0.0
 10
2264.7312
 20
-469.2431
 30
0.0
 10
2264.0149
 20
-468.5268
 30
0.0
 10
2264.0149
 20
-467.6431
 30
0.0
 10
2264.0149
 20
-467.6431
 30
0.0
 10
2264.0149
 20
-466.7594
 30
0.0
 10
2264.7312
 20
-466.0431
 30
0.0
 10
2265.6149
 20
-466.0431
 30
0.0
 10
2265.6149
 20
-466.0431
 30
0.0
 10
2266.4986
 20
-466.0431
 30
0.0
 10
2267.2149
 20
-466.7594
 30
0.0
 10
2267.2149
 20
-467.6431
 30
0.0
 10
2267.2149
 20
-467.6431
 30
0.0
 10
2267.2149
 20
-468.5268
 30
0.0
 10
2266.4986
 20
-469.2431
 30
0.0
 10
2265.6149
 20
-469.2431
 30
0.0
  0
SPLINE
  5
E3
330
1F
100
AcDbEntity
  8
Layer 1
 62
   250
370
    20
100
AcDbSpline
210
0.0
220
0.0
230
1.0
 70
    11
 71
     3
 72
    20
 73
    16
 74
     0
 42
0.000000001
 43
0.0000000001
 40
0.0
 40
0.0
 40
0.0
 40
0.0
 40
0.2
 40
0.2
 40
0.2
 40
0.2
 40
0.4
 40
0.4
 40
0.4
 40
0.4
 40
0.6
 40
0.6
 40
0.6
 40
0.6
 40
1.0
 40
1.0
 40
1.0
 40
1.0
 10
2275.6149
 20
-469.2431
 30
0.0
 10
2274.7312
 20
-469.2431
 30
0.0
 10
2274.0149
 20
-468.5268
 30
0.0
 10
2274.0149
 20
-467.6431
 30
0.0
 10
2274.0149
 20
-467.6431
 30
0.0
 10
2274.0149
 20
-466.7594
 30
0.0
 10
2274.7312
 20
-466.0431
 30
0.0
 10
2275.6149
 20
-466.0431
 30
0.0
 10
2275.6149
 20
-466.0431
 30
0.0
 10
2276.4986
 20
-466.0431
 30
0.0
 10
2277.2149
 20
-466.7594
 30
0.0
 10
2277.2149
 20
-467.6431
 30
0.0
 10
2277.2149
 20
-467.6431
 30
0.0
 10
2277.2149
 20
-468.5268
 30
0.0
 10
2276.4986
 20
-469.2431
 30
0.0
 10
2275.6149
 20
-469.2431
 30
0.0
  0
SPLINE
  5
E4
330
1F
100
AcDbEntity
  8
Layer 1
 62
   250
370
    20
100
AcDbSpline
210
0.0
220
0.0
230
1.0
 70
    11
 71
     3
 72
    20
 73
    16
 74
     0
 42
0.000000001
 43
0.0000000001
 40
0.0
 40
0.0
 40
0.0
 40
0.0
 40
0.2
 40
0.2
 40
0.2
 40
0.2
 40
0.4
 40
0.4
 40
0.4
 40
0.4
 40
0.6
 40
0.6
 40
0.6
 40
0.6
 40
1.0
 40
1.0
 40
1.0
 40
1.0
 10
2284.0149
 20
-467.6431
 30
0.0
 10
2284.0149
 20
-466.7594
 30
0.0
 10
2284.7312
 20
-466.0431
 30
0.0
 10
2285.6149
 20
-466.0431
 30
0.0
 10
2285.6149
 20
-466.0431
 30
0.0
 10
2286.4986
 20
-466.0431
 30
0.0
 10
2287.2149
 20
-466.7594
 30
0.0
 10
2287.2149
 20
-467.6431
 30
0.0
 10
2287.2149
 20
-467.6431
 30
0.0
 10
2287.2149
 20
-468.5268
 30
0.0
 10
2286.4986
 20
-469.2431
 30
0.0
 10
2285.6149
 20
-469.2431
 30
0.0
 10
2285.6149
 20
-469.2431
 30
0.0
 10
2284.7312
 20
-469.2431
 30
0.0
 10
2284.0149
 20
-468.5268
 30
0.0
 10
2284.0149
 20
-467.6431
 30
0.0
  0
SPLINE
  5
E5
330
1F
100
AcDbEntity
  8
Layer 1
 62
   250
370
    20
100
AcDbSpline
210
0.0
220
0.0
230
1.0
 70
    11
 71
     3
 72
    20
 73
    16
 74
     0
 42
0.000000001
 43
0.0000000001
 40
0.0
 40
0.0
 40
0.0
 40
0.0
 40
0.2
 40
0.2
 40
0.2
 40
0.2
 40
0.4
 40
0.4
 40
0.4
 40
0.4
 40
0.6
 40
0.6
 40
0.6
 40
0.6
 40
1.0
 40
1.0
 40
1.0
 40
1.0
 10
2294.0149
 20
-467.6431
 30
0.0
 10
2294.0149
 20
-466.7594
 30
0.0
 10
2294.7312
 20
-466.0431
 30
0.0
 10
2295.6149
 20
-466.0431
 30
0.0
 10
2295.6149
 20
-466.0431
 30
0.0
 10
2296.4986
 20
-466.0431
 30
0.0
 10
2297.2149
 20
-466.7594
 30
0.0
 10
2297.2149
 20
-467.6431
 30
0.0
 10
2297.2149
 20
-467.6431
 30
0.0
 10
2297.2149
 20
-468.5268
 30
0.0
 10
2296.4986
 20
-469.2431
 30
0.0
 10
2295.6149
 20
-469.2431
 30
0.0
 10
2295.6149
 20
-469.2431
 30
0.0
 10
2294.7312
 20
-469.2431
 30
0.0
 10
2294.0149
 20
-468.5268
 30
0.0
 10
2294.0149
 20
-467.6431
 30
0.0
  0
SPLINE
  5
E6
330
1F
100
AcDbEntity
  8
Layer 1
 62
   250
370
    20
100
AcDbSpline
210
0.0
220
0.0
230
1.0
 70
    11
 71
     3
 72
    20
 73
    16
 74
     0
 42
0.000000001
 43
0.0000000001
 40
0.0
 40
0.0
 40
0.0
 40
0.0
 40
0.2
 40
0.2
 40
0.2
 40
0.2
 40
0.4
 40
0.4
 40
0.4
 40
0.4
 40
0.6
 40
0.6
 40
0.6
 40
0.6
 40
1.0
 40
1.0
 40
1.0
 40
1.0
 10
2304.0149
 20
-467.6431
 30
0.0
 10
2304.0149
 20
-466.7594
 30
0.0
 10
2304.7312
 20
-466.0431
 30
0.0
 10
2305.6149
 20
-466.0431
 30
0.0
 10
2305.6149
 20
-466.0431
 30
0.0
 10
2306.4986
 20
-466.0431
 30
0.0
 10
2307.2149
 20
-466.7594
 30
0.0
 10
2307.2149
 20
-467.6431
 30
0.0
 10
2307.2149
 20
-467.6431
 30
0.0
 10
2307.2149
 20
-468.5268
 30
0.0
 10
2306.4986
 20
-469.2431
 30
0.0
 10
2305.6149
 20
-469.2431
 30
0.0
 10
2305.6149
 20
-469.2431
 30
0.0
 10
2304.7312
 20
-469.2431
 30
0.0
 10
2304.0149
 20
-468.5268
 30
0.0
 10
2304.0149
 20
-467.6431
 30
0.0
  0
SPLINE
  5
E7
330
1F
100
AcDbEntity
  8
Layer 1
 62
   250
370
    20
100
AcDbSpline
210
0.0
220
0.0
230
1.0
 70
    11
 71
     3
 72
    20
 73
    16
 74
     0
 42
0.000000001
 43
0.0000000001
 40
0.0
 40
0.0
 40
0.0
 40
0.0
 40
0.2
 40
0.2
 40
0.2
 40
0.2
 40
0.4
 40
0.4
 40
0.4
 40
0.4
 40
0.6
 40
0.6
 40
0.6
 40
0.6
 40
1.0
 40
1.0
 40
1.0
 40
1.0
 10
2217.2149
 20
-467.6431
 30
0.0
 10
2217.2149
 20
-468.5268
 30
0.0
 10
2216.4986
 20
-469.2431
 30
0.0
 10
2215.6149
 20
-469.2431
 30
0.0
 10
2215.6149
 20
-469.2431
 30
0.0
 10
2214.7312
 20
-469.2431
 30
0.0
 10
2214.0149
 20
-468.5268
 30
0.0
 10
2214.0149
 20
-467.6431
 30
0.0
 10
2214.0149
 20
-467.6431
 30
0.0
 10
2214.0149
 20
-466.7594
 30
0.0
 10
2214.7312
 20
-466.0431
 30
0.0
 10
2215.6149
 20
-466.0431
 30
0.0
 10
2215.6149
 20
-466.0431
 30
0.0
 10
2216.4986
 20
-466.0431
 30
0.0
 10
2217.2149
 20
-466.7594
 30
0.0
 10
2217.2149
 20
-467.6431
 30
0.0
  0
SPLINE
  5
E8
330
1F
100
AcDbEntity
  8
Layer 1
 62
   250
370
    20
100
AcDbSpline
210
0.0
220
0.0
230
1.0
 70
    11
 71
     3
 72
    20
 73
    16
 74
     0
 42
0.000000001
 43
0.0000000001
 40
0.0
 40
0.0
 40
0.0
 40
0.0
 40
0.2
 40
0.2
 40
0.2
 40
0.2
 40
0.4
 40
0.4
 40
0.4
 40
0.4
 40
0.6
 40
0.6
 40
0.6
 40
0.6
 40
1.0
 40
1.0
 40
1.0
 40
1.0
 10
2205.6149
 20
-466.0431
 30
0.0
 10
2206.4986
 20
-466.0431
 30
0.0
 10
2207.2149
 20
-466.7594
 30
0.0
 10
2207.2149
 20
-467.6431
 30
0.0
 10
2207.2149
 20
-467.6431
 30
0.0
 10
2207.2149
 20
-468.5268
 30
0.0
 10
2206.4986
 20
-469.2431
 30
0.0
 10
2205.6149
 20
-469.2431
 30
0.0
 10
2205.6149
 20
-469.2431
 30
0.0
 10
2204.7312
 20
-469.2431
 30
0.0
 10
2204.0149
 20
-468.5268
 30
0.0
 10
2204.0149
 20
-467.6431
 30
0.0
 10
2204.0149
 20
-467.6431
 30
0.0
 10
2204.0149
 20
-466.7594
 30
0.0
 10
2204.7312
 20
-466.0431
 30
0.0
 10
2205.6149
 20
-466.0431
 30
0.0
  0
SPLINE
  5
E9
330
1F
100
AcDbEntity
  8
Layer 1
 62
   250
370
    20
100
AcDbSpline
210
0.0
220
0.0
230
1.0
 70
    11
 71
     3
 72
    44
 73
    40
 74
     0
 42
0.000000001
 43
0.0000000001
 40
0.0
 40
0.0
 40
0.0
 40
0.0
 40
0.0909090909090909
 40
0.0909090909090909
 40
0.0909090909090909
 40
0.0909090909090909
 40
0.1818181818181818
 40
0.1818181818181818
 40
0.1818181818181818
 40
0.1818181818181818
 40
0.2727272727272727
 40
0.2727272727272727
 40
0.2727272727272727
 40
0.2727272727272727
 40
0.3636363636363636
 40
0.3636363636363636
 40
0.3636363636363636
 40
0.3636363636363636
 40
0.4545454545454545
 40
0.4545454545454545
 40
0.4545454545454545
 40
0.4545454545454545
 40
0.5454545454545454
 40
0.5454545454545454
 40
0.5454545454545454
 40
0.5454545454545454
 40
0.6363636363636364
 40
0.6363636363636364
 40
0.6363636363636364
 40
0.6363636363636364
 40
0.7272727272727273
 40
0.7272727272727273
 40
0.7272727272727273
 40
0.7272727272727273
 40
0.8181818181818182
 40
0.8181818181818182
 40
0.8181818181818182
 40
0.8181818181818182
 40
1.0
 40
1.0
 40
1.0
 40
1.0
 10
2366.8149
 20
-462.0431
 30
0.0
 10
2366.8149
 20
-462.0431
 30
0.0
 10
2416.8149
 20
-462.0431
 30
0.0
 10
2416.8149
 20
-462.0431
 30
0.0
 10
2416.8149
 20
-462.0431
 30
0.0
 10
2418.8156
 20
-462.0431
 30
0.0
 10
2420.6643
 20
-463.1105
 30
0.0
 10
2421.6646
 20
-464.8431
 30
0.0
 10
2421.6646
 20
-464.8431
 30
0.0
 10
2422.665
 20
-466.5757
 30
0.0
 10
2422.665
 20
-468.7105
 30
0.0
 10
2421.6646
 20
-470.4431
 30
0.0
 10
2421.6646
 20
-470.4431
 30
0.0
 10
2420.6643
 20
-472.1757
 30
0.0
 10
2418.8156
 20
-473.2431
 30
0.0
 10
2416.8149
 20
-473.2431
 30
0.0
 10
2416.8149
 20
-473.2431
 30
0.0
 10
2416.8149
 20
-473.2431
 30
0.0
 10
2366.8149
 20
-473.2431
 30
0.0
 10
2366.8149
 20
-473.2431
 30
0.0
 10
2366.8149
 20
-473.2431
 30
0.0
 10
2366.8149
 20
-473.2431
 30
0.0
 10
2316.8149
 20
-473.2431
 30
0.0
 10
2316.8149
 20
-473.2431
 30
0.0
 10
2316.8149
 20
-473.2431
 30
0.0
 10
2314.8142
 20
-473.2431
 30
0.0
 10
2312.9655
 20
-472.1757
 30
0.0
 10
2311.9652
 20
-470.4431
 30
0.0
 10
2311.9652
 20
-470.4431
 30
0.0
 10
2310.9648
 20
-468.7105
 30
0.0
 10
2310.9648
 20
-466.5757
 30
0.0
 10
2311.9652
 20
-464.8431
 30
0.0
 10
2311.9652
 20
-464.8431
 30
0.0
 10
2312.9655
 20
-463.1105
 30
0.0
 10
2314.8142
 20
-462.0431
 30
0.0
 10
2316.8149
 20
-462.0431
 30
0.0
 10
2316.8149
 20
-462.0431
 30
0.0
 10
2316.8149
 20
-462.0431
 30
0.0
 10
2366.8149
 20
-462.0431
 30
0.0
 10
2366.8149
 20
-462.0431
 30
0.0
  0
SPLINE
  5
EA
330
1F
100
AcDbEntity
  8
Layer 1
 62
   250
370
    20
100
AcDbSpline
210
0.0
220
0.0
230
1.0
 70
    11
 71
     3
 72
    20
 73
    16
 74
     0
 42
0.000000001
 43
0.0000000001
 40
0.0
 40
0.0
 40
0.0
 40
0.0
 40
0.2
 40
0.2
 40
0.2
 40
0.2
 40
0.4
 40
0.4
 40
0.4
 40
0.4
 40
0.6
 40
0.6
 40
0.6
 40
0.6
 40
1.0
 40
1.0
 40
1.0
 40
1.0
 10
2375.2149
 20
-467.6431
 30
0.0
 10
2375.2149
 20
-468.5268
 30
0.0
 10
2375.9312
 20
-469.2431
 30
0.0
 10
2376.8149
 20
-469.2431
 30
0.0
 10
2376.8149
 20
-469.2431
 30
0.0
 10
2377.6986
 20
-469.2431
 30
0.0
 10
2378.4149
 20
-468.5268
 30
0.0
 10
2378.4149
 20
-467.6431
 30
0.0
 10
2378.4149
 20
-467.6431
 30
0.0
 10
2378.4149
 20
-466.7594
 30
0.0
 10
2377.6986
 20
-466.0431
 30
0.0
 10
2376.8149
 20
-466.0431
 30
0.0
 10
2376.8149
 20
-466.0431
 30
0.0
 10
2375.9312
 20
-466.0431
 30
0.0
 10
2375.2149
 20
-466.7594
 30
0.0
 10
2375.2149
 20
-467.6431
 30
0.0
  0
SPLINE
  5
EB
330
1F
100
AcDbEntity
  8
Layer 1
 62
   250
370
    20
100
AcDbSpline
210
0.0
220
0.0
230
1.0
 70
    11
 71
     3
 72
    20
 73
    16
 74
     0
 42
0.000000001
 43
0.0000000001
 40
0.0
 40
0.0
 40
0.0
 40
0.0
 40
0.2
 40
0.2
 40
0.2
 40
0.2
 40
0.4
 40
0.4
 40
0.4
 40
0.4
 40
0.6
 40
0.6
 40
0.6
 40
0.6
 40
1.0
 40
1.0
 40
1.0
 40
1.0
 10
2385.2149
 20
-467.6431
 30
0.0
 10
2385.2149
 20
-468.5268
 30
0.0
 10
2385.9312
 20
-469.2431
 30
0.0
 10
2386.8149
 20
-469.2431
 30
0.0
 10
2386.8149
 20
-469.2431
 30
0.0
 10
2387.6986
 20
-469.2431
 30
0.0
 10
2388.4149
 20
-468.5268
 30
0.0
 10
2388.4149
 20
-467.6431
 30
0.0
 10
2388.4149
 20
-467.6431
 30
0.0
 10
2388.4149
 20
-466.7594
 30
0.0
 10
2387.6986
 20
-466.0431
 30
0.0
 10
2386.8149
 20
-466.0431
 30
0.0
 10
2386.8149
 20
-466.0431
 30
0.0
 10
2385.9312
 20
-466.0431
 30
0.0
 10
2385.2149
 20
-466.7594
 30
0.0
 10
2385.2149
 20
-467.6431
 30
0.0
  0
SPLINE
  5
EC
330
1F
100
AcDbEntity
  8
Layer 1
 62
   250
370
    20
100
AcDbSpline
210
0.0
220
0.0
230
1.0
 70
    11
 71
     3
 72
    20
 73
    16
 74
     0
 42
0.000000001
 43
0.0000000001
 40
0.0
 40
0.0
 40
0.0
 40
0.0
 40
0.2
 40
0.2
 40
0.2
 40
0.2
 40
0.4
 40
0.4
 40
0.4
 40
0.4
 40
0.6
 40
0.6
 40
0.6
 40
0.6
 40
1.0
 40
1.0
 40
1.0
 40
1.0
 10
2395.2149
 20
-467.6431
 30
0.0
 10
2395.2149
 20
-468.5268
 30
0.0
 10
2395.9312
 20
-469.2431
 30
0.0
 10
2396.8149
 20
-469.2431
 30
0.0
 10
2396.8149
 20
-469.2431
 30
0.0
 10
2397.6986
 20
-469.2431
 30
0.0
 10
2398.4149
 20
-468.5268
 30
0.0
 10
2398.4149
 20
-467.6431
 30
0.0
 10
2398.4149
 20
-467.6431
 30
0.0
 10
2398.4149
 20
-466.7594
 30
0.0
 10
2397.6986
 20
-466.0431
 30
0.0
 10
2396.8149
 20
-466.0431
 30
0.0
 10
2396.8149
 20
-466.0431
 30
0.0
 10
2395.9312
 20
-466.0431
 30
0.0
 10
2395.2149
 20
-466.7594
 30
0.0
 10
2395.2149
 20
-467.6431
 30
0.0
  0
SPLINE
  5
ED
330
1F
100
AcDbEntity
  8
Layer 1
 62
   250
370
    20
100
AcDbSpline
210
0.0
220
0.0
230
1.0
 70
    11
 71
     3
 72
    20
 73
    16
 74
     0
 42
0.000000001
 43
0.0000000001
 40
0.0
 40
0.0
 40
0.0
 40
0.0
 40
0.2
 40
0.2
 40
0.2
 40
0.2
 40
0.4
 40
0.4
 40
0.4
 40
0.4
 40
0.6
 40
0.6
 40
0.6
 40
0.6
 40
1.0
 40
1.0
 40
1.0
 40
1.0
 10
2366.8149
 20
-469.2431
 30
0.0
 10
2367.6986
 20
-469.2431
 30
0.0
 10
2368.4149
 20
-468.5268
 30
0.0
 10
2368.4149
 20
-467.6431
 30
0.0
 10
2368.4149
 20
-467.6431
 30
0.0
 10
2368.4149
 20
-466.7594
 30
0.0
 10
2367.6986
 20
-466.0431
 30
0.0
 10
2366.8149
 20
-466.0431
 30
0.0
 10
2366.8149
 20
-466.0431
 30
0.0
 10
2365.9312
 20
-466.0431
 30
0.0
 10
2365.2149
 20
-466.7594
 30
0.0
 10
2365.2149
 20
-467.6431
 30
0.0
 10
2365.2149
 20
-467.6431
 30
0.0
 10
2365.2149
 20
-468.5268
 30
0.0
 10
2365.9312
 20
-469.2431
 30
0.0
 10
2366.8149
 20
-469.2431
 30
0.0
  0
SPLINE
  5
EE
330
1F
100
AcDbEntity
  8
Layer 1
 62
   250
370
    20
100
AcDbSpline
210
0.0
220
0.0
230
1.0
 70
    11
 71
     3
 72
    20
 73
    16
 74
     0
 42
0.000000001
 43
0.0000000001
 40
0.0
 40
0.0
 40
0.0
 40
0.0
 40
0.2
 40
0.2
 40
0.2
 40
0.2
 40
0.4
 40
0.4
 40
0.4
 40
0.4
 40
0.6
 40
0.6
 40
0.6
 40
0.6
 40
1.0
 40
1.0
 40
1.0
 40
1.0
 10
2356.8149
 20
-469.2431
 30
0.0
 10
2357.6986
 20
-469.2431
 30
0.0
 10
2358.4149
 20
-468.5268
 30
0.0
 10
2358.4149
 20
-467.6431
 30
0.0
 10
2358.4149
 20
-467.6431
 30
0.0
 10
2358.4149
 20
-466.7594
 30
0.0
 10
2357.6986
 20
-466.0431
 30
0.0
 10
2356.8149
 20
-466.0431
 30
0.0
 10
2356.8149
 20
-466.0431
 30
0.0
 10
2355.9312
 20
-466.0431
 30
0.0
 10
2355.2149
 20
-466.7594
 30
0.0
 10
2355.2149
 20
-467.6431
 30
0.0
 10
2355.2149
 20
-467.6431
 30
0.0
 10
2355.2149
 20
-468.5268
 30
0.0
 10
2355.9312
 20
-469.2431
 30
0.0
 10
2356.8149
 20
-469.2431
 30
0.0
  0
SPLINE
  5
EF
330
1F
100
AcDbEntity
  8
Layer 1
 62
   250
370
    20
100
AcDbSpline
210
0.0
220
0.0
230
1.0
 70
    11
 71
     3
 72
    20
 73
    16
 74
     0
 42
0.000000001
 43
0.0000000001
 40
0.0
 40
0.0
 40
0.0
 40
0.0
 40
0.2
 40
0.2
 40
0.2
 40
0.2
 40
0.4
 40
0.4
 40
0.4
 40
0.4
 40
0.6
 40
0.6
 40
0.6
 40
0.6
 40
1.0
 40
1.0
 40
1.0
 40
1.0
 10
2346.8149
 20
-469.2431
 30
0.0
 10
2347.6986
 20
-469.2431
 30
0.0
 10
2348.4149
 20
-468.5268
 30
0.0
 10
2348.4149
 20
-467.6431
 30
0.0
 10
2348.4149
 20
-467.6431
 30
0.0
 10
2348.4149
 20
-466.7594
 30
0.0
 10
2347.6986
 20
-466.0431
 30
0.0
 10
2346.8149
 20
-466.0431
 30
0.0
 10
2346.8149
 20
-466.0431
 30
0.0
 10
2345.9312
 20
-466.0431
 30
0.0
 10
2345.2149
 20
-466.7594
 30
0.0
 10
2345.2149
 20
-467.6431
 30
0.0
 10
2345.2149
 20
-467.6431
 30
0.0
 10
2345.2149
 20
-468.5268
 30
0.0
 10
2345.9312
 20
-469.2431
 30
0.0
 10
2346.8149
 20
-469.2431
 30
0.0
  0
SPLINE
  5
F0
330
1F
100
AcDbEntity
  8
Layer 1
 62
   250
370
    20
100
AcDbSpline
210
0.0
220
0.0
230
1.0
 70
    11
 71
     3
 72
    20
 73
    16
 74
     0
 42
0.000000001
 43
0.0000000001
 40
0.0
 40
0.0
 40
0.0
 40
0.0
 40
0.2
 40
0.2
 40
0.2
 40
0.2
 40
0.4
 40
0.4
 40
0.4
 40
0.4
 40
0.6
 40
0.6
 40
0.6
 40
0.6
 40
1.0
 40
1.0
 40
1.0
 40
1.0
 10
2338.4149
 20
-467.6431
 30
0.0
 10
2338.4149
 20
-466.7594
 30
0.0
 10
2337.6986
 20
-466.0431
 30
0.0
 10
2336.8149
 20
-466.0431
 30
0.0
 10
2336.8149
 20
-466.0431
 30
0.0
 10
2335.9312
 20
-466.0431
 30
0.0
 10
2335.2149
 20
-466.7594
 30
0.0
 10
2335.2149
 20
-467.6431
 30
0.0
 10
2335.2149
 20
-467.6431
 30
0.0
 10
2335.2149
 20
-468.5268
 30
0.0
 10
2335.9312
 20
-469.2431
 30
0.0
 10
2336.8149
 20
-469.2431
 30
0.0
 10
2336.8149
 20
-469.2431
 30
0.0
 10
2337.6986
 20
-469.2431
 30
0.0
 10
2338.4149
 20
-468.5268
 30
0.0
 10
2338.4149
 20
-467.6431
 30
0.0
  0
SPLINE
  5
F1
330
1F
100
AcDbEntity
  8
Layer 1
 62
   250
370
    20
100
AcDbSpline
210
0.0
220
0.0
230
1.0
 70
    11
 71
     3
 72
    20
 73
    16
 74
     0
 42
0.000000001
 43
0.0000000001
 40
0.0
 40
0.0
 40
0.0
 40
0.0
 40
0.2
 40
0.2
 40
0.2
 40
0.2
 40
0.4
 40
0.4
 40
0.4
 40
0.4
 40
0.6
 40
0.6
 40
0.6
 40
0.6
 40
1.0
 40
1.0
 40
1.0
 40
1.0
 10
2328.4149
 20
-467.6431
 30
0.0
 10
2328.4149
 20
-466.7594
 30
0.0
 10
2327.6986
 20
-466.0431
 30
0.0
 10
2326.8149
 20
-466.0431
 30
0.0
 10
2326.8149
 20
-466.0431
 30
0.0
 10
2325.9312
 20
-466.0431
 30
0.0
 10
2325.2149
 20
-466.7594
 30
0.0
 10
2325.2149
 20
-467.6431
 30
0.0
 10
2325.2149
 20
-467.6431
 30
0.0
 10
2325.2149
 20
-468.5268
 30
0.0
 10
2325.9312
 20
-469.2431
 30
0.0
 10
2326.8149
 20
-469.2431
 30
0.0
 10
2326.8149
 20
-469.2431
 30
0.0
 10
2327.6986
 20
-469.2431
 30
0.0
 10
2328.4149
 20
-468.5268
 30
0.0
 10
2328.4149
 20
-467.6431
 30
0.0
  0
SPLINE
  5
F2
330
1F
100
AcDbEntity
  8
Layer 1
 62
   250
370
    20
100
AcDbSpline
210
0.0
220
0.0
230
1.0
 70
    11
 71
     3
 72
    20
 73
    16
 74
     0
 42
0.000000001
 43
0.0000000001
 40
0.0
 40
0.0
 40
0.0
 40
0.0
 40
0.2
 40
0.2
 40
0.2
 40
0.2
 40
0.4
 40
0.4
 40
0.4
 40
0.4
 40
0.6
 40
0.6
 40
0.6
 40
0.6
 40
1.0
 40
1.0
 40
1.0
 40
1.0
 10
2318.4149
 20
-467.6431
 30
0.0
 10
2318.4149
 20
-466.7594
 30
0.0
 10
2317.6986
 20
-466.0431
 30
0.0
 10
2316.8149
 20
-466.0431
 30
0.0
 10
2316.8149
 20
-466.0431
 30
0.0
 10
2315.9312
 20
-466.0431
 30
0.0
 10
2315.2149
 20
-466.7594
 30
0.0
 10
2315.2149
 20
-467.6431
 30
0.0
 10
2315.2149
 20
-467.6431
 30
0.0
 10
2315.2149
 20
-468.5268
 30
0.0
 10
2315.9312
 20
-469.2431
 30
0.0
 10
2316.8149
 20
-469.2431
 30
0.0
 10
2316.8149
 20
-469.2431
 30
0.0
 10
2317.6986
 20
-469.2431
 30
0.0
 10
2318.4149
 20
-468.5268
 30
0.0
 10
2318.4149
 20
-467.6431
 30
0.0
  0
SPLINE
  5
F3
330
1F
100
AcDbEntity
  8
Layer 1
 62
   250
370
    20
100
AcDbSpline
210
0.0
220
0.0
230
1.0
 70
    11
 71
     3
 72
    20
 73
    16
 74
     0
 42
0.000000001
 43
0.0000000001
 40
0.0
 40
0.0
 40
0.0
 40
0.0
 40
0.2
 40
0.2
 40
0.2
 40
0.2
 40
0.4
 40
0.4
 40
0.4
 40
0.4
 40
0.6
 40
0.6
 40
0.6
 40
0.6
 40
1.0
 40
1.0
 40
1.0
 40
1.0
 10
2405.2149
 20
-467.6431
 30
0.0
 10
2405.2149
 20
-468.5268
 30
0.0
 10
2405.9312
 20
-469.2431
 30
0.0
 10
2406.8149
 20
-469.2431
 30
0.0
 10
2406.8149
 20
-469.2431
 30
0.0
 10
2407.6986
 20
-469.2431
 30
0.0
 10
2408.4149
 20
-468.5268
 30
0.0
 10
2408.4149
 20
-467.6431
 30
0.0
 10
2408.4149
 20
-467.6431
 30
0.0
 10
2408.4149
 20
-466.7594
 30
0.0
 10
2407.6986
 20
-466.0431
 30
0.0
 10
2406.8149
 20
-466.0431
 30
0.0
 10
2406.8149
 20
-466.0431
 30
0.0
 10
2405.9312
 20
-466.0431
 30
0.0
 10
2405.2149
 20
-466.7594
 30
0.0
 10
2405.2149
 20
-467.6431
 30
0.0
  0
SPLINE
  5
F4
330
1F
100
AcDbEntity
  8
Layer 1
 62
   250
370
    20
100
AcDbSpline
210
0.0
220
0.0
230
1.0
 70
    11
 71
     3
 72
    20
 73
    16
 74
     0
 42
0.000000001
 43
0.0000000001
 40
0.0
 40
0.0
 40
0.0
 40
0.0
 40
0.2
 40
0.2
 40
0.2
 40
0.2
 40
0.4
 40
0.4
 40
0.4
 40
0.4
 40
0.6
 40
0.6
 40
0.6
 40
0.6
 40
1.0
 40
1.0
 40
1.0
 40
1.0
 10
2416.8149
 20
-466.0431
 30
0.0
 10
2415.9312
 20
-466.0431
 30
0.0
 10
2415.2149
 20
-466.7594
 30
0.0
 10
2415.2149
 20
-467.6431
 30
0.0
 10
2415.2149
 20
-467.6431
 30
0.0
 10
2415.2149
 20
-468.5268
 30
0.0
 10
2415.9312
 20
-469.2431
 30
0.0
 10
2416.8149
 20
-469.2431
 30
0.0
 10
2416.8149
 20
-469.2431
 30
0.0
 10
2417.6986
 20
-469.2431
 30
0.0
 10
2418.4149
 20
-468.5268
 30
0.0
 10
2418.4149
 20
-467.6431
 30
0.0
 10
2418.4149
 20
-467.6431
 30
0.0
 10
2418.4149
 20
-466.7594
 30
0.0
 10
2417.6986
 20
-466.0431
 30
0.0
 10
2416.8149
 20
-466.0431
 30
0.0
  0
SPLINE
  5
F5
330
1F
100
AcDbEntity
  8
Layer 1
 62
   250
370
    20
100
AcDbSpline
210
0.0
220
0.0
230
1.0
 70
    11
 71
     3
 72
    36
 73
    32
 74
     0
 42
0.000000001
 43
0.0000000001
 40
0.0
 40
0.0
 40
0.0
 40
0.0
 40
0.1111111111111111
 40
0.1111111111111111
 40
0.1111111111111111
 40
0.1111111111111111
 40
0.2222222222222222
 40
0.2222222222222222
 40
0.2222222222222222
 40
0.2222222222222222
 40
0.3333333333333333
 40
0.3333333333333333
 40
0.3333333333333333
 40
0.3333333333333333
 40
0.4444444444444444
 40
0.4444444444444444
 40
0.4444444444444444
 40
0.4444444444444444
 40
0.5555555555555556
 40
0.5555555555555556
 40
0.5555555555555556
 40
0.5555555555555556
 40
0.6666666666666666
 40
0.6666666666666666
 40
0.6666666666666666
 40
0.6666666666666666
 40
0.7777777777777778
 40
0.7777777777777778
 40
0.7777777777777778
 40
0.7777777777777778
 40
1.0
 40
1.0
 40
1.0
 40
1.0
 10
2205.6149
 20
-439.6431
 30
0.0
 10
2205.6149
 20
-439.6431
 30
0.0
 10
2355.6149
 20
-439.6431
 30
0.0
 10
2355.6149
 20
-439.6431
 30
0.0
 10
2355.6149
 20
-439.6431
 30
0.0
 10
2357.6156
 20
-439.6431
 30
0.0
 10
2359.4643
 20
-440.7105
 30
0.0
 10
2360.4646
 20
-442.4431
 30
0.0
 10
2360.4646
 20
-442.4431
 30
0.0
 10
2361.465
 20
-444.1757
 30
0.0
 10
2361.465
 20
-446.3105
 30
0.0
 10
2360.4646
 20
-448.0431
 30
0.0
 10
2360.4646
 20
-448.0431
 30
0.0
 10
2359.4643
 20
-449.7757
 30
0.0
 10
2357.6156
 20
-450.8431
 30
0.0
 10
2355.6149
 20
-450.8431
 30
0.0
 10
2355.6149
 20
-450.8431
 30
0.0
 10
2355.6149
 20
-450.8431
 30
0.0
 10
2205.6149
 20
-450.8431
 30
0.0
 10
2205.6149
 20
-450.8431
 30
0.0
 10
2205.6149
 20
-450.8431
 30
0.0
 10
2203.6142
 20
-450.8431
 30
0.0
 10
2201.7655
 20
-449.7757
 30
0.0
 10
2200.7652
 20
-448.0431
 30
0.0
 10
2200.7652
 20
-448.0431
 30
0.0
 10
2199.7648
 20
-446.3105
 30
0.0
 10
2199.7648
 20
-444.1757
 30
0.0
 10
2200.7652
 20
-442.4431
 30
0.0
 10
2200.7652
 20
-442.4431
 30
0.0
 10
2201.7655
 20
-440.7105
 30
0.0
 10
2203.6142
 20
-439.6431
 30
0.0
 10
2205.6149
 20
-439.6431
 30
0.0
  0
SPLINE
  5
F6
330
1F
100
AcDbEntity
  8
Layer 1
 62
   250
370
    20
100
AcDbSpline
210
0.0
220
0.0
230
1.0
 70
    11
 71
     3
 72
    20
 73
    16
 74
     0
 42
0.000000001
 43
0.0000000001
 40
0.0
 40
0.0
 40
0.0
 40
0.0
 40
0.2
 40
0.2
 40
0.2
 40
0.2
 40
0.4
 40
0.4
 40
0.4
 40
0.4
 40
0.6
 40
0.6
 40
0.6
 40
0.6
 40
1.0
 40
1.0
 40
1.0
 40
1.0
 10
2295.6149
 20
-443.6431
 30
0.0
 10
2294.7312
 20
-443.6431
 30
0.0
 10
2294.0149
 20
-444.3594
 30
0.0
 10
2294.0149
 20
-445.2431
 30
0.0
 10
2294.0149
 20
-445.2431
 30
0.0
 10
2294.0149
 20
-446.1268
 30
0.0
 10
2294.7312
 20
-446.8431
 30
0.0
 10
2295.6149
 20
-446.8431
 30
0.0
 10
2295.6149
 20
-446.8431
 30
0.0
 10
2296.4986
 20
-446.8431
 30
0.0
 10
2297.2149
 20
-446.1268
 30
0.0
 10
2297.2149
 20
-445.2431
 30
0.0
 10
2297.2149
 20
-445.2431
 30
0.0
 10
2297.2149
 20
-444.3594
 30
0.0
 10
2296.4986
 20
-443.6431
 30
0.0
 10
2295.6149
 20
-443.6431
 30
0.0
  0
SPLINE
  5
F7
330
1F
100
AcDbEntity
  8
Layer 1
 62
   250
370
    20
100
AcDbSpline
210
0.0
220
0.0
230
1.0
 70
    11
 71
     3
 72
    20
 73
    16
 74
     0
 42
0.000000001
 43
0.0000000001
 40
0.0
 40
0.0
 40
0.0
 40
0.0
 40
0.2
 40
0.2
 40
0.2
 40
0.2
 40
0.4
 40
0.4
 40
0.4
 40
0.4
 40
0.6
 40
0.6
 40
0.6
 40
0.6
 40
1.0
 40
1.0
 40
1.0
 40
1.0
 10
2305.6149
 20
-443.6431
 30
0.0
 10
2304.7312
 20
-443.6431
 30
0.0
 10
2304.0149
 20
-444.3594
 30
0.0
 10
2304.0149
 20
-445.2431
 30
0.0
 10
2304.0149
 20
-445.2431
 30
0.0
 10
2304.0149
 20
-446.1268
 30
0.0
 10
2304.7312
 20
-446.8431
 30
0.0
 10
2305.6149
 20
-446.8431
 30
0.0
 10
2305.6149
 20
-446.8431
 30
0.0
 10
2306.4986
 20
-446.8431
 30
0.0
 10
2307.2149
 20
-446.1268
 30
0.0
 10
2307.2149
 20
-445.2431
 30
0.0
 10
2307.2149
 20
-445.2431
 30
0.0
 10
2307.2149
 20
-444.3594
 30
0.0
 10
2306.4986
 20
-443.6431
 30
0.0
 10
2305.6149
 20
-443.6431
 30
0.0
  0
SPLINE
  5
F8
330
1F
100
AcDbEntity
  8
Layer 1
 62
   250
370
    20
100
AcDbSpline
210
0.0
220
0.0
230
1.0
 70
    11
 71
     3
 72
    20
 73
    16
 74
     0
 42
0.000000001
 43
0.0000000001
 40
0.0
 40
0.0
 40
0.0
 40
0.0
 40
0.2
 40
0.2
 40
0.2
 40
0.2
 40
0.4
 40
0.4
 40
0.4
 40
0.4
 40
0.6
 40
0.6
 40
0.6
 40
0.6
 40
1.0
 40
1.0
 40
1.0
 40
1.0
 10
2314.0149
 20
-445.2431
 30
0.0
 10
2314.0149
 20
-446.1268
 30
0.0
 10
2314.7312
 20
-446.8431
 30
0.0
 10
2315.6149
 20
-446.8431
 30
0.0
 10
2315.6149
 20
-446.8431
 30
0.0
 10
2316.4986
 20
-446.8431
 30
0.0
 10
2317.2149
 20
-446.1268
 30
0.0
 10
2317.2149
 20
-445.2431
 30
0.0
 10
2317.2149
 20
-445.2431
 30
0.0
 10
2317.2149
 20
-444.3594
 30
0.0
 10
2316.4986
 20
-443.6431
 30
0.0
 10
2315.6149
 20
-443.6431
 30
0.0
 10
2315.6149
 20
-443.6431
 30
0.0
 10
2314.7312
 20
-443.6431
 30
0.0
 10
2314.0149
 20
-444.3594
 30
0.0
 10
2314.0149
 20
-445.2431
 30
0.0
  0
SPLINE
  5
F9
330
1F
100
AcDbEntity
  8
Layer 1
 62
   250
370
    20
100
AcDbSpline
210
0.0
220
0.0
230
1.0
 70
    11
 71
     3
 72
    20
 73
    16
 74
     0
 42
0.000000001
 43
0.0000000001
 40
0.0
 40
0.0
 40
0.0
 40
0.0
 40
0.2
 40
0.2
 40
0.2
 40
0.2
 40
0.4
 40
0.4
 40
0.4
 40
0.4
 40
0.6
 40
0.6
 40
0.6
 40
0.6
 40
1.0
 40
1.0
 40
1.0
 40
1.0
 10
2324.0149
 20
-445.2431
 30
0.0
 10
2324.0149
 20
-446.1268
 30
0.0
 10
2324.7312
 20
-446.8431
 30
0.0
 10
2325.6149
 20
-446.8431
 30
0.0
 10
2325.6149
 20
-446.8431
 30
0.0
 10
2326.4986
 20
-446.8431
 30
0.0
 10
2327.2149
 20
-446.1268
 30
0.0
 10
2327.2149
 20
-445.2431
 30
0.0
 10
2327.2149
 20
-445.2431
 30
0.0
 10
2327.2149
 20
-444.3594
 30
0.0
 10
2326.4986
 20
-443.6431
 30
0.0
 10
2325.6149
 20
-443.6431
 30
0.0
 10
2325.6149
 20
-443.6431
 30
0.0
 10
2324.7312
 20
-443.6431
 30
0.0
 10
2324.0149
 20
-444.3594
 30
0.0
 10
2324.0149
 20
-445.2431
 30
0.0
  0
SPLINE
  5
FA
330
1F
100
AcDbEntity
  8
Layer 1
 62
   250
370
    20
100
AcDbSpline
210
0.0
220
0.0
230
1.0
 70
    11
 71
     3
 72
    20
 73
    16
 74
     0
 42
0.000000001
 43
0.0000000001
 40
0.0
 40
0.0
 40
0.0
 40
0.0
 40
0.2
 40
0.2
 40
0.2
 40
0.2
 40
0.4
 40
0.4
 40
0.4
 40
0.4
 40
0.6
 40
0.6
 40
0.6
 40
0.6
 40
1.0
 40
1.0
 40
1.0
 40
1.0
 10
2334.0149
 20
-445.2431
 30
0.0
 10
2334.0149
 20
-446.1268
 30
0.0
 10
2334.7312
 20
-446.8431
 30
0.0
 10
2335.6149
 20
-446.8431
 30
0.0
 10
2335.6149
 20
-446.8431
 30
0.0
 10
2336.4986
 20
-446.8431
 30
0.0
 10
2337.2149
 20
-446.1268
 30
0.0
 10
2337.2149
 20
-445.2431
 30
0.0
 10
2337.2149
 20
-445.2431
 30
0.0
 10
2337.2149
 20
-444.3594
 30
0.0
 10
2336.4986
 20
-443.6431
 30
0.0
 10
2335.6149
 20
-443.6431
 30
0.0
 10
2335.6149
 20
-443.6431
 30
0.0
 10
2334.7312
 20
-443.6431
 30
0.0
 10
2334.0149
 20
-444.3594
 30
0.0
 10
2334.0149
 20
-445.2431
 30
0.0
  0
SPLINE
  5
FB
330
1F
100
AcDbEntity
  8
Layer 1
 62
   250
370
    20
100
AcDbSpline
210
0.0
220
0.0
230
1.0
 70
    11
 71
     3
 72
    20
 73
    16
 74
     0
 42
0.000000001
 43
0.0000000001
 40
0.0
 40
0.0
 40
0.0
 40
0.0
 40
0.2
 40
0.2
 40
0.2
 40
0.2
 40
0.4
 40
0.4
 40
0.4
 40
0.4
 40
0.6
 40
0.6
 40
0.6
 40
0.6
 40
1.0
 40
1.0
 40
1.0
 40
1.0
 10
2344.0149
 20
-445.2431
 30
0.0
 10
2344.0149
 20
-446.1268
 30
0.0
 10
2344.7312
 20
-446.8431
 30
0.0
 10
2345.6149
 20
-446.8431
 30
0.0
 10
2345.6149
 20
-446.8431
 30
0.0
 10
2346.4986
 20
-446.8431
 30
0.0
 10
2347.2149
 20
-446.1268
 30
0.0
 10
2347.2149
 20
-445.2431
 30
0.0
 10
2347.2149
 20
-445.2431
 30
0.0
 10
2347.2149
 20
-444.3594
 30
0.0
 10
2346.4986
 20
-443.6431
 30
0.0
 10
2345.6149
 20
-443.6431
 30
0.0
 10
2345.6149
 20
-443.6431
 30
0.0
 10
2344.7312
 20
-443.6431
 30
0.0
 10
2344.0149
 20
-444.3594
 30
0.0
 10
2344.0149
 20
-445.2431
 30
0.0
  0
SPLINE
  5
FC
330
1F
100
AcDbEntity
  8
Layer 1
 62
   250
370
    20
100
AcDbSpline
210
0.0
220
0.0
230
1.0
 70
    11
 71
     3
 72
    20
 73
    16
 74
     0
 42
0.000000001
 43
0.0000000001
 40
0.0
 40
0.0
 40
0.0
 40
0.0
 40
0.2
 40
0.2
 40
0.2
 40
0.2
 40
0.4
 40
0.4
 40
0.4
 40
0.4
 40
0.6
 40
0.6
 40
0.6
 40
0.6
 40
1.0
 40
1.0
 40
1.0
 40
1.0
 10
2354.0149
 20
-445.2431
 30
0.0
 10
2354.0149
 20
-446.1268
 30
0.0
 10
2354.7312
 20
-446.8431
 30
0.0
 10
2355.6149
 20
-446.8431
 30
0.0
 10
2355.6149
 20
-446.8431
 30
0.0
 10
2356.4986
 20
-446.8431
 30
0.0
 10
2357.2149
 20
-446.1268
 30
0.0
 10
2357.2149
 20
-445.2431
 30
0.0
 10
2357.2149
 20
-445.2431
 30
0.0
 10
2357.2149
 20
-444.3594
 30
0.0
 10
2356.4986
 20
-443.6431
 30
0.0
 10
2355.6149
 20
-443.6431
 30
0.0
 10
2355.6149
 20
-443.6431
 30
0.0
 10
2354.7312
 20
-443.6431
 30
0.0
 10
2354.0149
 20
-444.3594
 30
0.0
 10
2354.0149
 20
-445.2431
 30
0.0
  0
SPLINE
  5
FD
330
1F
100
AcDbEntity
  8
Layer 1
 62
   250
370
    20
100
AcDbSpline
210
0.0
220
0.0
230
1.0
 70
    11
 71
     3
 72
    20
 73
    16
 74
     0
 42
0.000000001
 43
0.0000000001
 40
0.0
 40
0.0
 40
0.0
 40
0.0
 40
0.2
 40
0.2
 40
0.2
 40
0.2
 40
0.4
 40
0.4
 40
0.4
 40
0.4
 40
0.6
 40
0.6
 40
0.6
 40
0.6
 40
1.0
 40
1.0
 40
1.0
 40
1.0
 10
2227.2149
 20
-445.2431
 30
0.0
 10
2227.2149
 20
-444.3594
 30
0.0
 10
2226.4986
 20
-443.6431
 30
0.0
 10
2225.6149
 20
-443.6431
 30
0.0
 10
2225.6149
 20
-443.6431
 30
0.0
 10
2224.7312
 20
-443.6431
 30
0.0
 10
2224.0149
 20
-444.3594
 30
0.0
 10
2224.0149
 20
-445.2431
 30
0.0
 10
2224.0149
 20
-445.2431
 30
0.0
 10
2224.0149
 20
-446.1268
 30
0.0
 10
2224.7312
 20
-446.8431
 30
0.0
 10
2225.6149
 20
-446.8431
 30
0.0
 10
2225.6149
 20
-446.8431
 30
0.0
 10
2226.4986
 20
-446.8431
 30
0.0
 10
2227.2149
 20
-446.1268
 30
0.0
 10
2227.2149
 20
-445.2431
 30
0.0
  0
SPLINE
  5
FE
330
1F
100
AcDbEntity
  8
Layer 1
 62
   250
370
    20
100
AcDbSpline
210
0.0
220
0.0
230
1.0
 70
    11
 71
     3
 72
    20
 73
    16
 74
     0
 42
0.000000001
 43
0.0000000001
 40
0.0
 40
0.0
 40
0.0
 40
0.0
 40
0.2
 40
0.2
 40
0.2
 40
0.2
 40
0.4
 40
0.4
 40
0.4
 40
0.4
 40
0.6
 40
0.6
 40
0.6
 40
0.6
 40
1.0
 40
1.0
 40
1.0
 40
1.0
 10
2215.6149
 20
-446.8431
 30
0.0
 10
2216.4986
 20
-446.8431
 30
0.0
 10
2217.2149
 20
-446.1268
 30
0.0
 10
2217.2149
 20
-445.2431
 30
0.0
 10
2217.2149
 20
-445.2431
 30
0.0
 10
2217.2149
 20
-444.3594
 30
0.0
 10
2216.4986
 20
-443.6431
 30
0.0
 10
2215.6149
 20
-443.6431
 30
0.0
 10
2215.6149
 20
-443.6431
 30
0.0
 10
2214.7312
 20
-443.6431
 30
0.0
 10
2214.0149
 20
-444.3594
 30
0.0
 10
2214.0149
 20
-445.2431
 30
0.0
 10
2214.0149
 20
-445.2431
 30
0.0
 10
2214.0149
 20
-446.1268
 30
0.0
 10
2214.7312
 20
-446.8431
 30
0.0
 10
2215.6149
 20
-446.8431
 30
0.0
  0
SPLINE
  5
FF
330
1F
100
AcDbEntity
  8
Layer 1
 62
   250
370
    20
100
AcDbSpline
210
0.0
220
0.0
230
1.0
 70
    11
 71
     3
 72
    20
 73
    16
 74
     0
 42
0.000000001
 43
0.0000000001
 40
0.0
 40
0.0
 40
0.0
 40
0.0
 40
0.2
 40
0.2
 40
0.2
 40
0.2
 40
0.4
 40
0.4
 40
0.4
 40
0.4
 40
0.6
 40
0.6
 40
0.6
 40
0.6
 40
1.0
 40
1.0
 40
1.0
 40
1.0
 10
2205.6149
 20
-446.8431
 30
0.0
 10
2206.4986
 20
-446.8431
 30
0.0
 10
2207.2149
 20
-446.1268
 30
0.0
 10
2207.2149
 20
-445.2431
 30
0.0
 10
2207.2149
 20
-445.2431
 30
0.0
 10
2207.2149
 20
-444.3594
 30
0.0
 10
2206.4986
 20
-443.6431
 30
0.0
 10
2205.6149
 20
-443.6431
 30
0.0
 10
2205.6149
 20
-443.6431
 30
0.0
 10
2204.7312
 20
-443.6431
 30
0.0
 10
2204.0149
 20
-444.3594
 30
0.0
 10
2204.0149
 20
-445.2431
 30
0.0
 10
2204.0149
 20
-445.2431
 30
0.0
 10
2204.0149
 20
-446.1268
 30
0.0
 10
2204.7312
 20
-446.8431
 30
0.0
 10
2205.6149
 20
-446.8431
 30
0.0
  0
SPLINE
  5
100
330
1F
100
AcDbEntity
  8
Layer 1
 62
   250
370
    20
100
AcDbSpline
210
0.0
220
0.0
230
1.0
 70
    11
 71
     3
 72
    20
 73
    16
 74
     0
 42
0.000000001
 43
0.0000000001
 40
0.0
 40
0.0
 40
0.0
 40
0.0
 40
0.2
 40
0.2
 40
0.2
 40
0.2
 40
0.4
 40
0.4
 40
0.4
 40
0.4
 40
0.6
 40
0.6
 40
0.6
 40
0.6
 40
1.0
 40
1.0
 40
1.0
 40
1.0
 10
2386.8149
 20
-458.0431
 30
0.0
 10
2385.9312
 20
-458.0431
 30
0.0
 10
2385.2149
 20
-457.3268
 30
0.0
 10
2385.2149
 20
-456.4431
 30
0.0
 10
2385.2149
 20
-456.4431
 30
0.0
 10
2385.2149
 20
-455.5594
 30
0.0
 10
2385.9312
 20
-454.8431
 30
0.0
 10
2386.8149
 20
-454.8431
 30
0.0
 10
2386.8149
 20
-454.8431
 30
0.0
 10
2387.6986
 20
-454.8431
 30
0.0
 10
2388.4149
 20
-455.5594
 30
0.0
 10
2388.4149
 20
-456.4431
 30
0.0
 10
2388.4149
 20
-456.4431
 30
0.0
 10
2388.4149
 20
-457.3268
 30
0.0
 10
2387.6986
 20
-458.0431
 30
0.0
 10
2386.8149
 20
-458.0431
 30
0.0
  0
SPLINE
  5
101
330
1F
100
AcDbEntity
  8
Layer 1
 62
   250
370
    20
100
AcDbSpline
210
0.0
220
0.0
230
1.0
 70
    11
 71
     3
 72
    20
 73
    16
 74
     0
 42
0.000000001
 43
0.0000000001
 40
0.0
 40
0.0
 40
0.0
 40
0.0
 40
0.2
 40
0.2
 40
0.2
 40
0.2
 40
0.4
 40
0.4
 40
0.4
 40
0.4
 40
0.6
 40
0.6
 40
0.6
 40
0.6
 40
1.0
 40
1.0
 40
1.0
 40
1.0
 10
2395.2149
 20
-456.4431
 30
0.0
 10
2395.2149
 20
-455.5594
 30
0.0
 10
2395.9312
 20
-454.8431
 30
0.0
 10
2396.8149
 20
-454.8431
 30
0.0
 10
2396.8149
 20
-454.8431
 30
0.0
 10
2397.6986
 20
-454.8431
 30
0.0
 10
2398.4149
 20
-455.5594
 30
0.0
 10
2398.4149
 20
-456.4431
 30
0.0
 10
2398.4149
 20
-456.4431
 30
0.0
 10
2398.4149
 20
-457.3268
 30
0.0
 10
2397.6986
 20
-458.0431
 30
0.0
 10
2396.8149
 20
-458.0431
 30
0.0
 10
2396.8149
 20
-458.0431
 30
0.0
 10
2395.9312
 20
-458.0431
 30
0.0
 10
2395.2149
 20
-457.3268
 30
0.0
 10
2395.2149
 20
-456.4431
 30
0.0
  0
SPLINE
  5
102
330
1F
100
AcDbEntity
  8
Layer 1
 62
   250
370
    20
100
AcDbSpline
210
0.0
220
0.0
230
1.0
 70
    11
 71
     3
 72
    36
 73
    32
 74
     0
 42
0.000000001
 43
0.0000000001
 40
0.0
 40
0.0
 40
0.0
 40
0.0
 40
0.1111111111111111
 40
0.1111111111111111
 40
0.1111111111111111
 40
0.1111111111111111
 40
0.2222222222222222
 40
0.2222222222222222
 40
0.2222222222222222
 40
0.2222222222222222
 40
0.3333333333333333
 40
0.3333333333333333
 40
0.3333333333333333
 40
0.3333333333333333
 40
0.4444444444444444
 40
0.4444444444444444
 40
0.4444444444444444
 40
0.4444444444444444
 40
0.5555555555555556
 40
0.5555555555555556
 40
0.5555555555555556
 40
0.5555555555555556
 40
0.6666666666666666
 40
0.6666666666666666
 40
0.6666666666666666
 40
0.6666666666666666
 40
0.7777777777777778
 40
0.7777777777777778
 40
0.7777777777777778
 40
0.7777777777777778
 40
1.0
 40
1.0
 40
1.0
 40
1.0
 10
2421.6646
 20
-453.6431
 30
0.0
 10
2420.6643
 20
-451.9105
 30
0.0
 10
2418.8156
 20
-450.8431
 30
0.0
 10
2416.8149
 20
-450.8431
 30
0.0
 10
2416.8149
 20
-450.8431
 30
0.0
 10
2416.8149
 20
-450.8431
 30
0.0
 10
2366.8149
 20
-450.8431
 30
0.0
 10
2366.8149
 20
-450.8431
 30
0.0
 10
2366.8149
 20
-450.8431
 30
0.0
 10
2364.8142
 20
-450.8431
 30
0.0
 10
2362.9655
 20
-451.9105
 30
0.0
 10
2361.9652
 20
-453.6431
 30
0.0
 10
2361.9652
 20
-453.6431
 30
0.0
 10
2360.9648
 20
-455.3757
 30
0.0
 10
2360.9648
 20
-457.5105
 30
0.0
 10
2361.9652
 20
-459.2431
 30
0.0
 10
2361.9652
 20
-459.2431
 30
0.0
 10
2362.9655
 20
-460.9757
 30
0.0
 10
2364.8142
 20
-462.0431
 30
0.0
 10
2366.8149
 20
-462.0431
 30
0.0
 10
2366.8149
 20
-462.0431
 30
0.0
 10
2366.8149
 20
-462.0431
 30
0.0
 10
2416.8149
 20
-462.0431
 30
0.0
 10
2416.8149
 20
-462.0431
 30
0.0
 10
2416.8149
 20
-462.0431
 30
0.0
 10
2418.8156
 20
-462.0431
 30
0.0
 10
2420.6643
 20
-460.9757
 30
0.0
 10
2421.6646
 20
-459.2431
 30
0.0
 10
2421.6646
 20
-459.2431
 30
0.0
 10
2422.665
 20
-457.5105
 30
0.0
 10
2422.665
 20
-455.3757
 30
0.0
 10
2421.6646
 20
-453.6431
 30
0.0
  0
SPLINE
  5
103
330
1F
100
AcDbEntity
  8
Layer 1
 62
   250
370
    20
100
AcDbSpline
210
0.0
220
0.0
230
1.0
 70
    11
 71
     3
 72
    20
 73
    16
 74
     0
 42
0.000000001
 43
0.0000000001
 40
0.0
 40
0.0
 40
0.0
 40
0.0
 40
0.2
 40
0.2
 40
0.2
 40
0.2
 40
0.4
 40
0.4
 40
0.4
 40
0.4
 40
0.6
 40
0.6
 40
0.6
 40
0.6
 40
1.0
 40
1.0
 40
1.0
 40
1.0
 10
2405.2149
 20
-456.4431
 30
0.0
 10
2405.2149
 20
-455.5594
 30
0.0
 10
2405.9312
 20
-454.8431
 30
0.0
 10
2406.8149
 20
-454.8431
 30
0.0
 10
2406.8149
 20
-454.8431
 30
0.0
 10
2407.6986
 20
-454.8431
 30
0.0
 10
2408.4149
 20
-455.5594
 30
0.0
 10
2408.4149
 20
-456.4431
 30
0.0
 10
2408.4149
 20
-456.4431
 30
0.0
 10
2408.4149
 20
-457.3268
 30
0.0
 10
2407.6986
 20
-458.0431
 30
0.0
 10
2406.8149
 20
-458.0431
 30
0.0
 10
2406.8149
 20
-458.0431
 30
0.0
 10
2405.9312
 20
-458.0431
 30
0.0
 10
2405.2149
 20
-457.3268
 30
0.0
 10
2405.2149
 20
-456.4431
 30
0.0
  0
SPLINE
  5
104
330
1F
100
AcDbEntity
  8
Layer 1
 62
   250
370
    20
100
AcDbSpline
210
0.0
220
0.0
230
1.0
 70
    11
 71
     3
 72
    20
 73
    16
 74
     0
 42
0.000000001
 43
0.0000000001
 40
0.0
 40
0.0
 40
0.0
 40
0.0
 40
0.2
 40
0.2
 40
0.2
 40
0.2
 40
0.4
 40
0.4
 40
0.4
 40
0.4
 40
0.6
 40
0.6
 40
0.6
 40
0.6
 40
1.0
 40
1.0
 40
1.0
 40
1.0
 10
2415.2149
 20
-456.4431
 30
0.0
 10
2415.2149
 20
-455.5594
 30
0.0
 10
2415.9312
 20
-454.8431
 30
0.0
 10
2416.8149
 20
-454.8431
 30
0.0
 10
2416.8149
 20
-454.8431
 30
0.0
 10
2417.6986
 20
-454.8431
 30
0.0
 10
2418.4149
 20
-455.5594
 30
0.0
 10
2418.4149
 20
-456.4431
 30
0.0
 10
2418.4149
 20
-456.4431
 30
0.0
 10
2418.4149
 20
-457.3268
 30
0.0
 10
2417.6986
 20
-458.0431
 30
0.0
 10
2416.8149
 20
-458.0431
 30
0.0
 10
2416.8149
 20
-458.0431
 30
0.0
 10
2415.9312
 20
-458.0431
 30
0.0
 10
2415.2149
 20
-457.3268
 30
0.0
 10
2415.2149
 20
-456.4431
 30
0.0
  0
SPLINE
  5
105
330
1F
100
AcDbEntity
  8
Layer 1
 62
   250
370
    20
100
AcDbSpline
210
0.0
220
0.0
230
1.0
 70
    11
 71
     3
 72
    20
 73
    16
 74
     0
 42
0.000000001
 43
0.0000000001
 40
0.0
 40
0.0
 40
0.0
 40
0.0
 40
0.2
 40
0.2
 40
0.2
 40
0.2
 40
0.4
 40
0.4
 40
0.4
 40
0.4
 40
0.6
 40
0.6
 40
0.6
 40
0.6
 40
1.0
 40
1.0
 40
1.0
 40
1.0
 10
2378.4149
 20
-456.4431
 30
0.0
 10
2378.4149
 20
-457.3268
 30
0.0
 10
2377.6986
 20
-458.0431
 30
0.0
 10
2376.8149
 20
-458.0431
 30
0.0
 10
2376.8149
 20
-458.0431
 30
0.0
 10
2375.9312
 20
-458.0431
 30
0.0
 10
2375.2149
 20
-457.3268
 30
0.0
 10
2375.2149
 20
-456.4431
 30
0.0
 10
2375.2149
 20
-456.4431
 30
0.0
 10
2375.2149
 20
-455.5594
 30
0.0
 10
2375.9312
 20
-454.8431
 30
0.0
 10
2376.8149
 20
-454.8431
 30
0.0
 10
2376.8149
 20
-454.8431
 30
0.0
 10
2377.6986
 20
-454.8431
 30
0.0
 10
2378.4149
 20
-455.5594
 30
0.0
 10
2378.4149
 20
-456.4431
 30
0.0
  0
SPLINE
  5
106
330
1F
100
AcDbEntity
  8
Layer 1
 62
   250
370
    20
100
AcDbSpline
210
0.0
220
0.0
230
1.0
 70
    11
 71
     3
 72
    20
 73
    16
 74
     0
 42
0.000000001
 43
0.0000000001
 40
0.0
 40
0.0
 40
0.0
 40
0.0
 40
0.2
 40
0.2
 40
0.2
 40
0.2
 40
0.4
 40
0.4
 40
0.4
 40
0.4
 40
0.6
 40
0.6
 40
0.6
 40
0.6
 40
1.0
 40
1.0
 40
1.0
 40
1.0
 10
2366.8149
 20
-454.8431
 30
0.0
 10
2367.6986
 20
-454.8431
 30
0.0
 10
2368.4149
 20
-455.5594
 30
0.0
 10
2368.4149
 20
-456.4431
 30
0.0
 10
2368.4149
 20
-456.4431
 30
0.0
 10
2368.4149
 20
-457.3268
 30
0.0
 10
2367.6986
 20
-458.0431
 30
0.0
 10
2366.8149
 20
-458.0431
 30
0.0
 10
2366.8149
 20
-458.0431
 30
0.0
 10
2365.9312
 20
-458.0431
 30
0.0
 10
2365.2149
 20
-457.3268
 30
0.0
 10
2365.2149
 20
-456.4431
 30
0.0
 10
2365.2149
 20
-456.4431
 30
0.0
 10
2365.2149
 20
-455.5594
 30
0.0
 10
2365.9312
 20
-454.8431
 30
0.0
 10
2366.8149
 20
-454.8431
 30
0.0
  0
SPLINE
  5
107
330
1F
100
AcDbEntity
  8
Layer 1
 62
   250
370
    20
100
AcDbSpline
210
0.0
220
0.0
230
1.0
 70
    11
 71
     3
 72
    20
 73
    16
 74
     0
 42
0.000000001
 43
0.0000000001
 40
0.0
 40
0.0
 40
0.0
 40
0.0
 40
0.2
 40
0.2
 40
0.2
 40
0.2
 40
0.4
 40
0.4
 40
0.4
 40
0.4
 40
0.6
 40
0.6
 40
0.6
 40
0.6
 40
1.0
 40
1.0
 40
1.0
 40
1.0
 10
2386.8149
 20
-443.6431
 30
0.0
 10
2385.9312
 20
-443.6431
 30
0.0
 10
2385.2149
 20
-444.3594
 30
0.0
 10
2385.2149
 20
-445.2431
 30
0.0
 10
2385.2149
 20
-445.2431
 30
0.0
 10
2385.2149
 20
-446.1268
 30
0.0
 10
2385.9312
 20
-446.8431
 30
0.0
 10
2386.8149
 20
-446.8431
 30
0.0
 10
2386.8149
 20
-446.8431
 30
0.0
 10
2387.6986
 20
-446.8431
 30
0.0
 10
2388.4149
 20
-446.1268
 30
0.0
 10
2388.4149
 20
-445.2431
 30
0.0
 10
2388.4149
 20
-445.2431
 30
0.0
 10
2388.4149
 20
-444.3594
 30
0.0
 10
2387.6986
 20
-443.6431
 30
0.0
 10
2386.8149
 20
-443.6431
 30
0.0
  0
SPLINE
  5
108
330
1F
100
AcDbEntity
  8
Layer 1
 62
   250
370
    20
100
AcDbSpline
210
0.0
220
0.0
230
1.0
 70
    11
 71
     3
 72
    20
 73
    16
 74
     0
 42
0.000000001
 43
0.0000000001
 40
0.0
 40
0.0
 40
0.0
 40
0.0
 40
0.2
 40
0.2
 40
0.2
 40
0.2
 40
0.4
 40
0.4
 40
0.4
 40
0.4
 40
0.6
 40
0.6
 40
0.6
 40
0.6
 40
1.0
 40
1.0
 40
1.0
 40
1.0
 10
2395.2149
 20
-445.2431
 30
0.0
 10
2395.2149
 20
-446.1268
 30
0.0
 10
2395.9312
 20
-446.8431
 30
0.0
 10
2396.8149
 20
-446.8431
 30
0.0
 10
2396.8149
 20
-446.8431
 30
0.0
 10
2397.6986
 20
-446.8431
 30
0.0
 10
2398.4149
 20
-446.1268
 30
0.0
 10
2398.4149
 20
-445.2431
 30
0.0
 10
2398.4149
 20
-445.2431
 30
0.0
 10
2398.4149
 20
-444.3594
 30
0.0
 10
2397.6986
 20
-443.6431
 30
0.0
 10
2396.8149
 20
-443.6431
 30
0.0
 10
2396.8149
 20
-443.6431
 30
0.0
 10
2395.9312
 20
-443.6431
 30
0.0
 10
2395.2149
 20
-444.3594
 30
0.0
 10
2395.2149
 20
-445.2431
 30
0.0
  0
SPLINE
  5
109
330
1F
100
AcDbEntity
  8
Layer 1
 62
   250
370
    20
100
AcDbSpline
210
0.0
220
0.0
230
1.0
 70
    11
 71
     3
 72
    36
 73
    32
 74
     0
 42
0.000000001
 43
0.0000000001
 40
0.0
 40
0.0
 40
0.0
 40
0.0
 40
0.1111111111111111
 40
0.1111111111111111
 40
0.1111111111111111
 40
0.1111111111111111
 40
0.2222222222222222
 40
0.2222222222222222
 40
0.2222222222222222
 40
0.2222222222222222
 40
0.3333333333333333
 40
0.3333333333333333
 40
0.3333333333333333
 40
0.3333333333333333
 40
0.4444444444444444
 40
0.4444444444444444
 40
0.4444444444444444
 40
0.4444444444444444
 40
0.5555555555555556
 40
0.5555555555555556
 40
0.5555555555555556
 40
0.5555555555555556
 40
0.6666666666666666
 40
0.6666666666666666
 40
0.6666666666666666
 40
0.6666666666666666
 40
0.7777777777777778
 40
0.7777777777777778
 40
0.7777777777777778
 40
0.7777777777777778
 40
1.0
 40
1.0
 40
1.0
 40
1.0
 10
2421.6646
 20
-448.0431
 30
0.0
 10
2420.6643
 20
-449.7757
 30
0.0
 10
2418.8156
 20
-450.8431
 30
0.0
 10
2416.8149
 20
-450.8431
 30
0.0
 10
2416.8149
 20
-450.8431
 30
0.0
 10
2416.8149
 20
-450.8431
 30
0.0
 10
2366.8149
 20
-450.8431
 30
0.0
 10
2366.8149
 20
-450.8431
 30
0.0
 10
2366.8149
 20
-450.8431
 30
0.0
 10
2364.8142
 20
-450.8431
 30
0.0
 10
2362.9655
 20
-449.7757
 30
0.0
 10
2361.9652
 20
-448.0431
 30
0.0
 10
2361.9652
 20
-448.0431
 30
0.0
 10
2360.9648
 20
-446.3105
 30
0.0
 10
2360.9648
 20
-444.1757
 30
0.0
 10
2361.9652
 20
-442.4431
 30
0.0
 10
2361.9652
 20
-442.4431
 30
0.0
 10
2362.9655
 20
-440.7105
 30
0.0
 10
2364.8142
 20
-439.6431
 30
0.0
 10
2366.8149
 20
-439.6431
 30
0.0
 10
2366.8149
 20
-439.6431
 30
0.0
 10
2366.8149
 20
-439.6431
 30
0.0
 10
2416.8149
 20
-439.6431
 30
0.0
 10
2416.8149
 20
-439.6431
 30
0.0
 10
2416.8149
 20
-439.6431
 30
0.0
 10
2418.8156
 20
-439.6431
 30
0.0
 10
2420.6643
 20
-440.7105
 30
0.0
 10
2421.6646
 20
-442.4431
 30
0.0
 10
2421.6646
 20
-442.4431
 30
0.0
 10
2422.665
 20
-444.1757
 30
0.0
 10
2422.665
 20
-446.3105
 30
0.0
 10
2421.6646
 20
-448.0431
 30
0.0
  0
SPLINE
  5
10A
330
1F
100
AcDbEntity
  8
Layer 1
 62
   250
370
    20
100
AcDbSpline
210
0.0
220
0.0
230
1.0
 70
    11
 71
     3
 72
    20
 73
    16
 74
     0
 42
0.000000001
 43
0.0000000001
 40
0.0
 40
0.0
 40
0.0
 40
0.0
 40
0.2
 40
0.2
 40
0.2
 40
0.2
 40
0.4
 40
0.4
 40
0.4
 40
0.4
 40
0.6
 40
0.6
 40
0.6
 40
0.6
 40
1.0
 40
1.0
 40
1.0
 40
1.0
 10
2405.2149
 20
-445.2431
 30
0.0
 10
2405.2149
 20
-446.1268
 30
0.0
 10
2405.9312
 20
-446.8431
 30
0.0
 10
2406.8149
 20
-446.8431
 30
0.0
 10
2406.8149
 20
-446.8431
 30
0.0
 10
2407.6986
 20
-446.8431
 30
0.0
 10
2408.4149
 20
-446.1268
 30
0.0
 10
2408.4149
 20
-445.2431
 30
0.0
 10
2408.4149
 20
-445.2431
 30
0.0
 10
2408.4149
 20
-444.3594
 30
0.0
 10
2407.6986
 20
-443.6431
 30
0.0
 10
2406.8149
 20
-443.6431
 30
0.0
 10
2406.8149
 20
-443.6431
 30
0.0
 10
2405.9312
 20
-443.6431
 30
0.0
 10
2405.2149
 20
-444.3594
 30
0.0
 10
2405.2149
 20
-445.2431
 30
0.0
  0
SPLINE
  5
10B
330
1F
100
AcDbEntity
  8
Layer 1
 62
   250
370
    20
100
AcDbSpline
210
0.0
220
0.0
230
1.0
 70
    11
 71
     3
 72
    20
 73
    16
 74
     0
 42
0.000000001
 43
0.0000000001
 40
0.0
 40
0.0
 40
0.0
 40
0.0
 40
0.2
 40
0.2
 40
0.2
 40
0.2
 40
0.4
 40
0.4
 40
0.4
 40
0.4
 40
0.6
 40
0.6
 40
0.6
 40
0.6
 40
1.0
 40
1.0
 40
1.0
 40
1.0
 10
2415.2149
 20
-445.2431
 30
0.0
 10
2415.2149
 20
-446.1268
 30
0.0
 10
2415.9312
 20
-446.8431
 30
0.0
 10
2416.8149
 20
-446.8431
 30
0.0
 10
2416.8149
 20
-446.8431
 30
0.0
 10
2417.6986
 20
-446.8431
 30
0.0
 10
2418.4149
 20
-446.1268
 30
0.0
 10
2418.4149
 20
-445.2431
 30
0.0
 10
2418.4149
 20
-445.2431
 30
0.0
 10
2418.4149
 20
-444.3594
 30
0.0
 10
2417.6986
 20
-443.6431
 30
0.0
 10
2416.8149
 20
-443.6431
 30
0.0
 10
2416.8149
 20
-443.6431
 30
0.0
 10
2415.9312
 20
-443.6431
 30
0.0
 10
2415.2149
 20
-444.3594
 30
0.0
 10
2415.2149
 20
-445.2431
 30
0.0
  0
SPLINE
  5
10C
330
1F
100
AcDbEntity
  8
Layer 1
 62
   250
370
    20
100
AcDbSpline
210
0.0
220
0.0
230
1.0
 70
    11
 71
     3
 72
    20
 73
    16
 74
     0
 42
0.000000001
 43
0.0000000001
 40
0.0
 40
0.0
 40
0.0
 40
0.0
 40
0.2
 40
0.2
 40
0.2
 40
0.2
 40
0.4
 40
0.4
 40
0.4
 40
0.4
 40
0.6
 40
0.6
 40
0.6
 40
0.6
 40
1.0
 40
1.0
 40
1.0
 40
1.0
 10
2378.4149
 20
-445.2431
 30
0.0
 10
2378.4149
 20
-444.3594
 30
0.0
 10
2377.6986
 20
-443.6431
 30
0.0
 10
2376.8149
 20
-443.6431
 30
0.0
 10
2376.8149
 20
-443.6431
 30
0.0
 10
2375.9312
 20
-443.6431
 30
0.0
 10
2375.2149
 20
-444.3594
 30
0.0
 10
2375.2149
 20
-445.2431
 30
0.0
 10
2375.2149
 20
-445.2431
 30
0.0
 10
2375.2149
 20
-446.1268
 30
0.0
 10
2375.9312
 20
-446.8431
 30
0.0
 10
2376.8149
 20
-446.8431
 30
0.0
 10
2376.8149
 20
-446.8431
 30
0.0
 10
2377.6986
 20
-446.8431
 30
0.0
 10
2378.4149
 20
-446.1268
 30
0.0
 10
2378.4149
 20
-445.2431
 30
0.0
  0
SPLINE
  5
10D
330
1F
100
AcDbEntity
  8
Layer 1
 62
   250
370
    20
100
AcDbSpline
210
0.0
220
0.0
230
1.0
 70
    11
 71
     3
 72
    20
 73
    16
 74
     0
 42
0.000000001
 43
0.0000000001
 40
0.0
 40
0.0
 40
0.0
 40
0.0
 40
0.2
 40
0.2
 40
0.2
 40
0.2
 40
0.4
 40
0.4
 40
0.4
 40
0.4
 40
0.6
 40
0.6
 40
0.6
 40
0.6
 40
1.0
 40
1.0
 40
1.0
 40
1.0
 10
2366.8149
 20
-446.8431
 30
0.0
 10
2367.6986
 20
-446.8431
 30
0.0
 10
2368.4149
 20
-446.1268
 30
0.0
 10
2368.4149
 20
-445.2431
 30
0.0
 10
2368.4149
 20
-445.2431
 30
0.0
 10
2368.4149
 20
-444.3594
 30
0.0
 10
2367.6986
 20
-443.6431
 30
0.0
 10
2366.8149
 20
-443.6431
 30
0.0
 10
2366.8149
 20
-443.6431
 30
0.0
 10
2365.9312
 20
-443.6431
 30
0.0
 10
2365.2149
 20
-444.3594
 30
0.0
 10
2365.2149
 20
-445.2431
 30
0.0
 10
2365.2149
 20
-445.2431
 30
0.0
 10
2365.2149
 20
-446.1268
 30
0.0
 10
2365.9312
 20
-446.8431
 30
0.0
 10
2366.8149
 20
-446.8431
 30
0.0
  0
SPLINE
  5
10E
330
1F
100
AcDbEntity
  8
Layer 1
 62
   250
370
    20
100
AcDbSpline
210
0.0
220
0.0
230
1.0
 70
    11
 71
     3
 72
    20
 73
    16
 74
     0
 42
0.000000001
 43
0.0000000001
 40
0.0
 40
0.0
 40
0.0
 40
0.0
 40
0.2
 40
0.2
 40
0.2
 40
0.2
 40
0.4
 40
0.4
 40
0.4
 40
0.4
 40
0.6
 40
0.6
 40
0.6
 40
0.6
 40
1.0
 40
1.0
 40
1.0
 40
1.0
 10
2350.0149
 20
-428.0931
 30
0.0
 10
2350.8709
 20
-428.0931
 30
0.0
 10
2351.5649
 20
-428.7871
 30
0.0
 10
2351.5649
 20
-429.6431
 30
0.0
 10
2351.5649
 20
-429.6431
 30
0.0
 10
2351.5649
 20
-430.4991
 30
0.0
 10
2350.8709
 20
-431.1931
 30
0.0
 10
2350.0149
 20
-431.1931
 30
0.0
 10
2350.0149
 20
-431.1931
 30
0.0
 10
2349.1589
 20
-431.1931
 30
0.0
 10
2348.4649
 20
-430.4991
 30
0.0
 10
2348.4649
 20
-429.6431
 30
0.0
 10
2348.4649
 20
-429.6431
 30
0.0
 10
2348.4649
 20
-428.7871
 30
0.0
 10
2349.1589
 20
-428.0931
 30
0.0
 10
2350.0149
 20
-428.0931
 30
0.0
  0
SPLINE
  5
10F
330
1F
100
AcDbEntity
  8
Layer 1
 62
   250
370
    20
100
AcDbSpline
210
0.0
220
0.0
230
1.0
 70
    11
 71
     3
 72
    20
 73
    16
 74
     0
 42
0.000000001
 43
0.0000000001
 40
0.0
 40
0.0
 40
0.0
 40
0.0
 40
0.2
 40
0.2
 40
0.2
 40
0.2
 40
0.4
 40
0.4
 40
0.4
 40
0.4
 40
0.6
 40
0.6
 40
0.6
 40
0.6
 40
1.0
 40
1.0
 40
1.0
 40
1.0
 10
2365.0149
 20
-428.0931
 30
0.0
 10
2365.8709
 20
-428.0931
 30
0.0
 10
2366.5649
 20
-428.7871
 30
0.0
 10
2366.5649
 20
-429.6431
 30
0.0
 10
2366.5649
 20
-429.6431
 30
0.0
 10
2366.5649
 20
-430.4991
 30
0.0
 10
2365.8709
 20
-431.1931
 30
0.0
 10
2365.0149
 20
-431.1931
 30
0.0
 10
2365.0149
 20
-431.1931
 30
0.0
 10
2364.1589
 20
-431.1931
 30
0.0
 10
2363.4649
 20
-430.4991
 30
0.0
 10
2363.4649
 20
-429.6431
 30
0.0
 10
2363.4649
 20
-429.6431
 30
0.0
 10
2363.4649
 20
-428.7871
 30
0.0
 10
2364.1589
 20
-428.0931
 30
0.0
 10
2365.0149
 20
-428.0931
 30
0.0
  0
SPLINE
  5
110
330
1F
100
AcDbEntity
  8
Layer 1
 62
   250
370
    20
100
AcDbSpline
210
0.0
220
0.0
230
1.0
 70
    11
 71
     3
 72
    20
 73
    16
 74
     0
 42
0.000000001
 43
0.0000000001
 40
0.0
 40
0.0
 40
0.0
 40
0.0
 40
0.2
 40
0.2
 40
0.2
 40
0.2
 40
0.4
 40
0.4
 40
0.4
 40
0.4
 40
0.6
 40
0.6
 40
0.6
 40
0.6
 40
1.0
 40
1.0
 40
1.0
 40
1.0
 10
2350.0149
 20
-343.0931
 30
0.0
 10
2350.8709
 20
-343.0931
 30
0.0
 10
2351.5649
 20
-343.7871
 30
0.0
 10
2351.5649
 20
-344.6431
 30
0.0
 10
2351.5649
 20
-344.6431
 30
0.0
 10
2351.5649
 20
-345.4991
 30
0.0
 10
2350.8709
 20
-346.1931
 30
0.0
 10
2350.0149
 20
-346.1931
 30
0.0
 10
2350.0149
 20
-346.1931
 30
0.0
 10
2349.1589
 20
-346.1931
 30
0.0
 10
2348.4649
 20
-345.4991
 30
0.0
 10
2348.4649
 20
-344.6431
 30
0.0
 10
2348.4649
 20
-344.6431
 30
0.0
 10
2348.4649
 20
-343.7871
 30
0.0
 10
2349.1589
 20
-343.0931
 30
0.0
 10
2350.0149
 20
-343.0931
 30
0.0
  0
SPLINE
  5
111
330
1F
100
AcDbEntity
  8
Layer 1
 62
   250
370
    20
100
AcDbSpline
210
0.0
220
0.0
230
1.0
 70
    11
 71
     3
 72
    20
 73
    16
 74
     0
 42
0.000000001
 43
0.0000000001
 40
0.0
 40
0.0
 40
0.0
 40
0.0
 40
0.2
 40
0.2
 40
0.2
 40
0.2
 40
0.4
 40
0.4
 40
0.4
 40
0.4
 40
0.6
 40
0.6
 40
0.6
 40
0.6
 40
1.0
 40
1.0
 40
1.0
 40
1.0
 10
2365.0149
 20
-343.0931
 30
0.0
 10
2365.8709
 20
-343.0931
 30
0.0
 10
2366.5649
 20
-343.7871
 30
0.0
 10
2366.5649
 20
-344.6431
 30
0.0
 10
2366.5649
 20
-344.6431
 30
0.0
 10
2366.5649
 20
-345.4991
 30
0.0
 10
2365.8709
 20
-346.1931
 30
0.0
 10
2365.0149
 20
-346.1931
 30
0.0
 10
2365.0149
 20
-346.1931
 30
0.0
 10
2364.1589
 20
-346.1931
 30
0.0
 10
2363.4649
 20
-345.4991
 30
0.0
 10
2363.4649
 20
-344.6431
 30
0.0
 10
2363.4649
 20
-344.6431
 30
0.0
 10
2363.4649
 20
-343.7871
 30
0.0
 10
2364.1589
 20
-343.0931
 30
0.0
 10
2365.0149
 20
-343.0931
 30
0.0
  0
SPLINE
  5
112
330
1F
100
AcDbEntity
  8
Layer 1
 62
   250
370
    20
100
AcDbSpline
210
0.0
220
0.0
230
1.0
 70
    11
 71
     3
 72
    20
 73
    16
 74
     0
 42
0.000000001
 43
0.0000000001
 40
0.0
 40
0.0
 40
0.0
 40
0.0
 40
0.2
 40
0.2
 40
0.2
 40
0.2
 40
0.4
 40
0.4
 40
0.4
 40
0.4
 40
0.6
 40
0.6
 40
0.6
 40
0.6
 40
1.0
 40
1.0
 40
1.0
 40
1.0
 10
2380.0149
 20
-343.0931
 30
0.0
 10
2380.8709
 20
-343.0931
 30
0.0
 10
2381.5649
 20
-343.7871
 30
0.0
 10
2381.5649
 20
-344.6431
 30
0.0
 10
2381.5649
 20
-344.6431
 30
0.0
 10
2381.5649
 20
-345.4991
 30
0.0
 10
2380.8709
 20
-346.1931
 30
0.0
 10
2380.0149
 20
-346.1931
 30
0.0
 10
2380.0149
 20
-346.1931
 30
0.0
 10
2379.1589
 20
-346.1931
 30
0.0
 10
2378.4649
 20
-345.4991
 30
0.0
 10
2378.4649
 20
-344.6431
 30
0.0
 10
2378.4649
 20
-344.6431
 30
0.0
 10
2378.4649
 20
-343.7871
 30
0.0
 10
2379.1589
 20
-343.0931
 30
0.0
 10
2380.0149
 20
-343.0931
 30
0.0
  0
SPLINE
  5
113
330
1F
100
AcDbEntity
  8
Layer 1
 62
   250
370
    20
100
AcDbSpline
210
0.0
220
0.0
230
1.0
 70
    11
 71
     3
 72
    20
 73
    16
 74
     0
 42
0.000000001
 43
0.0000000001
 40
0.0
 40
0.0
 40
0.0
 40
0.0
 40
0.2
 40
0.2
 40
0.2
 40
0.2
 40
0.4
 40
0.4
 40
0.4
 40
0.4
 40
0.6
 40
0.6
 40
0.6
 40
0.6
 40
1.0
 40
1.0
 40
1.0
 40
1.0
 10
2395.0149
 20
-428.0931
 30
0.0
 10
2395.8709
 20
-428.0931
 30
0.0
 10
2396.5649
 20
-428.7871
 30
0.0
 10
2396.5649
 20
-429.6431
 30
0.0
 10
2396.5649
 20
-429.6431
 30
0.0
 10
2396.5649
 20
-430.4991
 30
0.0
 10
2395.8709
 20
-431.1931
 30
0.0
 10
2395.0149
 20
-431.1931
 30
0.0
 10
2395.0149
 20
-431.1931
 30
0.0
 10
2394.1589
 20
-431.1931
 30
0.0
 10
2393.4649
 20
-430.4991
 30
0.0
 10
2393.4649
 20
-429.6431
 30
0.0
 10
2393.4649
 20
-429.6431
 30
0.0
 10
2393.4649
 20
-428.7871
 30
0.0
 10
2394.1589
 20
-428.0931
 30
0.0
 10
2395.0149
 20
-428.0931
 30
0.0
  0
SPLINE
  5
114
330
1F
100
AcDbEntity
  8
Layer 1
 62
   250
370
    20
100
AcDbSpline
210
0.0
220
0.0
230
1.0
 70
    11
 71
     3
 72
    20
 73
    16
 74
     0
 42
0.000000001
 43
0.0000000001
 40
0.0
 40
0.0
 40
0.0
 40
0.0
 40
0.2
 40
0.2
 40
0.2
 40
0.2
 40
0.4
 40
0.4
 40
0.4
 40
0.4
 40
0.6
 40
0.6
 40
0.6
 40
0.6
 40
1.0
 40
1.0
 40
1.0
 40
1.0
 10
2410.0149
 20
-428.0931
 30
0.0
 10
2410.8709
 20
-428.0931
 30
0.0
 10
2411.5649
 20
-428.7871
 30
0.0
 10
2411.5649
 20
-429.6431
 30
0.0
 10
2411.5649
 20
-429.6431
 30
0.0
 10
2411.5649
 20
-430.4991
 30
0.0
 10
2410.8709
 20
-431.1931
 30
0.0
 10
2410.0149
 20
-431.1931
 30
0.0
 10
2410.0149
 20
-431.1931
 30
0.0
 10
2409.1589
 20
-431.1931
 30
0.0
 10
2408.4649
 20
-430.4991
 30
0.0
 10
2408.4649
 20
-429.6431
 30
0.0
 10
2408.4649
 20
-429.6431
 30
0.0
 10
2408.4649
 20
-428.7871
 30
0.0
 10
2409.1589
 20
-428.0931
 30
0.0
 10
2410.0149
 20
-428.0931
 30
0.0
  0
SPLINE
  5
115
330
1F
100
AcDbEntity
  8
Layer 1
 62
   250
370
    20
100
AcDbSpline
210
0.0
220
0.0
230
1.0
 70
    11
 71
     3
 72
    20
 73
    16
 74
     0
 42
0.000000001
 43
0.0000000001
 40
0.0
 40
0.0
 40
0.0
 40
0.0
 40
0.2
 40
0.2
 40
0.2
 40
0.2
 40
0.4
 40
0.4
 40
0.4
 40
0.4
 40
0.6
 40
0.6
 40
0.6
 40
0.6
 40
1.0
 40
1.0
 40
1.0
 40
1.0
 10
2380.0149
 20
-428.0931
 30
0.0
 10
2380.8709
 20
-428.0931
 30
0.0
 10
2381.5649
 20
-428.7871
 30
0.0
 10
2381.5649
 20
-429.6431
 30
0.0
 10
2381.5649
 20
-429.6431
 30
0.0
 10
2381.5649
 20
-430.4991
 30
0.0
 10
2380.8709
 20
-431.1931
 30
0.0
 10
2380.0149
 20
-431.1931
 30
0.0
 10
2380.0149
 20
-431.1931
 30
0.0
 10
2379.1589
 20
-431.1931
 30
0.0
 10
2378.4649
 20
-430.4991
 30
0.0
 10
2378.4649
 20
-429.6431
 30
0.0
 10
2378.4649
 20
-429.6431
 30
0.0
 10
2378.4649
 20
-428.7871
 30
0.0
 10
2379.1589
 20
-428.0931
 30
0.0
 10
2380.0149
 20
-428.0931
 30
0.0
  0
SPLINE
  5
116
330
1F
100
AcDbEntity
  8
Layer 1
 62
   250
370
    20
100
AcDbSpline
210
0.0
220
0.0
230
1.0
 70
    11
 71
     3
 72
    20
 73
    16
 74
     0
 42
0.000000001
 43
0.0000000001
 40
0.0
 40
0.0
 40
0.0
 40
0.0
 40
0.2
 40
0.2
 40
0.2
 40
0.2
 40
0.4
 40
0.4
 40
0.4
 40
0.4
 40
0.6
 40
0.6
 40
0.6
 40
0.6
 40
1.0
 40
1.0
 40
1.0
 40
1.0
 10
2440.0149
 20
-346.1931
 30
0.0
 10
2439.1589
 20
-346.1931
 30
0.0
 10
2438.4649
 20
-345.4991
 30
0.0
 10
2438.4649
 20
-344.6431
 30
0.0
 10
2438.4649
 20
-344.6431
 30
0.0
 10
2438.4649
 20
-343.7871
 30
0.0
 10
2439.1589
 20
-343.0931
 30
0.0
 10
2440.0149
 20
-343.0931
 30
0.0
 10
2440.0149
 20
-343.0931
 30
0.0
 10
2440.8709
 20
-343.0931
 30
0.0
 10
2441.5649
 20
-343.7871
 30
0.0
 10
2441.5649
 20
-344.6431
 30
0.0
 10
2441.5649
 20
-344.6431
 30
0.0
 10
2441.5649
 20
-345.4991
 30
0.0
 10
2440.8709
 20
-346.1931
 30
0.0
 10
2440.0149
 20
-346.1931
 30
0.0
  0
SPLINE
  5
117
330
1F
100
AcDbEntity
  8
Layer 1
 62
   250
370
    20
100
AcDbSpline
210
0.0
220
0.0
230
1.0
 70
    11
 71
     3
 72
    20
 73
    16
 74
     0
 42
0.000000001
 43
0.0000000001
 40
0.0
 40
0.0
 40
0.0
 40
0.0
 40
0.2
 40
0.2
 40
0.2
 40
0.2
 40
0.4
 40
0.4
 40
0.4
 40
0.4
 40
0.6
 40
0.6
 40
0.6
 40
0.6
 40
1.0
 40
1.0
 40
1.0
 40
1.0
 10
2455.0149
 20
-346.1931
 30
0.0
 10
2454.1589
 20
-346.1931
 30
0.0
 10
2453.4649
 20
-345.4991
 30
0.0
 10
2453.4649
 20
-344.6431
 30
0.0
 10
2453.4649
 20
-344.6431
 30
0.0
 10
2453.4649
 20
-343.7871
 30
0.0
 10
2454.1589
 20
-343.0931
 30
0.0
 10
2455.0149
 20
-343.0931
 30
0.0
 10
2455.0149
 20
-343.0931
 30
0.0
 10
2455.8709
 20
-343.0931
 30
0.0
 10
2456.5649
 20
-343.7871
 30
0.0
 10
2456.5649
 20
-344.6431
 30
0.0
 10
2456.5649
 20
-344.6431
 30
0.0
 10
2456.5649
 20
-345.4991
 30
0.0
 10
2455.8709
 20
-346.1931
 30
0.0
 10
2455.0149
 20
-346.1931
 30
0.0
  0
SPLINE
  5
118
330
1F
100
AcDbEntity
  8
Layer 1
 62
   250
370
    20
100
AcDbSpline
210
0.0
220
0.0
230
1.0
 70
    11
 71
     3
 72
    20
 73
    16
 74
     0
 42
0.000000001
 43
0.0000000001
 40
0.0
 40
0.0
 40
0.0
 40
0.0
 40
0.2
 40
0.2
 40
0.2
 40
0.2
 40
0.4
 40
0.4
 40
0.4
 40
0.4
 40
0.6
 40
0.6
 40
0.6
 40
0.6
 40
1.0
 40
1.0
 40
1.0
 40
1.0
 10
2470.0149
 20
-346.1931
 30
0.0
 10
2469.1589
 20
-346.1931
 30
0.0
 10
2468.4649
 20
-345.4991
 30
0.0
 10
2468.4649
 20
-344.6431
 30
0.0
 10
2468.4649
 20
-344.6431
 30
0.0
 10
2468.4649
 20
-343.7871
 30
0.0
 10
2469.1589
 20
-343.0931
 30
0.0
 10
2470.0149
 20
-343.0931
 30
0.0
 10
2470.0149
 20
-343.0931
 30
0.0
 10
2470.8709
 20
-343.0931
 30
0.0
 10
2471.5649
 20
-343.7871
 30
0.0
 10
2471.5649
 20
-344.6431
 30
0.0
 10
2471.5649
 20
-344.6431
 30
0.0
 10
2471.5649
 20
-345.4991
 30
0.0
 10
2470.8709
 20
-346.1931
 30
0.0
 10
2470.0149
 20
-346.1931
 30
0.0
  0
SPLINE
  5
119
330
1F
100
AcDbEntity
  8
Layer 1
 62
   250
370
    20
100
AcDbSpline
210
0.0
220
0.0
230
1.0
 70
    11
 71
     3
 72
    20
 73
    16
 74
     0
 42
0.000000001
 43
0.0000000001
 40
0.0
 40
0.0
 40
0.0
 40
0.0
 40
0.2
 40
0.2
 40
0.2
 40
0.2
 40
0.4
 40
0.4
 40
0.4
 40
0.4
 40
0.6
 40
0.6
 40
0.6
 40
0.6
 40
1.0
 40
1.0
 40
1.0
 40
1.0
 10
2440.0149
 20
-428.0931
 30
0.0
 10
2440.8709
 20
-428.0931
 30
0.0
 10
2441.5649
 20
-428.7871
 30
0.0
 10
2441.5649
 20
-429.6431
 30
0.0
 10
2441.5649
 20
-429.6431
 30
0.0
 10
2441.5649
 20
-430.4991
 30
0.0
 10
2440.8709
 20
-431.1931
 30
0.0
 10
2440.0149
 20
-431.1931
 30
0.0
 10
2440.0149
 20
-431.1931
 30
0.0
 10
2439.1589
 20
-431.1931
 30
0.0
 10
2438.4649
 20
-430.4991
 30
0.0
 10
2438.4649
 20
-429.6431
 30
0.0
 10
2438.4649
 20
-429.6431
 30
0.0
 10
2438.4649
 20
-428.7871
 30
0.0
 10
2439.1589
 20
-428.0931
 30
0.0
 10
2440.0149
 20
-428.0931
 30
0.0
  0
SPLINE
  5
11A
330
1F
100
AcDbEntity
  8
Layer 1
 62
   250
370
    20
100
AcDbSpline
210
0.0
220
0.0
230
1.0
 70
    11
 71
     3
 72
    20
 73
    16
 74
     0
 42
0.000000001
 43
0.0000000001
 40
0.0
 40
0.0
 40
0.0
 40
0.0
 40
0.2
 40
0.2
 40
0.2
 40
0.2
 40
0.4
 40
0.4
 40
0.4
 40
0.4
 40
0.6
 40
0.6
 40
0.6
 40
0.6
 40
1.0
 40
1.0
 40
1.0
 40
1.0
 10
2455.0149
 20
-428.0931
 30
0.0
 10
2455.8709
 20
-428.0931
 30
0.0
 10
2456.5649
 20
-428.7871
 30
0.0
 10
2456.5649
 20
-429.6431
 30
0.0
 10
2456.5649
 20
-429.6431
 30
0.0
 10
2456.5649
 20
-430.4991
 30
0.0
 10
2455.8709
 20
-431.1931
 30
0.0
 10
2455.0149
 20
-431.1931
 30
0.0
 10
2455.0149
 20
-431.1931
 30
0.0
 10
2454.1589
 20
-431.1931
 30
0.0
 10
2453.4649
 20
-430.4991
 30
0.0
 10
2453.4649
 20
-429.6431
 30
0.0
 10
2453.4649
 20
-429.6431
 30
0.0
 10
2453.4649
 20
-428.7871
 30
0.0
 10
2454.1589
 20
-428.0931
 30
0.0
 10
2455.0149
 20
-428.0931
 30
0.0
  0
SPLINE
  5
11B
330
1F
100
AcDbEntity
  8
Layer 1
 62
   250
370
    20
100
AcDbSpline
210
0.0
220
0.0
230
1.0
 70
    11
 71
     3
 72
    20
 73
    16
 74
     0
 42
0.000000001
 43
0.0000000001
 40
0.0
 40
0.0
 40
0.0
 40
0.0
 40
0.2
 40
0.2
 40
0.2
 40
0.2
 40
0.4
 40
0.4
 40
0.4
 40
0.4
 40
0.6
 40
0.6
 40
0.6
 40
0.6
 40
1.0
 40
1.0
 40
1.0
 40
1.0
 10
2470.0149
 20
-428.0931
 30
0.0
 10
2470.8709
 20
-428.0931
 30
0.0
 10
2471.5649
 20
-428.7871
 30
0.0
 10
2471.5649
 20
-429.6431
 30
0.0
 10
2471.5649
 20
-429.6431
 30
0.0
 10
2471.5649
 20
-430.4991
 30
0.0
 10
2470.8709
 20
-431.1931
 30
0.0
 10
2470.0149
 20
-431.1931
 30
0.0
 10
2470.0149
 20
-431.1931
 30
0.0
 10
2469.1589
 20
-431.1931
 30
0.0
 10
2468.4649
 20
-430.4991
 30
0.0
 10
2468.4649
 20
-429.6431
 30
0.0
 10
2468.4649
 20
-429.6431
 30
0.0
 10
2468.4649
 20
-428.7871
 30
0.0
 10
2469.1589
 20
-428.0931
 30
0.0
 10
2470.0149
 20
-428.0931
 30
0.0
  0
SPLINE
  5
11C
330
1F
100
AcDbEntity
  8
Layer 1
 62
   250
370
    20
100
AcDbSpline
210
0.0
220
0.0
230
1.0
 70
    11
 71
     3
 72
    20
 73
    16
 74
     0
 42
0.000000001
 43
0.0000000001
 40
0.0
 40
0.0
 40
0.0
 40
0.0
 40
0.2
 40
0.2
 40
0.2
 40
0.2
 40
0.4
 40
0.4
 40
0.4
 40
0.4
 40
0.6
 40
0.6
 40
0.6
 40
0.6
 40
1.0
 40
1.0
 40
1.0
 40
1.0
 10
2426.5649
 20
-344.6431
 30
0.0
 10
2426.5649
 20
-345.4991
 30
0.0
 10
2425.8709
 20
-346.1931
 30
0.0
 10
2425.0149
 20
-346.1931
 30
0.0
 10
2425.0149
 20
-346.1931
 30
0.0
 10
2424.1589
 20
-346.1931
 30
0.0
 10
2423.4649
 20
-345.4991
 30
0.0
 10
2423.4649
 20
-344.6431
 30
0.0
 10
2423.4649
 20
-344.6431
 30
0.0
 10
2423.4649
 20
-343.7871
 30
0.0
 10
2424.1589
 20
-343.0931
 30
0.0
 10
2425.0149
 20
-343.0931
 30
0.0
 10
2425.0149
 20
-343.0931
 30
0.0
 10
2425.8709
 20
-343.0931
 30
0.0
 10
2426.5649
 20
-343.7871
 30
0.0
 10
2426.5649
 20
-344.6431
 30
0.0
  0
SPLINE
  5
11D
330
1F
100
AcDbEntity
  8
Layer 1
 62
   250
370
    20
100
AcDbSpline
210
0.0
220
0.0
230
1.0
 70
    11
 71
     3
 72
    20
 73
    16
 74
     0
 42
0.000000001
 43
0.0000000001
 40
0.0
 40
0.0
 40
0.0
 40
0.0
 40
0.2
 40
0.2
 40
0.2
 40
0.2
 40
0.4
 40
0.4
 40
0.4
 40
0.4
 40
0.6
 40
0.6
 40
0.6
 40
0.6
 40
1.0
 40
1.0
 40
1.0
 40
1.0
 10
2395.0149
 20
-343.0931
 30
0.0
 10
2395.8709
 20
-343.0931
 30
0.0
 10
2396.5649
 20
-343.7871
 30
0.0
 10
2396.5649
 20
-344.6431
 30
0.0
 10
2396.5649
 20
-344.6431
 30
0.0
 10
2396.5649
 20
-345.4991
 30
0.0
 10
2395.8709
 20
-346.1931
 30
0.0
 10
2395.0149
 20
-346.1931
 30
0.0
 10
2395.0149
 20
-346.1931
 30
0.0
 10
2394.1589
 20
-346.1931
 30
0.0
 10
2393.4649
 20
-345.4991
 30
0.0
 10
2393.4649
 20
-344.6431
 30
0.0
 10
2393.4649
 20
-344.6431
 30
0.0
 10
2393.4649
 20
-343.7871
 30
0.0
 10
2394.1589
 20
-343.0931
 30
0.0
 10
2395.0149
 20
-343.0931
 30
0.0
  0
SPLINE
  5
11E
330
1F
100
AcDbEntity
  8
Layer 1
 62
   250
370
    20
100
AcDbSpline
210
0.0
220
0.0
230
1.0
 70
    11
 71
     3
 72
    20
 73
    16
 74
     0
 42
0.000000001
 43
0.0000000001
 40
0.0
 40
0.0
 40
0.0
 40
0.0
 40
0.2
 40
0.2
 40
0.2
 40
0.2
 40
0.4
 40
0.4
 40
0.4
 40
0.4
 40
0.6
 40
0.6
 40
0.6
 40
0.6
 40
1.0
 40
1.0
 40
1.0
 40
1.0
 10
2411.5649
 20
-344.6431
 30
0.0
 10
2411.5649
 20
-345.4991
 30
0.0
 10
2410.8709
 20
-346.1931
 30
0.0
 10
2410.0149
 20
-346.1931
 30
0.0
 10
2410.0149
 20
-346.1931
 30
0.0
 10
2409.1589
 20
-346.1931
 30
0.0
 10
2408.4649
 20
-345.4991
 30
0.0
 10
2408.4649
 20
-344.6431
 30
0.0
 10
2408.4649
 20
-344.6431
 30
0.0
 10
2408.4649
 20
-343.7871
 30
0.0
 10
2409.1589
 20
-343.0931
 30
0.0
 10
2410.0149
 20
-343.0931
 30
0.0
 10
2410.0149
 20
-343.0931
 30
0.0
 10
2410.8709
 20
-343.0931
 30
0.0
 10
2411.5649
 20
-343.7871
 30
0.0
 10
2411.5649
 20
-344.6431
 30
0.0
  0
SPLINE
  5
11F
330
1F
100
AcDbEntity
  8
Layer 1
 62
   250
370
    20
100
AcDbSpline
210
0.0
220
0.0
230
1.0
 70
    11
 71
     3
 72
    20
 73
    16
 74
     0
 42
0.000000001
 43
0.0000000001
 40
0.0
 40
0.0
 40
0.0
 40
0.0
 40
0.2
 40
0.2
 40
0.2
 40
0.2
 40
0.4
 40
0.4
 40
0.4
 40
0.4
 40
0.6
 40
0.6
 40
0.6
 40
0.6
 40
1.0
 40
1.0
 40
1.0
 40
1.0
 10
2425.0149
 20
-428.0931
 30
0.0
 10
2425.8709
 20
-428.0931
 30
0.0
 10
2426.5649
 20
-428.7871
 30
0.0
 10
2426.5649
 20
-429.6431
 30
0.0
 10
2426.5649
 20
-429.6431
 30
0.0
 10
2426.5649
 20
-430.4991
 30
0.0
 10
2425.8709
 20
-431.1931
 30
0.0
 10
2425.0149
 20
-431.1931
 30
0.0
 10
2425.0149
 20
-431.1931
 30
0.0
 10
2424.1589
 20
-431.1931
 30
0.0
 10
2423.4649
 20
-430.4991
 30
0.0
 10
2423.4649
 20
-429.6431
 30
0.0
 10
2423.4649
 20
-429.6431
 30
0.0
 10
2423.4649
 20
-428.7871
 30
0.0
 10
2424.1589
 20
-428.0931
 30
0.0
 10
2425.0149
 20
-428.0931
 30
0.0
  0
SPLINE
  5
120
330
1F
100
AcDbEntity
  8
Layer 1
 62
   250
370
    20
100
AcDbSpline
210
0.0
220
0.0
230
1.0
 70
    11
 71
     3
 72
    20
 73
    16
 74
     0
 42
0.000000001
 43
0.0000000001
 40
0.0
 40
0.0
 40
0.0
 40
0.0
 40
0.2
 40
0.2
 40
0.2
 40
0.2
 40
0.4
 40
0.4
 40
0.4
 40
0.4
 40
0.6
 40
0.6
 40
0.6
 40
0.6
 40
1.0
 40
1.0
 40
1.0
 40
1.0
 10
2535.8099
 20
-355.8922
 30
0.0
 10
2534.9815
 20
-355.8922
 30
0.0
 10
2534.3099
 20
-355.2207
 30
0.0
 10
2534.3099
 20
-354.3922
 30
0.0
 10
2534.3099
 20
-354.3922
 30
0.0
 10
2534.3099
 20
-353.5638
 30
0.0
 10
2534.9815
 20
-352.8922
 30
0.0
 10
2535.8099
 20
-352.8922
 30
0.0
 10
2535.8099
 20
-352.8922
 30
0.0
 10
2536.6383
 20
-352.8922
 30
0.0
 10
2537.3099
 20
-353.5638
 30
0.0
 10
2537.3099
 20
-354.3922
 30
0.0
 10
2537.3099
 20
-354.3922
 30
0.0
 10
2537.3099
 20
-355.2207
 30
0.0
 10
2536.6383
 20
-355.8922
 30
0.0
 10
2535.8099
 20
-355.8922
 30
0.0
  0
SPLINE
  5
121
330
1F
100
AcDbEntity
  8
Layer 1
 62
   250
370
    20
100
AcDbSpline
210
0.0
220
0.0
230
1.0
 70
    11
 71
     3
 72
    20
 73
    16
 74
     0
 42
0.000000001
 43
0.0000000001
 40
0.0
 40
0.0
 40
0.0
 40
0.0
 40
0.2
 40
0.2
 40
0.2
 40
0.2
 40
0.4
 40
0.4
 40
0.4
 40
0.4
 40
0.6
 40
0.6
 40
0.6
 40
0.6
 40
1.0
 40
1.0
 40
1.0
 40
1.0
 10
2540.1676
 20
-406.3922
 30
0.0
 10
2540.1676
 20
-405.5638
 30
0.0
 10
2540.8392
 20
-404.8922
 30
0.0
 10
2541.6676
 20
-404.8922
 30
0.0
 10
2541.6676
 20
-404.8922
 30
0.0
 10
2542.4961
 20
-404.8922
 30
0.0
 10
2543.1676
 20
-405.5638
 30
0.0
 10
2543.1676
 20
-406.3922
 30
0.0
 10
2543.1676
 20
-406.3922
 30
0.0
 10
2543.1676
 20
-407.2206
 30
0.0
 10
2542.4961
 20
-407.8922
 30
0.0
 10
2541.6676
 20
-407.8922
 30
0.0
 10
2541.6676
 20
-407.8922
 30
0.0
 10
2540.8392
 20
-407.8922
 30
0.0
 10
2540.1676
 20
-407.2206
 30
0.0
 10
2540.1676
 20
-406.3922
 30
0.0
  0
SPLINE
  5
122
330
1F
100
AcDbEntity
  8
Layer 1
 62
   250
370
    20
100
AcDbSpline
210
0.0
220
0.0
230
1.0
 70
    11
 71
     3
 72
    20
 73
    16
 74
     0
 42
0.000000001
 43
0.0000000001
 40
0.0
 40
0.0
 40
0.0
 40
0.0
 40
0.2
 40
0.2
 40
0.2
 40
0.2
 40
0.4
 40
0.4
 40
0.4
 40
0.4
 40
0.6
 40
0.6
 40
0.6
 40
0.6
 40
1.0
 40
1.0
 40
1.0
 40
1.0
 10
2507.8099
 20
-355.8922
 30
0.0
 10
2506.9815
 20
-355.8922
 30
0.0
 10
2506.3099
 20
-355.2207
 30
0.0
 10
2506.3099
 20
-354.3922
 30
0.0
 10
2506.3099
 20
-354.3922
 30
0.0
 10
2506.3099
 20
-353.5638
 30
0.0
 10
2506.9815
 20
-352.8922
 30
0.0
 10
2507.8099
 20
-352.8922
 30
0.0
 10
2507.8099
 20
-352.8922
 30
0.0
 10
2508.6383
 20
-352.8922
 30
0.0
 10
2509.3099
 20
-353.5638
 30
0.0
 10
2509.3099
 20
-354.3922
 30
0.0
 10
2509.3099
 20
-354.3922
 30
0.0
 10
2509.3099
 20
-355.2207
 30
0.0
 10
2508.6383
 20
-355.8922
 30
0.0
 10
2507.8099
 20
-355.8922
 30
0.0
  0
SPLINE
  5
123
330
1F
100
AcDbEntity
  8
Layer 1
 62
   250
370
    20
100
AcDbSpline
210
0.0
220
0.0
230
1.0
 70
    11
 71
     3
 72
    20
 73
    16
 74
     0
 42
0.000000001
 43
0.0000000001
 40
0.0
 40
0.0
 40
0.0
 40
0.0
 40
0.2
 40
0.2
 40
0.2
 40
0.2
 40
0.4
 40
0.4
 40
0.4
 40
0.4
 40
0.6
 40
0.6
 40
0.6
 40
0.6
 40
1.0
 40
1.0
 40
1.0
 40
1.0
 10
2492.5599
 20
-403.8922
 30
0.0
 10
2493.3883
 20
-403.8922
 30
0.0
 10
2494.0599
 20
-404.5638
 30
0.0
 10
2494.0599
 20
-405.3922
 30
0.0
 10
2494.0599
 20
-405.3922
 30
0.0
 10
2494.0599
 20
-406.2206
 30
0.0
 10
2493.3883
 20
-406.8922
 30
0.0
 10
2492.5599
 20
-406.8922
 30
0.0
 10
2492.5599
 20
-406.8922
 30
0.0
 10
2491.7315
 20
-406.8922
 30
0.0
 10
2491.0599
 20
-406.2206
 30
0.0
 10
2491.0599
 20
-405.3922
 30
0.0
 10
2491.0599
 20
-405.3922
 30
0.0
 10
2491.0599
 20
-404.5638
 30
0.0
 10
2491.7315
 20
-403.8922
 30
0.0
 10
2492.5599
 20
-403.8922
 30
0.0
  0
SPLINE
  5
124
330
1F
100
AcDbEntity
  8
Layer 1
 62
    30
370
     9
100
AcDbSpline
210
0.0
220
0.0
230
1.0
 70
    11
 71
     3
 72
    72
 73
    68
 74
     0
 42
0.000000001
 43
0.0000000001
 40
0.0
 40
0.0
 40
0.0
 40
0.0
 40
0.0555555555555556
 40
0.0555555555555556
 40
0.0555555555555556
 40
0.0555555555555556
 40
0.1111111111111111
 40
0.1111111111111111
 40
0.1111111111111111
 40
0.1111111111111111
 40
0.1666666666666667
 40
0.1666666666666667
 40
0.1666666666666667
 40
0.1666666666666667
 40
0.2222222222222222
 40
0.2222222222222222
 40
0.2222222222222222
 40
0.2222222222222222
 40
0.2777777777777778
 40
0.2777777777777778
 40
0.2777777777777778
 40
0.2777777777777778
 40
0.3333333333333333
 40
0.3333333333333333
 40
0.3333333333333333
 40
0.3333333333333333
 40
0.3888888888888889
 40
0.3888888888888889
 40
0.3888888888888889
 40
0.3888888888888889
 40
0.4444444444444444
 40
0.4444444444444444
 40
0.4444444444444444
 40
0.4444444444444444
 40
0.5
 40
0.5
 40
0.5
 40
0.5
 40
0.5555555555555556
 40
0.5555555555555556
 40
0.5555555555555556
 40
0.5555555555555556
 40
0.6111111111111112
 40
0.6111111111111112
 40
0.6111111111111112
 40
0.6111111111111112
 40
0.6666666666666666
 40
0.6666666666666666
 40
0.6666666666666666
 40
0.6666666666666666
 40
0.7222222222222222
 40
0.7222222222222222
 40
0.7222222222222222
 40
0.7222222222222222
 40
0.7777777777777778
 40
0.7777777777777778
 40
0.7777777777777778
 40
0.7777777777777778
 40
0.8333333333333334
 40
0.8333333333333334
 40
0.8333333333333334
 40
0.8333333333333334
 40
0.8888888888888888
 40
0.8888888888888888
 40
0.8888888888888888
 40
0.8888888888888888
 40
1.0
 40
1.0
 40
1.0
 40
1.0
 10
2543.3549
 20
-420.5072
 30
0.0
 10
2542.9481
 20
-420.5072
 30
0.0
 10
2541.7778
 20
-420.5072
 30
0.0
 10
2540.0529
 20
-420.5072
 30
0.0
 10
2540.0529
 20
-420.5072
 30
0.0
 10
2540.0529
 20
-420.5072
 30
0.0
 10
2540.0529
 20
-422.2852
 30
0.0
 10
2540.0529
 20
-422.2852
 30
0.0
 10
2540.0529
 20
-422.2852
 30
0.0
 10
2540.0529
 20
-422.2852
 30
0.0
 10
2531.0613
 20
-422.2852
 30
0.0
 10
2531.0613
 20
-422.2852
 30
0.0
 10
2531.0613
 20
-422.2852
 30
0.0
 10
2531.0613
 20
-422.2852
 30
0.0
 10
2531.0613
 20
-420.5072
 30
0.0
 10
2531.0613
 20
-420.5072
 30
0.0
 10
2531.0613
 20
-420.5072
 30
0.0
 10
2525.1358
 20
-420.5072
 30
0.0
 10
2517.8829
 20
-420.5072
 30
0.0
 10
2511.1223
 20
-420.5072
 30
0.0
 10
2511.1223
 20
-420.5072
 30
0.0
 10
2511.1223
 20
-420.5072
 30
0.0
 10
2511.1223
 20
-426.8572
 30
0.0
 10
2511.1223
 20
-426.8572
 30
0.0
 10
2511.1223
 20
-426.8572
 30
0.0
 10
2511.1223
 20
-426.8572
 30
0.0
 10
2499.4637
 20
-426.8572
 30
0.0
 10
2499.4637
 20
-426.8572
 30
0.0
 10
2499.4637
 20
-426.8572
 30
0.0
 10
2499.4637
 20
-426.8572
 30
0.0
 10
2499.4637
 20
-420.5072
 30
0.0
 10
2499.4637
 20
-420.5072
 30
0.0
 10
2499.4637
 20
-420.5072
 30
0.0
 10
2494.4389
 20
-420.5072
 30
0.0
 10
2490.8082
 20
-420.5072
 30
0.0
 10
2490.0149
 20
-420.5072
 30
0.0
 10
2490.0149
 20
-420.5072
 30
0.0
 10
2490.0149
 20
-399.0188
 30
0.0
 10
2490.0149
 20
-377.505
 30
0.0
 10
2490.0149
 20
-355.9912
 30
0.0
 10
2490.0149
 20
-355.9912
 30
0.0
 10
2490.5229
 20
-355.4832
 30
0.0
 10
2491.0309
 20
-354.9752
 30
0.0
 10
2491.5389
 20
-354.4672
 30
0.0
 10
2491.5389
 20
-354.4672
 30
0.0
 10
2495.3489
 20
-354.4672
 30
0.0
 10
2499.1589
 20
-354.4672
 30
0.0
 10
2502.9689
 20
-354.4672
 30
0.0
 10
2502.9689
 20
-354.4672
 30
0.0
 10
2503.8071
 20
-353.629
 30
0.0
 10
2504.6453
 20
-352.7908
 30
0.0
 10
2505.5089
 20
-351.9272
 30
0.0
 10
2505.5089
 20
-351.9272
 30
0.0
 10
2516.4309
 20
-351.9272
 30
0.0
 10
2527.3529
 20
-351.9272
 30
0.0
 10
2538.2749
 20
-351.9272
 30
0.0
 10
2538.2749
 20
-351.9272
 30
0.0
 10
2539.1131
 20
-352.7654
 30
0.0
 10
2539.9513
 20
-353.6036
 30
0.0
 10
2540.8149
 20
-354.4672
 30
0.0
 10
2540.8149
 20
-354.4672
 30
0.0
 10
2541.6531
 20
-354.4672
 30
0.0
 10
2542.4913
 20
-354.4672
 30
0.0
 10
2543.3549
 20
-354.4672
 30
0.0
 10
2543.3549
 20
-354.4672
 30
0.0
 10
2543.3549
 20
-376.4636
 30
0.0
 10
2543.3549
 20
-398.4854
 30
0.0
 10
2543.3549
 20
-420.5072
 30
0.0
  0
SPLINE
  5
125
330
1F
100
AcDbEntity
  8
Layer 1
 62
   250
370
    20
100
AcDbSpline
210
0.0
220
0.0
230
1.0
 70
    11
 71
     3
 72
    60
 73
    56
 74
     0
 42
0.000000001
 43
0.0000000001
 40
0.0
 40
0.0
 40
0.0
 40
0.0
 40
0.0666666666666667
 40
0.0666666666666667
 40
0.0666666666666667
 40
0.0666666666666667
 40
0.1333333333333333
 40
0.1333333333333333
 40
0.1333333333333333
 40
0.1333333333333333
 40
0.2
 40
0.2
 40
0.2
 40
0.2
 40
0.2666666666666667
 40
0.2666666666666667
 40
0.2666666666666667
 40
0.2666666666666667
 40
0.3333333333333333
 40
0.3333333333333333
 40
0.3333333333333333
 40
0.3333333333333333
 40
0.4
 40
0.4
 40
0.4
 40
0.4
 40
0.4666666666666667
 40
0.4666666666666667
 40
0.4666666666666667
 40
0.4666666666666667
 40
0.5333333333333333
 40
0.5333333333333333
 40
0.5333333333333333
 40
0.5333333333333333
 40
0.6
 40
0.6
 40
0.6
 40
0.6
 40
0.6666666666666666
 40
0.6666666666666666
 40
0.6666666666666666
 40
0.6666666666666666
 40
0.7333333333333333
 40
0.7333333333333333
 40
0.7333333333333333
 40
0.7333333333333333
 40
0.8
 40
0.8
 40
0.8
 40
0.8
 40
0.8666666666666667
 40
0.8666666666666667
 40
0.8666666666666667
 40
0.8666666666666667
 40
1.0
 40
1.0
 40
1.0
 40
1.0
 10
2470.0149
 20
-334.6431
 30
0.0
 10
2470.0149
 20
-334.6431
 30
0.0
 10
2350.0149
 20
-334.6431
 30
0.0
 10
2350.0149
 20
-334.6431
 30
0.0
 10
2350.0149
 20
-334.6431
 30
0.0
 10
2344.5071
 20
-334.6431
 30
0.0
 10
2340.0149
 20
-339.1353
 30
0.0
 10
2340.0149
 20
-344.6431
 30
0.0
 10
2340.0149
 20
-344.6431
 30
0.0
 10
2340.0149
 20
-344.6431
 30
0.0
 10
2340.0149
 20
-429.6431
 30
0.0
 10
2340.0149
 20
-429.6431
 30
0.0
 10
2340.0149
 20
-429.6431
 30
0.0
 10
2340.0149
 20
-435.1509
 30
0.0
 10
2344.5071
 20
-439.6431
 30
0.0
 10
2350.0149
 20
-439.6431
 30
0.0
 10
2350.0149
 20
-439.6431
 30
0.0
 10
2350.0149
 20
-439.6431
 30
0.0
 10
2470.0149
 20
-439.6431
 30
0.0
 10
2470.0149
 20
-439.6431
 30
0.0
 10
2470.0149
 20
-439.6431
 30
0.0
 10
2470.0149
 20
-439.6431
 30
0.0
 10
2500.015
 20
-439.6431
 30
0.0
 10
2500.015
 20
-439.6431
 30
0.0
 10
2500.015
 20
-439.6431
 30
0.0
 10
2500.015
 20
-439.6431
 30
0.0
 10
2516.0084
 20
-439.6431
 30
0.0
 10
2516.0084
 20
-439.6431
 30
0.0
 10
2516.0084
 20
-439.6431
 30
0.0
 10
2516.0084
 20
-439.6431
 30
0.0
 10
2538.355
 20
-439.6431
 30
0.0
 10
2538.355
 20
-439.6431
 30
0.0
 10
2538.355
 20
-439.6431
 30
0.0
 10
2543.8549
 20
-439.6431
 30
0.0
 10
2548.3549
 20
-435.1431
 30
0.0
 10
2548.3549
 20
-429.6431
 30
0.0
 10
2548.3549
 20
-429.6431
 30
0.0
 10
2548.3549
 20
-429.6431
 30
0.0
 10
2548.3549
 20
-344.6431
 30
0.0
 10
2548.3549
 20
-344.6431
 30
0.0
 10
2548.3549
 20
-344.6431
 30
0.0
 10
2548.3549
 20
-339.1431
 30
0.0
 10
2543.8549
 20
-334.6431
 30
0.0
 10
2538.355
 20
-334.6431
 30
0.0
 10
2538.355
 20
-334.6431
 30
0.0
 10
2538.355
 20
-334.6431
 30
0.0
 10
2516.0084
 20
-334.6431
 30
0.0
 10
2516.0084
 20
-334.6431
 30
0.0
 10
2516.0084
 20
-334.6431
 30
0.0
 10
2516.0084
 20
-334.6431
 30
0.0
 10
2500.015
 20
-334.6431
 30
0.0
 10
2500.015
 20
-334.6431
 30
0.0
 10
2500.015
 20
-334.6431
 30
0.0
 10
2500.015
 20
-334.6431
 30
0.0
 10
2470.0149
 20
-334.6431
 30
0.0
 10
2470.0149
 20
-334.6431
 30
0.0
  0
SPLINE
  5
126
330
1F
100
AcDbEntity
  8
Layer 1
 62
   250
370
    20
100
AcDbSpline
210
0.0
220
0.0
230
1.0
 70
    11
 71
     3
 72
    20
 73
    16
 74
     0
 42
0.000000001
 43
0.0000000001
 40
0.0
 40
0.0
 40
0.0
 40
0.0
 40
0.2
 40
0.2
 40
0.2
 40
0.2
 40
0.4
 40
0.4
 40
0.4
 40
0.4
 40
0.6
 40
0.6
 40
0.6
 40
0.6
 40
1.0
 40
1.0
 40
1.0
 40
1.0
 10
2621.1694
 20
-359.7241
 30
0.0
 10
2620.341
 20
-359.7241
 30
0.0
 10
2619.6694
 20
-359.0526
 30
0.0
 10
2619.6694
 20
-358.2241
 30
0.0
 10
2619.6694
 20
-358.2241
 30
0.0
 10
2619.6694
 20
-357.3957
 30
0.0
 10
2620.341
 20
-356.7241
 30
0.0
 10
2621.1694
 20
-356.7241
 30
0.0
 10
2621.1694
 20
-356.7241
 30
0.0
 10
2621.9978
 20
-356.7241
 30
0.0
 10
2622.6694
 20
-357.3957
 30
0.0
 10
2622.6694
 20
-358.2241
 30
0.0
 10
2622.6694
 20
-358.2241
 30
0.0
 10
2622.6694
 20
-359.0526
 30
0.0
 10
2621.9978
 20
-359.7241
 30
0.0
 10
2621.1694
 20
-359.7241
 30
0.0
  0
SPLINE
  5
127
330
1F
100
AcDbEntity
  8
Layer 1
 62
   250
370
    20
100
AcDbSpline
210
0.0
220
0.0
230
1.0
 70
    11
 71
     3
 72
    20
 73
    16
 74
     0
 42
0.000000001
 43
0.0000000001
 40
0.0
 40
0.0
 40
0.0
 40
0.0
 40
0.2
 40
0.2
 40
0.2
 40
0.2
 40
0.4
 40
0.4
 40
0.4
 40
0.4
 40
0.6
 40
0.6
 40
0.6
 40
0.6
 40
1.0
 40
1.0
 40
1.0
 40
1.0
 10
2625.5271
 20
-410.2241
 30
0.0
 10
2625.5271
 20
-409.3957
 30
0.0
 10
2626.1987
 20
-408.7241
 30
0.0
 10
2627.0271
 20
-408.7241
 30
0.0
 10
2627.0271
 20
-408.7241
 30
0.0
 10
2627.8556
 20
-408.7241
 30
0.0
 10
2628.5271
 20
-409.3957
 30
0.0
 10
2628.5271
 20
-410.2241
 30
0.0
 10
2628.5271
 20
-410.2241
 30
0.0
 10
2628.5271
 20
-411.0525
 30
0.0
 10
2627.8556
 20
-411.7241
 30
0.0
 10
2627.0271
 20
-411.7241
 30
0.0
 10
2627.0271
 20
-411.7241
 30
0.0
 10
2626.1987
 20
-411.7241
 30
0.0
 10
2625.5271
 20
-411.0525
 30
0.0
 10
2625.5271
 20
-410.2241
 30
0.0
  0
SPLINE
  5
128
330
1F
100
AcDbEntity
  8
Layer 1
 62
   250
370
    20
100
AcDbSpline
210
0.0
220
0.0
230
1.0
 70
    11
 71
     3
 72
    20
 73
    16
 74
     0
 42
0.000000001
 43
0.0000000001
 40
0.0
 40
0.0
 40
0.0
 40
0.0
 40
0.2
 40
0.2
 40
0.2
 40
0.2
 40
0.4
 40
0.4
 40
0.4
 40
0.4
 40
0.6
 40
0.6
 40
0.6
 40
0.6
 40
1.0
 40
1.0
 40
1.0
 40
1.0
 10
2593.1694
 20
-359.7241
 30
0.0
 10
2592.341
 20
-359.7241
 30
0.0
 10
2591.6694
 20
-359.0526
 30
0.0
 10
2591.6694
 20
-358.2241
 30
0.0
 10
2591.6694
 20
-358.2241
 30
0.0
 10
2591.6694
 20
-357.3957
 30
0.0
 10
2592.341
 20
-356.7241
 30
0.0
 10
2593.1694
 20
-356.7241
 30
0.0
 10
2593.1694
 20
-356.7241
 30
0.0
 10
2593.9978
 20
-356.7241
 30
0.0
 10
2594.6694
 20
-357.3957
 30
0.0
 10
2594.6694
 20
-358.2241
 30
0.0
 10
2594.6694
 20
-358.2241
 30
0.0
 10
2594.6694
 20
-359.0526
 30
0.0
 10
2593.9978
 20
-359.7241
 30
0.0
 10
2593.1694
 20
-359.7241
 30
0.0
  0
SPLINE
  5
129
330
1F
100
AcDbEntity
  8
Layer 1
 62
   250
370
    20
100
AcDbSpline
210
0.0
220
0.0
230
1.0
 70
    11
 71
     3
 72
    20
 73
    16
 74
     0
 42
0.000000001
 43
0.0000000001
 40
0.0
 40
0.0
 40
0.0
 40
0.0
 40
0.2
 40
0.2
 40
0.2
 40
0.2
 40
0.4
 40
0.4
 40
0.4
 40
0.4
 40
0.6
 40
0.6
 40
0.6
 40
0.6
 40
1.0
 40
1.0
 40
1.0
 40
1.0
 10
2577.9194
 20
-407.7241
 30
0.0
 10
2578.7478
 20
-407.7241
 30
0.0
 10
2579.4194
 20
-408.3957
 30
0.0
 10
2579.4194
 20
-409.2241
 30
0.0
 10
2579.4194
 20
-409.2241
 30
0.0
 10
2579.4194
 20
-410.0525
 30
0.0
 10
2578.7478
 20
-410.7241
 30
0.0
 10
2577.9194
 20
-410.7241
 30
0.0
 10
2577.9194
 20
-410.7241
 30
0.0
 10
2577.091
 20
-410.7241
 30
0.0
 10
2576.4194
 20
-410.0525
 30
0.0
 10
2576.4194
 20
-409.2241
 30
0.0
 10
2576.4194
 20
-409.2241
 30
0.0
 10
2576.4194
 20
-408.3957
 30
0.0
 10
2577.091
 20
-407.7241
 30
0.0
 10
2577.9194
 20
-407.7241
 30
0.0
  0
SPLINE
  5
12A
330
1F
100
AcDbEntity
  8
Layer 1
 62
    30
370
     9
100
AcDbSpline
210
0.0
220
0.0
230
1.0
 70
    11
 71
     3
 72
    72
 73
    68
 74
     0
 42
0.000000001
 43
0.0000000001
 40
0.0
 40
0.0
 40
0.0
 40
0.0
 40
0.0555555555555556
 40
0.0555555555555556
 40
0.0555555555555556
 40
0.0555555555555556
 40
0.1111111111111111
 40
0.1111111111111111
 40
0.1111111111111111
 40
0.1111111111111111
 40
0.1666666666666667
 40
0.1666666666666667
 40
0.1666666666666667
 40
0.1666666666666667
 40
0.2222222222222222
 40
0.2222222222222222
 40
0.2222222222222222
 40
0.2222222222222222
 40
0.2777777777777778
 40
0.2777777777777778
 40
0.2777777777777778
 40
0.2777777777777778
 40
0.3333333333333333
 40
0.3333333333333333
 40
0.3333333333333333
 40
0.3333333333333333
 40
0.3888888888888889
 40
0.3888888888888889
 40
0.3888888888888889
 40
0.3888888888888889
 40
0.4444444444444444
 40
0.4444444444444444
 40
0.4444444444444444
 40
0.4444444444444444
 40
0.5
 40
0.5
 40
0.5
 40
0.5
 40
0.5555555555555556
 40
0.5555555555555556
 40
0.5555555555555556
 40
0.5555555555555556
 40
0.6111111111111112
 40
0.6111111111111112
 40
0.6111111111111112
 40
0.6111111111111112
 40
0.6666666666666666
 40
0.6666666666666666
 40
0.6666666666666666
 40
0.6666666666666666
 40
0.7222222222222222
 40
0.7222222222222222
 40
0.7222222222222222
 40
0.7222222222222222
 40
0.7777777777777778
 40
0.7777777777777778
 40
0.7777777777777778
 40
0.7777777777777778
 40
0.8333333333333334
 40
0.8333333333333334
 40
0.8333333333333334
 40
0.8333333333333334
 40
0.8888888888888888
 40
0.8888888888888888
 40
0.8888888888888888
 40
0.8888888888888888
 40
1.0
 40
1.0
 40
1.0
 40
1.0
 10
2628.7144
 20
-424.3391
 30
0.0
 10
2628.3076
 20
-424.3391
 30
0.0
 10
2627.1373
 20
-424.3391
 30
0.0
 10
2625.4124
 20
-424.3391
 30
0.0
 10
2625.4124
 20
-424.3391
 30
0.0
 10
2625.4124
 20
-424.3391
 30
0.0
 10
2625.4124
 20
-426.1171
 30
0.0
 10
2625.4124
 20
-426.1171
 30
0.0
 10
2625.4124
 20
-426.1171
 30
0.0
 10
2625.4124
 20
-426.1171
 30
0.0
 10
2616.4208
 20
-426.1171
 30
0.0
 10
2616.4208
 20
-426.1171
 30
0.0
 10
2616.4208
 20
-426.1171
 30
0.0
 10
2616.4208
 20
-426.1171
 30
0.0
 10
2616.4208
 20
-424.3391
 30
0.0
 10
2616.4208
 20
-424.3391
 30
0.0
 10
2616.4208
 20
-424.3391
 30
0.0
 10
2610.4953
 20
-424.3391
 30
0.0
 10
2603.2424
 20
-424.3391
 30
0.0
 10
2596.4818
 20
-424.3391
 30
0.0
 10
2596.4818
 20
-424.3391
 30
0.0
 10
2596.4818
 20
-424.3391
 30
0.0
 10
2596.4818
 20
-430.6891
 30
0.0
 10
2596.4818
 20
-430.6891
 30
0.0
 10
2596.4818
 20
-430.6891
 30
0.0
 10
2596.4818
 20
-430.6891
 30
0.0
 10
2584.8232
 20
-430.6891
 30
0.0
 10
2584.8232
 20
-430.6891
 30
0.0
 10
2584.8232
 20
-430.6891
 30
0.0
 10
2584.8232
 20
-430.6891
 30
0.0
 10
2584.8232
 20
-424.3391
 30
0.0
 10
2584.8232
 20
-424.3391
 30
0.0
 10
2584.8232
 20
-424.3391
 30
0.0
 10
2579.7984
 20
-424.3391
 30
0.0
 10
2576.1677
 20
-424.3391
 30
0.0
 10
2575.3744
 20
-424.3391
 30
0.0
 10
2575.3744
 20
-424.3391
 30
0.0
 10
2575.3744
 20
-402.8507
 30
0.0
 10
2575.3744
 20
-381.3369
 30
0.0
 10
2575.3744
 20
-359.8231
 30
0.0
 10
2575.3744
 20
-359.8231
 30
0.0
 10
2575.8824
 20
-359.3151
 30
0.0
 10
2576.3904
 20
-358.8071
 30
0.0
 10
2576.8984
 20
-358.2991
 30
0.0
 10
2576.8984
 20
-358.2991
 30
0.0
 10
2580.7084
 20
-358.2991
 30
0.0
 10
2584.5184
 20
-358.2991
 30
0.0
 10
2588.3284
 20
-358.2991
 30
0.0
 10
2588.3284
 20
-358.2991
 30
0.0
 10
2589.1666
 20
-357.4609
 30
0.0
 10
2590.0048
 20
-356.6227
 30
0.0
 10
2590.8684
 20
-355.7591
 30
0.0
 10
2590.8684
 20
-355.7591
 30
0.0
 10
2601.7904
 20
-355.7591
 30
0.0
 10
2612.7124
 20
-355.7591
 30
0.0
 10
2623.6344
 20
-355.7591
 30
0.0
 10
2623.6344
 20
-355.7591
 30
0.0
 10
2624.4726
 20
-356.5973
 30
0.0
 10
2625.3108
 20
-357.4355
 30
0.0
 10
2626.1744
 20
-358.2991
 30
0.0
 10
2626.1744
 20
-358.2991
 30
0.0
 10
2627.0126
 20
-358.2991
 30
0.0
 10
2627.8508
 20
-358.2991
 30
0.0
 10
2628.7144
 20
-358.2991
 30
0.0
 10
2628.7144
 20
-358.2991
 30
0.0
 10
2628.7144
 20
-380.2955
 30
0.0
 10
2628.7144
 20
-402.3173
 30
0.0
 10
2628.7144
 20
-424.3391
 30
0.0
  0
SPLINE
  5
12B
330
1F
100
AcDbEntity
  8
Layer 1
 62
   250
370
    20
100
AcDbSpline
210
0.0
220
0.0
230
1.0
 70
    11
 71
     3
 72
    36
 73
    32
 74
     0
 42
0.000000001
 43
0.0000000001
 40
0.0
 40
0.0
 40
0.0
 40
0.0
 40
0.1111111111111111
 40
0.1111111111111111
 40
0.1111111111111111
 40
0.1111111111111111
 40
0.2222222222222222
 40
0.2222222222222222
 40
0.2222222222222222
 40
0.2222222222222222
 40
0.3333333333333333
 40
0.3333333333333333
 40
0.3333333333333333
 40
0.3333333333333333
 40
0.4444444444444444
 40
0.4444444444444444
 40
0.4444444444444444
 40
0.4444444444444444
 40
0.5555555555555556
 40
0.5555555555555556
 40
0.5555555555555556
 40
0.5555555555555556
 40
0.6666666666666666
 40
0.6666666666666666
 40
0.6666666666666666
 40
0.6666666666666666
 40
0.7777777777777778
 40
0.7777777777777778
 40
0.7777777777777778
 40
0.7777777777777778
 40
1.0
 40
1.0
 40
1.0
 40
1.0
 10
2575.3744
 20
-350.7591
 30
0.0
 10
2575.3744
 20
-350.7591
 30
0.0
 10
2628.7144
 20
-350.7591
 30
0.0
 10
2628.7144
 20
-350.7591
 30
0.0
 10
2628.7144
 20
-350.7591
 30
0.0
 10
2631.4644
 20
-350.7591
 30
0.0
 10
2633.7144
 20
-353.0091
 30
0.0
 10
2633.7144
 20
-355.7591
 30
0.0
 10
2633.7144
 20
-355.7591
 30
0.0
 10
2633.7144
 20
-355.7591
 30
0.0
 10
2633.7144
 20
-424.3391
 30
0.0
 10
2633.7144
 20
-424.3391
 30
0.0
 10
2633.7144
 20
-424.3391
 30
0.0
 10
2633.7144
 20
-427.0891
 30
0.0
 10
2631.4644
 20
-429.3391
 30
0.0
 10
2628.7144
 20
-429.3391
 30
0.0
 10
2628.7144
 20
-429.3391
 30
0.0
 10
2628.7144
 20
-429.3391
 30
0.0
 10
2575.3744
 20
-429.3391
 30
0.0
 10
2575.3744
 20
-429.3391
 30
0.0
 10
2575.3744
 20
-429.3391
 30
0.0
 10
2572.6244
 20
-429.3391
 30
0.0
 10
2570.3744
 20
-427.0891
 30
0.0
 10
2570.3744
 20
-424.3391
 30
0.0
 10
2570.3744
 20
-424.3391
 30
0.0
 10
2570.3744
 20
-424.3391
 30
0.0
 10
2570.3744
 20
-355.7591
 30
0.0
 10
2570.3744
 20
-355.7591
 30
0.0
 10
2570.3744
 20
-355.7591
 30
0.0
 10
2570.3744
 20
-353.0091
 30
0.0
 10
2572.6244
 20
-350.7591
 30
0.0
 10
2575.3744
 20
-350.7591
 30
0.0
  0
ENDSEC
  0
SECTION
  2
OBJECTS
  0
DICTIONARY
  5
C
330
0
100
AcDbDictionary
281
     1
  3
ACAD_DETAILVIEWSTYLE
350
167
  3
ACAD_GROUP
350
D
  3
ACAD_LAYOUT
350
1A
  3
ACAD_MATERIAL
350
43
  3
ACAD_MLEADERSTYLE
350
6B
  3
ACAD_MLINESTYLE
350
17
  3
ACAD_PLOTSETTINGS
350
19
  3
ACAD_PLOTSTYLENAME
350
E
  3
ACAD_SCALELIST
350
47
  3
ACAD_SECTIONVIEWSTYLE
350
168
  3
ACAD_TABLESTYLE
350
69
  3
ACAD_VISUALSTYLE
350
2A
  3
ACDB_RECOMPOSE_DATA
350
164
  3
AcDbVariableDictionary
350
12C
  0
SUN
  5
6D
330
29
100
AcDbSun
 90
        1
290
     0
 63
     7
421
 16777215
 40
1.0
291
     1
 91
  2455826
 92
 54000000
292
     0
 70
     2
 71
   256
280
     1
  0
DICTIONARY
  5
167
102
{ACAD_REACTORS
330
C
102
}
330
C
100
AcDbDictionary
281
     1
  0
DICTIONARY
  5
D
102
{ACAD_REACTORS
330
C
102
}
330
C
100
AcDbDictionary
281
     1
  0
DICTIONARY
  5
1A
102
{ACAD_REACTORS
330
C
102
}
330
C
100
AcDbDictionary
281
     1
  3
Layout1
350
1E
  3
Layout2
350
26
  3
Model
350
22
  0
DICTIONARY
  5
43
102
{ACAD_REACTORS
330
C
102
}
330
C
100
AcDbDictionary
281
     1
  3
ByBlock
350
45
  3
ByLayer
350
44
  3
Global
350
46
  0
DICTIONARY
  5
6B
102
{ACAD_REACTORS
330
C
102
}
330
C
100
AcDbDictionary
281
     1
  3
Standard
350
6C
  0
DICTIONARY
  5
17
102
{ACAD_REACTORS
330
C
102
}
330
C
100
AcDbDictionary
281
     1
  3
Standard
350
18
  0
DICTIONARY
  5
19
102
{ACAD_REACTORS
330
C
102
}
330
C
100
AcDbDictionary
281
     1
  0
ACDBDICTIONARYWDFLT
  5
E
102
{ACAD_REACTORS
330
C
102
}
330
C
100
AcDbDictionary
281
     1
  3
Normal
350
F
100
AcDbDictionaryWithDefault
340
F
  0
DICTIONARY
  5
47
102
{ACAD_REACTORS
330
C
102
}
330
C
100
AcDbDictionary
281
     1
  3
A0
350
48
  3
A1
350
49
  3
A2
350
4A
  3
A3
350
4B
  3
A4
350
4C
  3
A5
350
4D
  3
A6
350
4E
  3
A7
350
4F
  3
A8
350
50
  3
A9
350
51
  3
B0
350
52
  3
B1
350
53
  3
B2
350
54
  3
B3
350
55
  3
B4
350
56
  3
B5
350
57
  3
B6
350
58
  3
B7
350
59
  3
B8
350
5A
  3
B9
350
5B
  3
C0
350
5C
  3
C1
350
5D
  3
C2
350
5E
  3
C3
350
5F
  3
C4
350
60
  3
C5
350
61
  3
C6
350
62
  3
C7
350
63
  3
C8
350
64
  3
C9
350
65
  3
D0
350
66
  3
D1
350
67
  3
D2
350
68
  0
DICTIONARY
  5
168
102
{ACAD_REACTORS
330
C
102
}
330
C
100
AcDbDictionary
281
     1
  0
DICTIONARY
  5
69
102
{ACAD_REACTORS
330
C
102
}
330
C
100
AcDbDictionary
281
     1
  3
Standard
350
6A
  0
DICTIONARY
  5
2A
102
{ACAD_REACTORS
330
C
102
}
330
C
100
AcDbDictionary
281
     1
  3
2dWireframe
350
2F
  3
Basic
350
32
  3
Brighten
350
36
  3
ColorChange
350
3A
  3
Conceptual
350
34
  3
Dim
350
35
  3
EdgeColorOff
350
3D
  3
Facepattern
350
39
  3
Flat
350
2B
  3
FlatWithEdges
350
2C
  3
Gouraud
350
2D
  3
GouraudWithEdges
350
2E
  3
Hidden
350
31
  3
JitterOff
350
3B
  3
Linepattern
350
38
  3
OverhangOff
350
3C
  3
Realistic
350
33
  3
Shaded
350
42
  3
Shaded with edges
350
41
  3
Shades of Gray
350
3E
  3
Sketchy
350
3F
  3
Thicken
350
37
  3
Wireframe
350
30
  3
X-Ray
350
40
  0
XRECORD
  5
164
102
{ACAD_REACTORS
330
C
102
}
330
C
100
AcDbXrecord
280
     1
 90
        1
330
6A
  0
DICTIONARY
  5
12C
102
{ACAD_REACTORS
330
C
102
}
330
C
100
AcDbDictionary
281
     1
  3
CANNOSCALE
350
12D
  3
CMLEADERSTYLE
350
166
  3
CTABLESTYLE
350
165
  3
XCLIPFRAME
350
12E
  0
LAYOUT
  5
1E
102
{ACAD_REACTORS
330
1A
102
}
330
1A
100
AcDbPlotSettings
  1

  2
none_device
  4

  6

 40
0.0
 41
0.0
 42
0.0
 43
0.0
 44
0.0
 45
0.0
 46
0.0
 47
0.0
 48
0.0
 49
0.0
140
0.0
141
0.0
142
1.0
143
1.0
 70
   688
 72
     0
 73
     0
 74
     5
  7

 75
    16
 76
     0
 77
     2
 78
   300
147
1.0
148
0.0
149
0.0
100
AcDbLayout
  1
Layout1
 70
     1
 71
     1
 10
0.0
 20
0.0
 11
12.0
 21
9.0
 12
0.0
 22
0.0
 32
0.0
 14
1.000000000000000E+20
 24
1.000000000000000E+20
 34
1.000000000000000E+20
 15
-1.000000000000000E+20
 25
-1.000000000000000E+20
 35
-1.000000000000000E+20
146
0.0
 13
0.0
 23
0.0
 33
0.0
 16
1.0
 26
0.0
 36
0.0
 17
0.0
 27
1.0
 37
0.0
 76
     0
330
1B
  0
LAYOUT
  5
26
102
{ACAD_REACTORS
330
1A
102
}
330
1A
100
AcDbPlotSettings
  1

  2
none_device
  4

  6

 40
0.0
 41
0.0
 42
0.0
 43
0.0
 44
0.0
 45
0.0
 46
0.0
 47
0.0
 48
0.0
 49
0.0
140
0.0
141
0.0
142
1.0
143
1.0
 70
   688
 72
     0
 73
     0
 74
     5
  7

 75
    16
 76
     0
 77
     2
 78
   300
147
1.0
148
0.0
149
0.0
100
AcDbLayout
  1
Layout2
 70
     1
 71
     2
 10
0.0
 20
0.0
 11
0.0
 21
0.0
 12
0.0
 22
0.0
 32
0.0
 14
0.0
 24
0.0
 34
0.0
 15
0.0
 25
0.0
 35
0.0
146
0.0
 13
0.0
 23
0.0
 33
0.0
 16
1.0
 26
0.0
 36
0.0
 17
0.0
 27
1.0
 37
0.0
 76
     0
330
23
  0
LAYOUT
  5
22
102
{ACAD_REACTORS
330
1A
102
}
330
1A
100
AcDbPlotSettings
  1

  2
none_device
  4
Letter_(8.50_x_11.00_Inches)
  6

 40
6.35
 41
6.35
 42
6.35000508
 43
6.35000508
 44
215.9
 45
279.4
 46
0.0
 47
0.0
 48
0.0
 49
0.0
140
0.0
141
0.0
142
1.0
143
1.0
 70
  1712
 72
     0
 73
     0
 74
     0
  7

 75
     0
 76
     0
 77
     2
 78
   300
147
1.0
148
0.0
149
0.0
100
AcDbLayout
  1
Model
 70
     1
 71
     0
 10
0.0
 20
0.0
 11
12.0
 21
9.0
 12
0.0
 22
0.0
 32
0.0
 14
2085.0783
 24
-495.7431
 34
0.0
 15
2633.8144
 25
183.4067
 35
0.0
146
0.0
 13
0.0
 23
0.0
 33
0.0
 16
1.0
 26
0.0
 36
0.0
 17
0.0
 27
1.0
 37
0.0
 76
     0
330
1F
331
29
  0
MATERIAL
  5
45
102
{ACAD_REACTORS
330
43
102
}
330
43
100
AcDbMaterial
  1
ByBlock
 72
     1
 94
      127
  0
MATERIAL
  5
44
102
{ACAD_REACTORS
330
43
102
}
330
43
100
AcDbMaterial
  1
ByLayer
 72
     1
 94
      127
  0
MATERIAL
  5
46
102
{ACAD_REACTORS
330
43
102
}
330
43
100
AcDbMaterial
  1
Global
 72
     1
 94
      127
  0
MLEADERSTYLE
  5
6C
102
{ACAD_REACTORS
330
6B
102
}
102
{ACAD_XDICTIONARY
360
162
102
}
330
6B
100
AcDbMLeaderStyle
170
     2
171
     1
172
     0
 90
        2
 40
0.0
 41
0.0
173
     1
 91
-1056964608
340
14
 92
       -2
290
     1
 42
0.09
291
     1
 43
0.36
  3
Standard
341
0
 44
0.18
300

342
11
174
     1
178
     6
175
     1
176
     0
 93
-1056964608
 45
0.18
292
     0
297
     0
 46
0.18
343
0
 94
-1056964608
 47
1.0
 49
1.0
140
1.0
293
     1
141
0.0
294
     1
177
     0
142
1.0
295
     0
296
     0
143
0.125
1001
ACAD_MLEADERVER
1070
     2
  0
MLINESTYLE
  5
18
102
{ACAD_REACTORS
330
17
102
}
330
17
100
AcDbMlineStyle
  2
Standard
 70
     0
  3

 62
   256
 51
90.0
 52
90.0
 71
     2
 49
0.5
 62
   256
  6
BYLAYER
 49
-0.5
 62
   256
  6
BYLAYER
  0
ACDBPLACEHOLDER
  5
F
102
{ACAD_REACTORS
330
E
102
}
330
E
  0
SCALE
  5
48
102
{ACAD_REACTORS
330
47
102
}
330
47
100
AcDbScale
 70
     0
300
1:1
140
1.0
141
1.0
290
     1
  0
SCALE
  5
49
102
{ACAD_REACTORS
330
47
102
}
330
47
100
AcDbScale
 70
     0
300
1:2
140
1.0
141
2.0
290
     0
  0
SCALE
  5
4A
102
{ACAD_REACTORS
330
47
102
}
330
47
100
AcDbScale
 70
     0
300
1:4
140
1.0
141
4.0
290
     0
  0
SCALE
  5
4B
102
{ACAD_REACTORS
330
47
102
}
330
47
100
AcDbScale
 70
     0
300
1:5
140
1.0
141
5.0
290
     0
  0
SCALE
  5
4C
102
{ACAD_REACTORS
330
47
102
}
330
47
100
AcDbScale
 70
     0
300
1:8
140
1.0
141
8.0
290
     0
  0
SCALE
  5
4D
102
{ACAD_REACTORS
330
47
102
}
330
47
100
AcDbScale
 70
     0
300
1:10
140
1.0
141
10.0
290
     0
  0
SCALE
  5
4E
102
{ACAD_REACTORS
330
47
102
}
330
47
100
AcDbScale
 70
     0
300
1:16
140
1.0
141
16.0
290
     0
  0
SCALE
  5
4F
102
{ACAD_REACTORS
330
47
102
}
330
47
100
AcDbScale
 70
     0
300
1:20
140
1.0
141
20.0
290
     0
  0
SCALE
  5
50
102
{ACAD_REACTORS
330
47
102
}
330
47
100
AcDbScale
 70
     0
300
1:30
140
1.0
141
30.0
290
     0
  0
SCALE
  5
51
102
{ACAD_REACTORS
330
47
102
}
330
47
100
AcDbScale
 70
     0
300
1:40
140
1.0
141
40.0
290
     0
  0
SCALE
  5
52
102
{ACAD_REACTORS
330
47
102
}
330
47
100
AcDbScale
 70
     0
300
1:50
140
1.0
141
50.0
290
     0
  0
SCALE
  5
53
102
{ACAD_REACTORS
330
47
102
}
330
47
100
AcDbScale
 70
     0
300
1:100
140
1.0
141
100.0
290
     0
  0
SCALE
  5
54
102
{ACAD_REACTORS
330
47
102
}
330
47
100
AcDbScale
 70
     0
300
2:1
140
2.0
141
1.0
290
     0
  0
SCALE
  5
55
102
{ACAD_REACTORS
330
47
102
}
330
47
100
AcDbScale
 70
     0
300
4:1
140
4.0
141
1.0
290
     0
  0
SCALE
  5
56
102
{ACAD_REACTORS
330
47
102
}
330
47
100
AcDbScale
 70
     0
300
8:1
140
8.0
141
1.0
290
     0
  0
SCALE
  5
57
102
{ACAD_REACTORS
330
47
102
}
330
47
100
AcDbScale
 70
     0
300
10:1
140
10.0
141
1.0
290
     0
  0
SCALE
  5
58
102
{ACAD_REACTORS
330
47
102
}
330
47
100
AcDbScale
 70
     0
300
100:1
140
100.0
141
1.0
290
     0
  0
SCALE
  5
59
102
{ACAD_REACTORS
330
47
102
}
330
47
100
AcDbScale
 70
     0
300
1/128" = 1'-0"
140
0.0078125
141
12.0
290
     0
  0
SCALE
  5
5A
102
{ACAD_REACTORS
330
47
102
}
330
47
100
AcDbScale
 70
     0
300
1/64" = 1'-0"
140
0.015625
141
12.0
290
     0
  0
SCALE
  5
5B
102
{ACAD_REACTORS
330
47
102
}
330
47
100
AcDbScale
 70
     0
300
1/32" = 1'-0"
140
0.03125
141
12.0
290
     0
  0
SCALE
  5
5C
102
{ACAD_REACTORS
330
47
102
}
330
47
100
AcDbScale
 70
     0
300
1/16" = 1'-0"
140
0.0625
141
12.0
290
     0
  0
SCALE
  5
5D
102
{ACAD_REACTORS
330
47
102
}
330
47
100
AcDbScale
 70
     0
300
3/32" = 1'-0"
140
0.09375
141
12.0
290
     0
  0
SCALE
  5
5E
102
{ACAD_REACTORS
330
47
102
}
330
47
100
AcDbScale
 70
     0
300
1/8" = 1'-0"
140
0.125
141
12.0
290
     0
  0
SCALE
  5
5F
102
{ACAD_REACTORS
330
47
102
}
330
47
100
AcDbScale
 70
     0
300
3/16" = 1'-0"
140
0.1875
141
12.0
290
     0
  0
SCALE
  5
60
102
{ACAD_REACTORS
330
47
102
}
330
47
100
AcDbScale
 70
     0
300
1/4" = 1'-0"
140
0.25
141
12.0
290
     0
  0
SCALE
  5
61
102
{ACAD_REACTORS
330
47
102
}
330
47
100
AcDbScale
 70
     0
300
3/8" = 1'-0"
140
0.375
141
12.0
290
     0
  0
SCALE
  5
62
102
{ACAD_REACTORS
330
47
102
}
330
47
100
AcDbScale
 70
     0
300
1/2" = 1'-0"
140
0.5
141
12.0
290
     0
  0
SCALE
  5
63
102
{ACAD_REACTORS
330
47
102
}
330
47
100
AcDbScale
 70
     0
300
3/4" = 1'-0"
140
0.75
141
12.0
290
     0
  0
SCALE
  5
64
102
{ACAD_REACTORS
330
47
102
}
330
47
100
AcDbScale
 70
     0
300
1" = 1'-0"
140
1.0
141
12.0
290
     0
  0
SCALE
  5
65
102
{ACAD_REACTORS
330
47
102
}
330
47
100
AcDbScale
 70
     0
300
1-1/2" = 1'-0"
140
1.5
141
12.0
290
     0
  0
SCALE
  5
66
102
{ACAD_REACTORS
330
47
102
}
330
47
100
AcDbScale
 70
     0
300
3" = 1'-0"
140
3.0
141
12.0
290
     0
  0
SCALE
  5
67
102
{ACAD_REACTORS
330
47
102
}
330
47
100
AcDbScale
 70
     0
300
6" = 1'-0"
140
6.0
141
12.0
290
     0
  0
SCALE
  5
68
102
{ACAD_REACTORS
330
47
102
}
330
47
100
AcDbScale
 70
     0
300
1'-0" = 1'-0"
140
12.0
141
12.0
290
     0
  0
TABLESTYLE
  5
6A
102
{ACAD_REACTORS
330
69
102
}
102
{ACAD_XDICTIONARY
360
15F
102
}
330
69
100
AcDbTableStyle
  3
Standard
 70
     0
 71
     0
 40
0.06
 41
0.06
280
     0
281
     0
  7
Standard
140
0.18
170
     2
 62
     0
 63
   257
283
     0
 90
        4
 91
        0
  1

274
    -2
284
     1
 64
     0
275
    -2
285
     1
 65
     0
276
    -2
286
     1
 66
     0
277
    -2
287
     1
 67
     0
278
    -2
288
     1
 68
     0
279
    -2
289
     1
 69
     0
  7
Standard
140
0.25
170
     5
 62
     0
 63
   257
283
     0
 90
        4
 91
        0
  1

274
    -2
284
     1
 64
     0
275
    -2
285
     1
 65
     0
276
    -2
286
     1
 66
     0
277
    -2
287
     1
 67
     0
278
    -2
288
     1
 68
     0
279
    -2
289
     1
 69
     0
  7
Standard
140
0.18
170
     5
 62
     0
 63
   257
283
     0
 90
        4
 91
        0
  1

274
    -2
284
     1
 64
     0
275
    -2
285
     1
 65
     0
276
    -2
286
     1
 66
     0
277
    -2
287
     1
 67
     0
278
    -2
288
     1
 68
     0
279
    -2
289
     1
 69
     0
  0
VISUALSTYLE
  5
2F
102
{ACAD_REACTORS
330
2A
102
}
102
{ACAD_XDICTIONARY
360
137
102
}
330
2A
100
AcDbVisualStyle
  2
2dWireframe
 70
     4
 71
     0
 72
     2
 73
     0
 90
        0
 40
0.6
 41
30.0
 62
     5
 63
     7
421
 16777215
 74
     1
 91
        4
 64
     7
 65
   257
 75
     1
175
     1
 42
1.0
 92
        0
 66
   257
 43
1.0
 76
     1
 77
     6
 78
     2
 67
     7
 79
     5
170
     0
171
     0
290
     0
174
     0
 93
        1
 44
0.0
173
     0
291
     0
 45
0.0
  0
VISUALSTYLE
  5
32
102
{ACAD_REACTORS
330
2A
102
}
102
{ACAD_XDICTIONARY
360
13D
102
}
330
2A
100
AcDbVisualStyle
  2
Basic
 70
     7
 71
     1
 72
     0
 73
     1
 90
        0
 40
0.6
 41
30.0
 62
     5
 63
     7
421
 16777215
 74
     0
 91
        4
 64
     7
 65
   257
 75
     1
175
     1
 42
1.0
 92
        8
 66
     7
 43
1.0
 76
     1
 77
     6
 78
     2
 67
     7
 79
     5
170
     0
171
     0
290
     0
174
     0
 93
        1
 44
0.0
173
     0
291
     1
 45
0.0
  0
VISUALSTYLE
  5
36
102
{ACAD_REACTORS
330
2A
102
}
102
{ACAD_XDICTIONARY
360
145
102
}
330
2A
100
AcDbVisualStyle
  2
Brighten
 70
    12
 71
     2
 72
     2
 73
     0
 90
        0
 40
0.6
 41
30.0
 62
     5
 63
     7
421
 16777215
 74
     1
 91
        4
 64
     7
 65
   257
 75
     1
175
     1
 42
1.0
 92
        8
 66
     7
 43
1.0
 76
     1
 77
     6
 78
     2
 67
     7
 79
     5
170
     0
171
     0
290
     0
174
     0
 93
        1
 44
50.0
173
     0
291
     1
 45
0.0
  0
VISUALSTYLE
  5
3A
102
{ACAD_REACTORS
330
2A
102
}
102
{ACAD_XDICTIONARY
360
14D
102
}
330
2A
100
AcDbVisualStyle
  2
ColorChange
 70
    16
 71
     2
 72
     2
 73
     3
 90
        0
 40
0.6
 41
30.0
 62
     5
 63
     8
421
  8421504
 74
     1
 91
        4
 64
     7
 65
   257
 75
     1
175
     1
 42
1.0
 92
        8
 66
     8
424
  8421504
 43
1.0
 76
     1
 77
     6
 78
     2
 67
     7
 79
     5
170
     0
171
     0
290
     0
174
     0
 93
        1
 44
0.0
173
     0
291
     1
 45
0.0
  0
VISUALSTYLE
  5
34
102
{ACAD_REACTORS
330
2A
102
}
102
{ACAD_XDICTIONARY
360
141
102
}
330
2A
100
AcDbVisualStyle
  2
Conceptual
 70
     9
 71
     3
 72
     2
 73
     0
 90
        0
 40
0.6
 41
30.0
 62
     5
 63
     7
421
 16777215
 74
     2
 91
        2
 64
     7
 65
   257
 75
     1
175
     1
 42
179.0
 92
        8
 66
     7
 43
1.0
 76
     1
 77
     6
 78
     2
 67
     7
 79
     3
170
     0
171
     0
290
     0
174
     0
 93
        1
 44
0.0
173
     0
291
     0
 45
0.0
  0
VISUALSTYLE
  5
35
102
{ACAD_REACTORS
330
2A
102
}
102
{ACAD_XDICTIONARY
360
143
102
}
330
2A
100
AcDbVisualStyle
  2
Dim
 70
    11
 71
     2
 72
     2
 73
     0
 90
        0
 40
0.6
 41
30.0
 62
     5
 63
     7
421
 16777215
 74
     1
 91
        4
 64
     7
 65
   257
 75
     1
175
     1
 42
1.0
 92
        8
 66
     7
 43
1.0
 76
     1
 77
     6
 78
     2
 67
     7
 79
     5
170
     0
171
     0
290
     0
174
     0
 93
        1
 44
-50.0
173
     0
291
     1
 45
0.0
  0
VISUALSTYLE
  5
3D
102
{ACAD_REACTORS
330
2A
102
}
102
{ACAD_XDICTIONARY
360
153
102
}
330
2A
100
AcDbVisualStyle
  2
EdgeColorOff
 70
    22
 71
     2
 72
     2
 73
     0
 90
        0
 40
0.6
 41
30.0
 62
     5
 63
     7
421
 16777215
 74
     1
 91
        4
 64
     7
 65
   257
 75
     1
175
     1
 42
1.0
 92
        8
 66
     7
 43
1.0
 76
     1
 77
     6
 78
     2
 67
     7
 79
     5
170
     0
171
     0
290
     0
174
     0
 93
        1
 44
0.0
173
     0
291
     1
 45
0.0
  0
VISUALSTYLE
  5
39
102
{ACAD_REACTORS
330
2A
102
}
102
{ACAD_XDICTIONARY
360
14B
102
}
330
2A
100
AcDbVisualStyle
  2
Facepattern
 70
    15
 71
     2
 72
     2
 73
     0
 90
        0
 40
0.6
 41
30.0
 62
     5
 63
     7
421
 16777215
 74
     1
 91
        4
 64
     7
 65
   257
 75
     1
175
     1
 42
1.0
 92
        8
 66
     7
 43
1.0
 76
     1
 77
     6
 78
     2
 67
     7
 79
     5
170
     0
171
     0
290
     0
174
     0
 93
        1
 44
0.0
173
     0
291
     1
 45
0.0
  0
VISUALSTYLE
  5
2B
102
{ACAD_REACTORS
330
2A
102
}
102
{ACAD_XDICTIONARY
360
12F
102
}
330
2A
100
AcDbVisualStyle
  2
Flat
 70
     0
 71
     2
 72
     1
 73
     1
 90
        2
 40
0.6
 41
30.0
 62
     5
 63
     7
421
 16777215
 74
     0
 91
        0
 64
     7
 65
   257
 75
     1
175
     1
 42
1.0
 92
        8
 66
     7
 43
1.0
 76
     1
 77
     6
 78
     2
 67
     7
 79
     5
170
     0
171
     0
290
     0
174
     0
 93
       13
 44
0.0
173
     0
291
     1
 45
0.0
  0
VISUALSTYLE
  5
2C
102
{ACAD_REACTORS
330
2A
102
}
102
{ACAD_XDICTIONARY
360
131
102
}
330
2A
100
AcDbVisualStyle
  2
FlatWithEdges
 70
     1
 71
     2
 72
     1
 73
     1
 90
        2
 40
0.6
 41
30.0
 62
     5
 63
     7
421
 16777215
 74
     1
 91
        0
 64
     7
 65
   257
 75
     1
175
     1
 42
1.0
 92
        0
 66
   257
 43
1.0
 76
     1
 77
     6
 78
     2
 67
     7
 79
     5
170
     0
171
     0
290
     0
174
     0
 93
       13
 44
0.0
173
     0
291
     1
 45
0.0
  0
VISUALSTYLE
  5
2D
102
{ACAD_REACTORS
330
2A
102
}
102
{ACAD_XDICTIONARY
360
133
102
}
330
2A
100
AcDbVisualStyle
  2
Gouraud
 70
     2
 71
     2
 72
     2
 73
     1
 90
        2
 40
0.6
 41
30.0
 62
     5
 63
     7
421
 16777215
 74
     0
 91
        0
 64
     7
 65
   257
 75
     1
175
     1
 42
1.0
 92
        0
 66
     7
 43
1.0
 76
     1
 77
     6
 78
     2
 67
     7
 79
     5
170
     0
171
     0
290
     0
174
     0
 93
       13
 44
0.0
173
     0
291
     1
 45
0.0
  0
VISUALSTYLE
  5
2E
102
{ACAD_REACTORS
330
2A
102
}
102
{ACAD_XDICTIONARY
360
135
102
}
330
2A
100
AcDbVisualStyle
  2
GouraudWithEdges
 70
     3
 71
     2
 72
     2
 73
     1
 90
        2
 40
0.6
 41
30.0
 62
     5
 63
     7
421
 16777215
 74
     1
 91
        0
 64
     7
 65
   257
 75
     1
175
     1
 42
1.0
 92
        0
 66
   257
 43
1.0
 76
     1
 77
     6
 78
     2
 67
     7
 79
     5
170
     0
171
     0
290
     0
174
     0
 93
       13
 44
0.0
173
     0
291
     1
 45
0.0
  0
VISUALSTYLE
  5
31
102
{ACAD_REACTORS
330
2A
102
}
102
{ACAD_XDICTIONARY
360
13B
102
}
330
2A
100
AcDbVisualStyle
  2
Hidden
 70
     6
 71
     1
 72
     2
 73
     2
 90
        0
 40
0.6
 41
30.0
 62
     5
 63
     7
421
 16777215
 74
     2
 91
        2
 64
     7
 65
   257
 75
     2
175
     1
 42
40.0
 92
        0
 66
   257
 43
1.0
 76
     1
 77
     6
 78
     2
 67
     7
 79
     3
170
     0
171
     0
290
     0
174
     0
 93
        1
 44
0.0
173
     0
291
     0
 45
0.0
  0
VISUALSTYLE
  5
3B
102
{ACAD_REACTORS
330
2A
102
}
102
{ACAD_XDICTIONARY
360
14F
102
}
330
2A
100
AcDbVisualStyle
  2
JitterOff
 70
    20
 71
     2
 72
     2
 73
     0
 90
        0
 40
0.6
 41
30.0
 62
     5
 63
     7
421
 16777215
 74
     1
 91
        4
 64
     7
 65
   257
 75
     1
175
     1
 42
1.0
 92
       10
 66
     7
 43
1.0
 76
     1
 77
     6
 78
     2
 67
     7
 79
     5
170
     0
171
     0
290
     0
174
     0
 93
        1
 44
0.0
173
     0
291
     1
 45
0.0
  0
VISUALSTYLE
  5
38
102
{ACAD_REACTORS
330
2A
102
}
102
{ACAD_XDICTIONARY
360
149
102
}
330
2A
100
AcDbVisualStyle
  2
Linepattern
 70
    14
 71
     2
 72
     2
 73
     0
 90
        0
 40
0.6
 41
30.0
 62
     5
 63
     7
421
 16777215
 74
     1
 91
        4
 64
     7
 65
   257
 75
     7
175
     7
 42
1.0
 92
        8
 66
     7
 43
1.0
 76
     1
 77
     6
 78
     2
 67
     7
 79
     5
170
     0
171
     0
290
     0
174
     0
 93
        1
 44
0.0
173
     0
291
     1
 45
0.0
  0
VISUALSTYLE
  5
3C
102
{ACAD_REACTORS
330
2A
102
}
102
{ACAD_XDICTIONARY
360
151
102
}
330
2A
100
AcDbVisualStyle
  2
OverhangOff
 70
    21
 71
     2
 72
     2
 73
     0
 90
        0
 40
0.6
 41
30.0
 62
     5
 63
     7
421
 16777215
 74
     1
 91
        4
 64
     7
 65
   257
 75
     1
175
     1
 42
1.0
 92
        9
 66
     7
 43
1.0
 76
     1
 77
     6
 78
     2
 67
     7
 79
     5
170
     0
171
     0
290
     0
174
     0
 93
        1
 44
0.0
173
     0
291
     1
 45
0.0
  0
VISUALSTYLE
  5
33
102
{ACAD_REACTORS
330
2A
102
}
102
{ACAD_XDICTIONARY
360
13F
102
}
330
2A
100
AcDbVisualStyle
  2
Realistic
 70
     8
 71
     2
 72
     3
 73
     0
 90
        2
 40
0.6
 41
30.0
 62
     5
 63
     7
421
 16777215
 74
     0
 91
        0
 64
     7
 65
   257
 75
     1
175
     1
 42
1.0
 92
        8
 66
   257
 43
1.0
 76
     1
 77
     6
 78
     2
 67
     7
 79
     3
170
     0
171
     0
290
     0
174
     0
 93
       13
 44
0.0
173
     0
291
     0
 45
0.0
  0
VISUALSTYLE
  5
42
102
{ACAD_REACTORS
330
2A
102
}
102
{ACAD_XDICTIONARY
360
15D
102
}
330
2A
100
AcDbVisualStyle
  2
Shaded
 70
    27
 71
     2
 72
     2
 73
     1
 90
        2
 40
0.6
 41
30.0
 62
     5
 63
     7
421
 16777215
 74
     0
 91
        4
 64
     7
 65
   257
 75
     1
175
     1
 42
1.0
 92
        8
 66
   257
 43
1.0
 76
     1
 77
     6
 78
     2
 67
     8
425
  7895160
 79
     3
170
     0
171
     0
290
     0
174
     0
 93
        5
 44
0.0
173
     0
291
     0
 45
0.0
  0
VISUALSTYLE
  5
41
102
{ACAD_REACTORS
330
2A
102
}
102
{ACAD_XDICTIONARY
360
15B
102
}
330
2A
100
AcDbVisualStyle
  2
Shaded with edges
 70
    26
 71
     2
 72
     2
 73
     1
 90
        2
 40
0.6
 41
30.0
 62
     5
 63
     7
421
 16777215
 74
     1
 91
       10
 64
     7
 65
   257
 75
     2
175
     1
 42
1.0
 92
        8
 66
   257
 43
1.0
 76
     1
 77
     6
 78
     2
 67
     7
 79
     3
170
     0
171
     0
290
     0
174
     0
 93
        5
 44
0.0
173
     0
291
     0
 45
0.0
  0
VISUALSTYLE
  5
3E
102
{ACAD_REACTORS
330
2A
102
}
102
{ACAD_XDICTIONARY
360
155
102
}
330
2A
100
AcDbVisualStyle
  2
Shades of Gray
 70
    23
 71
     2
 72
     2
 73
     3
 90
        0
 40
0.6
 41
30.0
 62
     5
 63
     7
421
 16777215
 74
     2
 91
        2
 64
     7
 65
     7
 75
     1
175
     1
 42
40.0
 92
        8
 66
     7
 43
1.0
 76
     1
 77
     6
 78
     2
 67
     7
 79
     3
170
     0
171
     0
290
     0
174
     0
 93
        1
 44
0.0
173
     0
291
     0
 45
0.0
  0
VISUALSTYLE
  5
3F
102
{ACAD_REACTORS
330
2A
102
}
102
{ACAD_XDICTIONARY
360
157
102
}
330
2A
100
AcDbVisualStyle
  2
Sketchy
 70
    24
 71
     1
 72
     2
 73
     2
 90
        0
 40
0.6
 41
30.0
 62
     5
 63
     7
421
 16777215
 74
     2
 91
        2
 64
     7
 65
     7
 75
     1
175
     1
 42
40.0
 92
       11
 66
     7
 43
1.0
 76
     1
 77
     6
 78
     2
 67
     7
 79
     6
170
     0
171
     0
290
     0
174
     0
 93
        1
 44
0.0
173
     0
291
     0
 45
0.0
  0
VISUALSTYLE
  5
37
102
{ACAD_REACTORS
330
2A
102
}
102
{ACAD_XDICTIONARY
360
147
102
}
330
2A
100
AcDbVisualStyle
  2
Thicken
 70
    13
 71
     2
 72
     2
 73
     0
 90
        0
 40
0.6
 41
30.0
 62
     5
 63
     7
421
 16777215
 74
     1
 91
        4
 64
     7
 65
   257
 75
     1
175
     1
 42
1.0
 92
       12
 66
     7
 43
1.0
 76
     1
 77
     6
 78
     2
 67
     7
 79
     5
170
     0
171
     0
290
     0
174
     0
 93
        1
 44
0.0
173
     0
291
     1
 45
0.0
  0
VISUALSTYLE
  5
30
102
{ACAD_REACTORS
330
2A
102
}
102
{ACAD_XDICTIONARY
360
139
102
}
330
2A
100
AcDbVisualStyle
  2
Wireframe
 70
     5
 71
     0
 72
     2
 73
     0
 90
        0
 40
0.6
 41
30.0
 62
     5
 63
     7
421
 16777215
 74
     1
 91
        4
 64
     7
 65
   257
 75
     1
175
     1
 42
1.0
 92
        0
 66
   257
 43
1.0
 76
     1
 77
     6
 78
     2
 67
     7
 79
     3
170
     0
171
     0
290
     0
174
     0
 93
        1
 44
0.0
173
     0
291
     0
 45
0.0
  0
VISUALSTYLE
  5
40
102
{ACAD_REACTORS
330
2A
102
}
102
{ACAD_XDICTIONARY
360
159
102
}
330
2A
100
AcDbVisualStyle
  2
X-Ray
 70
    25
 71
     2
 72
     2
 73
     1
 90
        1
 40
0.5
 41
30.0
 62
     5
 63
     7
421
 16777215
 74
     1
 91
        0
 64
     7
 65
   257
 75
     1
175
     1
 42
1.0
 92
        8
 66
     7
 43
1.0
 76
     1
 77
     6
 78
     2
 67
     7
 79
     3
170
     0
171
     0
290
     0
174
     0
 93
       13
 44
0.0
173
     0
291
     0
 45
0.0
  0
DICTIONARYVAR
  5
12D
102
{ACAD_REACTORS
330
12C
102
}
330
12C
100
DictionaryVariables
280
     0
  1
1:1
  0
DICTIONARYVAR
  5
166
102
{ACAD_REACTORS
330
12C
102
}
330
12C
100
DictionaryVariables
280
     0
  1
Standard
  0
DICTIONARYVAR
  5
165
102
{ACAD_REACTORS
330
12C
102
}
330
12C
100
DictionaryVariables
280
     0
  1
Standard
  0
DICTIONARYVAR
  5
12E
102
{ACAD_REACTORS
330
12C
102
}
330
12C
100
DictionaryVariables
280
     0
  1
2
  0
DICTIONARY
  5
162
330
6C
100
AcDbDictionary
280
     1
281
     1
  3
ACAD_XREC_ROUNDTRIP
360
163
  0
DICTIONARY
  5
15F
330
6A
100
AcDbDictionary
280
     1
281
     1
  3
ACAD_ROUNDTRIP_2008_TABLESTYLE_CELLSTYLEMAP
360
160
  0
DICTIONARY
  5
137
330
2F
100
AcDbDictionary
280
     1
281
     1
  3
ACAD_XREC_ROUNDTRIP
360
138
  0
DICTIONARY
  5
13D
330
32
100
AcDbDictionary
280
     1
281
     1
  3
ACAD_XREC_ROUNDTRIP
360
13E
  0
DICTIONARY
  5
145
330
36
100
AcDbDictionary
280
     1
281
     1
  3
ACAD_XREC_ROUNDTRIP
360
146
  0
DICTIONARY
  5
14D
330
3A
100
AcDbDictionary
280
     1
281
     1
  3
ACAD_XREC_ROUNDTRIP
360
14E
  0
DICTIONARY
  5
141
330
34
100
AcDbDictionary
280
     1
281
     1
  3
ACAD_XREC_ROUNDTRIP
360
142
  0
DICTIONARY
  5
143
330
35
100
AcDbDictionary
280
     1
281
     1
  3
ACAD_XREC_ROUNDTRIP
360
144
  0
DICTIONARY
  5
153
330
3D
100
AcDbDictionary
280
     1
281
     1
  3
ACAD_XREC_ROUNDTRIP
360
154
  0
DICTIONARY
  5
14B
330
39
100
AcDbDictionary
280
     1
281
     1
  3
ACAD_XREC_ROUNDTRIP
360
14C
  0
DICTIONARY
  5
12F
330
2B
100
AcDbDictionary
280
     1
281
     1
  3
ACAD_XREC_ROUNDTRIP
360
130
  0
DICTIONARY
  5
131
330
2C
100
AcDbDictionary
280
     1
281
     1
  3
ACAD_XREC_ROUNDTRIP
360
132
  0
DICTIONARY
  5
133
330
2D
100
AcDbDictionary
280
     1
281
     1
  3
ACAD_XREC_ROUNDTRIP
360
134
  0
DICTIONARY
  5
135
330
2E
100
AcDbDictionary
280
     1
281
     1
  3
ACAD_XREC_ROUNDTRIP
360
136
  0
DICTIONARY
  5
13B
330
31
100
AcDbDictionary
280
     1
281
     1
  3
ACAD_XREC_ROUNDTRIP
360
13C
  0
DICTIONARY
  5
14F
330
3B
100
AcDbDictionary
280
     1
281
     1
  3
ACAD_XREC_ROUNDTRIP
360
150
  0
DICTIONARY
  5
149
330
38
100
AcDbDictionary
280
     1
281
     1
  3
ACAD_XREC_ROUNDTRIP
360
14A
  0
DICTIONARY
  5
151
330
3C
100
AcDbDictionary
280
     1
281
     1
  3
ACAD_XREC_ROUNDTRIP
360
152
  0
DICTIONARY
  5
13F
330
33
100
AcDbDictionary
280
     1
281
     1
  3
ACAD_XREC_ROUNDTRIP
360
140
  0
DICTIONARY
  5
15D
330
42
100
AcDbDictionary
280
     1
281
     1
  3
ACAD_XREC_ROUNDTRIP
360
15E
  0
DICTIONARY
  5
15B
330
41
100
AcDbDictionary
280
     1
281
     1
  3
ACAD_XREC_ROUNDTRIP
360
15C
  0
DICTIONARY
  5
155
330
3E
100
AcDbDictionary
280
     1
281
     1
  3
ACAD_XREC_ROUNDTRIP
360
156
  0
DICTIONARY
  5
157
330
3F
100
AcDbDictionary
280
     1
281
     1
  3
ACAD_XREC_ROUNDTRIP
360
158
  0
DICTIONARY
  5
147
330
37
100
AcDbDictionary
280
     1
281
     1
  3
ACAD_XREC_ROUNDTRIP
360
148
  0
DICTIONARY
  5
139
330
30
100
AcDbDictionary
280
     1
281
     1
  3
ACAD_XREC_ROUNDTRIP
360
13A
  0
DICTIONARY
  5
159
330
40
100
AcDbDictionary
280
     1
281
     1
  3
ACAD_XREC_ROUNDTRIP
360
15A
  0
XRECORD
  5
163
102
{ACAD_REACTORS
330
162
102
}
330
162
100
AcDbXrecord
280
     1
102
ACAD_ROUNDTRIP_2010_MLEADER_STYLE
  0
CELLSTYLEMAP
  5
160
102
{ACAD_REACTORS
330
15F
102
}
330
15F
100
AcDbCellStyleMap
 90
        3
300
CELLSTYLE
  1
TABLEFORMAT_BEGIN
 90
        5
170
     1
 91
        0
 92
    32768
 62
   257
 93
        1
300
CONTENTFORMAT
  1
CONTENTFORMAT_BEGIN
 90
        0
 91
        0
 92
        4
 93
        0
300

 40
0.0
140
1.0
 94
        5
 62
     0
340
11
144
0.25
309
CONTENTFORMAT_END
171
     1
301
MARGIN
  1
CELLMARGIN_BEGIN
 40
0.06
 40
0.06
 40
0.06
 40
0.06
 40
0.06
 40
0.06
309
CELLMARGIN_END
 94
        6
 95
        1
302
GRIDFORMAT
  1
GRIDFORMAT_BEGIN
 90
        0
 91
        1
 62
     0
 92
       -2
340
14
 93
        0
 40
0.045
309
GRIDFORMAT_END
 95
        2
302
GRIDFORMAT
  1
GRIDFORMAT_BEGIN
 90
        0
 91
        1
 62
     0
 92
       -2
340
14
 93
        0
 40
0.045
309
GRIDFORMAT_END
 95
        4
302
GRIDFORMAT
  1
GRIDFORMAT_BEGIN
 90
        0
 91
        1
 62
     0
 92
       -2
340
14
 93
        0
 40
0.045
309
GRIDFORMAT_END
 95
        8
302
GRIDFORMAT
  1
GRIDFORMAT_BEGIN
 90
        0
 91
        1
 62
     0
 92
       -2
340
14
 93
        0
 40
0.045
309
GRIDFORMAT_END
 95
       16
302
GRIDFORMAT
  1
GRIDFORMAT_BEGIN
 90
        0
 91
        1
 62
     0
 92
       -2
340
14
 93
        0
 40
0.045
309
GRIDFORMAT_END
 95
       32
302
GRIDFORMAT
  1
GRIDFORMAT_BEGIN
 90
        0
 91
        1
 62
     0
 92
       -2
340
14
 93
        0
 40
0.045
309
GRIDFORMAT_END
309
TABLEFORMAT_END
  1
CELLSTYLE_BEGIN
 90
        1
 91
        1
300
_TITLE
309
CELLSTYLE_END
300
CELLSTYLE
  1
TABLEFORMAT_BEGIN
 90
        5
170
     1
 91
        0
 92
        0
 62
   257
 93
        1
300
CONTENTFORMAT
  1
CONTENTFORMAT_BEGIN
 90
        0
 91
        0
 92
        4
 93
        0
300

 40
0.0
140
1.0
 94
        5
 62
     0
340
11
144
0.18
309
CONTENTFORMAT_END
171
     1
301
MARGIN
  1
CELLMARGIN_BEGIN
 40
0.06
 40
0.06
 40
0.06
 40
0.06
 40
0.06
 40
0.06
309
CELLMARGIN_END
 94
        6
 95
        1
302
GRIDFORMAT
  1
GRIDFORMAT_BEGIN
 90
        0
 91
        1
 62
     0
 92
       -2
340
14
 93
        0
 40
0.045
309
GRIDFORMAT_END
 95
        2
302
GRIDFORMAT
  1
GRIDFORMAT_BEGIN
 90
        0
 91
        1
 62
     0
 92
       -2
340
14
 93
        0
 40
0.045
309
GRIDFORMAT_END
 95
        4
302
GRIDFORMAT
  1
GRIDFORMAT_BEGIN
 90
        0
 91
        1
 62
     0
 92
       -2
340
14
 93
        0
 40
0.045
309
GRIDFORMAT_END
 95
        8
302
GRIDFORMAT
  1
GRIDFORMAT_BEGIN
 90
        0
 91
        1
 62
     0
 92
       -2
340
14
 93
        0
 40
0.045
309
GRIDFORMAT_END
 95
       16
302
GRIDFORMAT
  1
GRIDFORMAT_BEGIN
 90
        0
 91
        1
 62
     0
 92
       -2
340
14
 93
        0
 40
0.045
309
GRIDFORMAT_END
 95
       32
302
GRIDFORMAT
  1
GRIDFORMAT_BEGIN
 90
        0
 91
        1
 62
     0
 92
       -2
340
14
 93
        0
 40
0.045
309
GRIDFORMAT_END
309
TABLEFORMAT_END
  1
CELLSTYLE_BEGIN
 90
        2
 91
        1
300
_HEADER
309
CELLSTYLE_END
300
CELLSTYLE
  1
TABLEFORMAT_BEGIN
 90
        5
170
     1
 91
        0
 92
        0
 62
   257
 93
        1
300
CONTENTFORMAT
  1
CONTENTFORMAT_BEGIN
 90
        0
 91
        0
 92
        4
 93
        0
300

 40
0.0
140
1.0
 94
        2
 62
     0
340
11
144
0.18
309
CONTENTFORMAT_END
171
     1
301
MARGIN
  1
CELLMARGIN_BEGIN
 40
0.06
 40
0.06
 40
0.06
 40
0.06
 40
0.06
 40
0.06
309
CELLMARGIN_END
 94
        6
 95
        1
302
GRIDFORMAT
  1
GRIDFORMAT_BEGIN
 90
        0
 91
        1
 62
     0
 92
       -2
340
14
 93
        0
 40
0.045
309
GRIDFORMAT_END
 95
        2
302
GRIDFORMAT
  1
GRIDFORMAT_BEGIN
 90
        0
 91
        1
 62
     0
 92
       -2
340
14
 93
        0
 40
0.045
309
GRIDFORMAT_END
 95
        4
302
GRIDFORMAT
  1
GRIDFORMAT_BEGIN
 90
        0
 91
        1
 62
     0
 92
       -2
340
14
 93
        0
 40
0.045
309
GRIDFORMAT_END
 95
        8
302
GRIDFORMAT
  1
GRIDFORMAT_BEGIN
 90
        0
 91
        1
 62
     0
 92
       -2
340
14
 93
        0
 40
0.045
309
GRIDFORMAT_END
 95
       16
302
GRIDFORMAT
  1
GRIDFORMAT_BEGIN
 90
        0
 91
        1
 62
     0
 92
       -2
340
14
 93
        0
 40
0.045
309
GRIDFORMAT_END
 95
       32
302
GRIDFORMAT
  1
GRIDFORMAT_BEGIN
 90
        0
 91
        1
 62
     0
 92
       -2
340
14
 93
        0
 40
0.045
309
GRIDFORMAT_END
309
TABLEFORMAT_END
  1
CELLSTYLE_BEGIN
 90
        3
 91
        2
300
_DATA
309
CELLSTYLE_END
  0
XRECORD
  5
138
102
{ACAD_REACTORS
330
137
102
}
330
137
100
AcDbXrecord
280
     1
102
RTVSPropertyOp0
 70
     1
102
RTVSPropertyOp1
 70
     1
102
RTVSPropertyOp2
 70
     1
102
RTVSPropertyOp3
 70
     1
102
RTVSPropertyOp4
 70
     1
102
RTVSPropertyOp5
 70
     1
102
RTVSPropertyOp6
 70
     1
102
RTVSPropertyOp7
 70
     1
102
RTVSPropertyOp8
 70
     1
102
RTVSPropertyOp9
 70
     1
102
RTVSPropertyOp10
 70
     1
102
RTVSPropertyOp11
 70
     1
102
RTVSPropertyOp12
 70
     1
102
RTVSPropertyOp13
 70
     1
102
RTVSPropertyOp14
 70
     1
102
RTVSPropertyOp15
 70
     1
102
RTVSPropertyOp16
 70
     1
102
RTVSPropertyOp17
 70
     1
102
RTVSPropertyOp18
 70
     1
102
RTVSPropertyOp19
 70
     1
102
RTVSPropertyOp20
 70
     1
102
RTVSPropertyOp21
 70
     1
102
RTVSPropertyOp22
 70
     1
102
RTVSPropertyOp23
 70
     1
102
RTVSPropertyOp24
 70
     1
102
RTVSPropertyOp25
 70
     1
102
RTVSPropertyOp26
 70
     1
102
RTVSPropertyOp27
 70
     1
102
RTVSPropertyOp28
 70
     1
102
RTVSPropertyOp29
 70
     1
102
RTVSPropertyOp30
 70
     1
102
RTVSPropertyOp31
 70
     1
102
RTVSPropertyOp32
 70
     1
102
RTVSPropertyOp33
 70
     1
102
RTVSPropertyOp34
 70
     1
102
RTVSPropertyOp35
 70
     1
102
RTVSPropertyOp36
 70
     1
102
RTVSPropertyOp37
 70
     1
102
RTVSPropertyOp38
 70
     1
102
RTVSPropertyOp39
 70
     1
102
RTVSPropertyOp40
 70
     1
102
RTVSPropertyOp41
 70
     1
102
RTVSPropertyOp42
 70
     1
102
RTVSPropertyOp43
 70
     1
102
RTVSPropertyOp44
 70
     1
102
RTVSPropertyOp45
 70
     1
102
RTVSPropertyOp46
 70
     1
102
RTVSPropertyOp47
 70
     1
102
RTVSPropertyOp48
 70
     1
102
RTVSPropertyOp49
 70
     1
102
RTVSPropertyOp50
 70
     1
102
RTVSPropertyOp51
 70
     0
102
RTVSPropertyOp52
 70
     0
102
RTVSPropertyOp53
 70
     1
102
RTVSPropertyOp54
 70
     1
102
RTVSPropertyOp55
 70
     1
102
RTVSPropertyOp56
 70
     1
102
RTVSPropertyOp57
 70
     1
102
RTVSPost2010Prop28
280
     1
102
RTVSPost2010PropOp28
 70
     1
102
RTVSPost2010Prop29
280
     1
102
RTVSPost2010PropOp29
 70
     1
102
RTVSPost2010Prop30
280
     0
102
RTVSPost2010PropOp30
 70
     1
102
RTVSPost2010Prop31
280
     0
102
RTVSPost2010PropOp31
 70
     1
102
RTVSPost2010Prop32
280
     0
102
RTVSPost2010PropOp32
 70
     1
102
RTVSPost2010Prop33
280
     0
102
RTVSPost2010PropOp33
 70
     1
102
RTVSPost2010Prop34
280
     0
102
RTVSPost2010PropOp34
 70
     1
102
RTVSPost2010Prop35
280
     0
102
RTVSPost2010PropOp35
 70
     1
102
RTVSPost2010Prop36
280
     0
102
RTVSPost2010PropOp36
 70
     1
102
RTVSPost2010Prop37
 90
       50
102
RTVSPost2010PropOp37
 70
     1
102
RTVSPost2010Prop38
140
0.0
102
RTVSPost2010PropOp38
 70
     1
102
RTVSPost2010Prop39
140
1.0
102
RTVSPost2010PropOp39
 70
     1
102
RTVSPost2010Prop40
 90
        0
102
RTVSPost2010PropOp40
 70
     1
102
RTVSPost2010Prop41ColorIndex
 90
       18
102
RTVSPost2010Prop41ColorRGB
 90
        0
102
RTVSPost2010PropOp41
 70
     1
102
RTVSPost2010Prop42
 90
       50
102
RTVSPost2010PropOp42
 70
     1
102
RTVSPost2010Prop43
 90
        3
102
RTVSPost2010PropOp43
 70
     1
102
RTVSPost2010Prop44ColorIndex
 90
        5
102
RTVSPost2010Prop44ColorRGB
 90
      255
102
RTVSPost2010PropOp44
 70
     1
102
RTVSPost2010Prop45
280
     0
102
RTVSPost2010PropOp45
 70
     1
102
RTVSPost2010Prop46
 90
       50
102
RTVSPost2010PropOp46
 70
     1
102
RTVSPost2010Prop47
 90
       50
102
RTVSPost2010PropOp47
 70
     1
102
RTVSPost2010Prop48
 90
       50
102
RTVSPost2010PropOp48
 70
     1
102
RTVSPost2010Prop49
280
     0
102
RTVSPost2010PropOp49
 70
     1
102
RTVSPost2010Prop50
 90
       50
102
RTVSPost2010PropOp50
 70
     1
102
RTVSPost2010Prop51ColorIndex
 90
      256
102
RTVSPost2010Prop51ColorRGB
 90
-16777216
102
RTVSPost2010PropOp51
 70
     0
102
RTVSPost2010Prop52
140
1.0
102
RTVSPost2010PropOp52
 70
     0
102
RTVSPost2010Prop53
 90
        2
102
RTVSPost2010PropOp53
 70
     1
102
RTVSPost2010Prop54
  1
strokes_ogs.tif
102
RTVSPost2010PropOp54
 70
     1
102
RTVSPost2010Prop55
280
     0
102
RTVSPost2010PropOp55
 70
     1
102
RTVSPost2010Prop56
140
1.0
102
RTVSPost2010PropOp56
 70
     1
102
RTVSPost2010Prop57
140
1.0
102
RTVSPost2010PropOp57
 70
     1
  0
XRECORD
  5
13E
102
{ACAD_REACTORS
330
13D
102
}
330
13D
100
AcDbXrecord
280
     1
102
RTVSPropertyOp0
 70
     1
102
RTVSPropertyOp1
 70
     1
102
RTVSPropertyOp2
 70
     1
102
RTVSPropertyOp3
 70
     1
102
RTVSPropertyOp4
 70
     1
102
RTVSPropertyOp5
 70
     1
102
RTVSPropertyOp6
 70
     1
102
RTVSPropertyOp7
 70
     1
102
RTVSPropertyOp8
 70
     1
102
RTVSPropertyOp9
 70
     1
102
RTVSPropertyOp10
 70
     1
102
RTVSPropertyOp11
 70
     1
102
RTVSPropertyOp12
 70
     1
102
RTVSPropertyOp13
 70
     1
102
RTVSPropertyOp14
 70
     1
102
RTVSPropertyOp15
 70
     1
102
RTVSPropertyOp16
 70
     1
102
RTVSPropertyOp17
 70
     1
102
RTVSPropertyOp18
 70
     1
102
RTVSPropertyOp19
 70
     1
102
RTVSPropertyOp20
 70
     1
102
RTVSPropertyOp21
 70
     1
102
RTVSPropertyOp22
 70
     1
102
RTVSPropertyOp23
 70
     1
102
RTVSPropertyOp24
 70
     1
102
RTVSPropertyOp25
 70
     1
102
RTVSPropertyOp26
 70
     1
102
RTVSPropertyOp27
 70
     1
102
RTVSPropertyOp28
 70
     1
102
RTVSPropertyOp29
 70
     1
102
RTVSPropertyOp30
 70
     1
102
RTVSPropertyOp31
 70
     1
102
RTVSPropertyOp32
 70
     1
102
RTVSPropertyOp33
 70
     1
102
RTVSPropertyOp34
 70
     1
102
RTVSPropertyOp35
 70
     1
102
RTVSPropertyOp36
 70
     1
102
RTVSPropertyOp37
 70
     1
102
RTVSPropertyOp38
 70
     1
102
RTVSPropertyOp39
 70
     1
102
RTVSPropertyOp40
 70
     1
102
RTVSPropertyOp41
 70
     1
102
RTVSPropertyOp42
 70
     1
102
RTVSPropertyOp43
 70
     1
102
RTVSPropertyOp44
 70
     1
102
RTVSPropertyOp45
 70
     1
102
RTVSPropertyOp46
 70
     1
102
RTVSPropertyOp47
 70
     1
102
RTVSPropertyOp48
 70
     1
102
RTVSPropertyOp49
 70
     1
102
RTVSPropertyOp50
 70
     1
102
RTVSPropertyOp51
 70
     0
102
RTVSPropertyOp52
 70
     0
102
RTVSPropertyOp53
 70
     1
102
RTVSPropertyOp54
 70
     1
102
RTVSPropertyOp55
 70
     1
102
RTVSPropertyOp56
 70
     1
102
RTVSPropertyOp57
 70
     1
102
RTVSPost2010Prop28
280
     0
102
RTVSPost2010PropOp28
 70
     1
102
RTVSPost2010Prop29
280
     1
102
RTVSPost2010PropOp29
 70
     1
102
RTVSPost2010Prop30
280
     1
102
RTVSPost2010PropOp30
 70
     1
102
RTVSPost2010Prop31
280
     0
102
RTVSPost2010PropOp31
 70
     1
102
RTVSPost2010Prop32
280
     0
102
RTVSPost2010PropOp32
 70
     1
102
RTVSPost2010Prop33
280
     0
102
RTVSPost2010PropOp33
 70
     1
102
RTVSPost2010Prop34
280
     0
102
RTVSPost2010PropOp34
 70
     1
102
RTVSPost2010Prop35
280
     0
102
RTVSPost2010PropOp35
 70
     1
102
RTVSPost2010Prop36
280
     0
102
RTVSPost2010PropOp36
 70
     1
102
RTVSPost2010Prop37
 90
       50
102
RTVSPost2010PropOp37
 70
     1
102
RTVSPost2010Prop38
140
0.0
102
RTVSPost2010PropOp38
 70
     1
102
RTVSPost2010Prop39
140
1.0
102
RTVSPost2010PropOp39
 70
     1
102
RTVSPost2010Prop40
 90
        0
102
RTVSPost2010PropOp40
 70
     1
102
RTVSPost2010Prop41ColorIndex
 90
       18
102
RTVSPost2010Prop41ColorRGB
 90
        0
102
RTVSPost2010PropOp41
 70
     1
102
RTVSPost2010Prop42
 90
       50
102
RTVSPost2010PropOp42
 70
     1
102
RTVSPost2010Prop43
 90
        3
102
RTVSPost2010PropOp43
 70
     1
102
RTVSPost2010Prop44ColorIndex
 90
        5
102
RTVSPost2010Prop44ColorRGB
 90
      255
102
RTVSPost2010PropOp44
 70
     1
102
RTVSPost2010Prop45
280
     0
102
RTVSPost2010PropOp45
 70
     1
102
RTVSPost2010Prop46
 90
       50
102
RTVSPost2010PropOp46
 70
     1
102
RTVSPost2010Prop47
 90
       50
102
RTVSPost2010PropOp47
 70
     1
102
RTVSPost2010Prop48
 90
       50
102
RTVSPost2010PropOp48
 70
     1
102
RTVSPost2010Prop49
280
     0
102
RTVSPost2010PropOp49
 70
     1
102
RTVSPost2010Prop50
 90
       50
102
RTVSPost2010PropOp50
 70
     1
102
RTVSPost2010Prop51ColorIndex
 90
      256
102
RTVSPost2010Prop51ColorRGB
 90
-16777216
102
RTVSPost2010PropOp51
 70
     0
102
RTVSPost2010Prop52
140
1.0
102
RTVSPost2010PropOp52
 70
     0
102
RTVSPost2010Prop53
 90
        2
102
RTVSPost2010PropOp53
 70
     1
102
RTVSPost2010Prop54
  1
strokes_ogs.tif
102
RTVSPost2010PropOp54
 70
     1
102
RTVSPost2010Prop55
280
     0
102
RTVSPost2010PropOp55
 70
     1
102
RTVSPost2010Prop56
140
1.0
102
RTVSPost2010PropOp56
 70
     1
102
RTVSPost2010Prop57
140
1.0
102
RTVSPost2010PropOp57
 70
     1
  0
XRECORD
  5
146
102
{ACAD_REACTORS
330
145
102
}
330
145
100
AcDbXrecord
280
     1
102
RTVSPropertyOp0
 70
     1
102
RTVSPropertyOp1
 70
     1
102
RTVSPropertyOp2
 70
     1
102
RTVSPropertyOp3
 70
     1
102
RTVSPropertyOp4
 70
     1
102
RTVSPropertyOp5
 70
     1
102
RTVSPropertyOp6
 70
     1
102
RTVSPropertyOp7
 70
     1
102
RTVSPropertyOp8
 70
     1
102
RTVSPropertyOp9
 70
     1
102
RTVSPropertyOp10
 70
     1
102
RTVSPropertyOp11
 70
     1
102
RTVSPropertyOp12
 70
     1
102
RTVSPropertyOp13
 70
     1
102
RTVSPropertyOp14
 70
     1
102
RTVSPropertyOp15
 70
     1
102
RTVSPropertyOp16
 70
     1
102
RTVSPropertyOp17
 70
     1
102
RTVSPropertyOp18
 70
     1
102
RTVSPropertyOp19
 70
     1
102
RTVSPropertyOp20
 70
     1
102
RTVSPropertyOp21
 70
     1
102
RTVSPropertyOp22
 70
     1
102
RTVSPropertyOp23
 70
     1
102
RTVSPropertyOp24
 70
     1
102
RTVSPropertyOp25
 70
     1
102
RTVSPropertyOp26
 70
     1
102
RTVSPropertyOp27
 70
     1
102
RTVSPropertyOp28
 70
     1
102
RTVSPropertyOp29
 70
     1
102
RTVSPropertyOp30
 70
     1
102
RTVSPropertyOp31
 70
     1
102
RTVSPropertyOp32
 70
     1
102
RTVSPropertyOp33
 70
     1
102
RTVSPropertyOp34
 70
     1
102
RTVSPropertyOp35
 70
     1
102
RTVSPropertyOp36
 70
     1
102
RTVSPropertyOp37
 70
     1
102
RTVSPropertyOp38
 70
     1
102
RTVSPropertyOp39
 70
     1
102
RTVSPropertyOp40
 70
     1
102
RTVSPropertyOp41
 70
     1
102
RTVSPropertyOp42
 70
     1
102
RTVSPropertyOp43
 70
     1
102
RTVSPropertyOp44
 70
     1
102
RTVSPropertyOp45
 70
     1
102
RTVSPropertyOp46
 70
     1
102
RTVSPropertyOp47
 70
     1
102
RTVSPropertyOp48
 70
     1
102
RTVSPropertyOp49
 70
     1
102
RTVSPropertyOp50
 70
     1
102
RTVSPropertyOp51
 70
     0
102
RTVSPropertyOp52
 70
     0
102
RTVSPropertyOp53
 70
     1
102
RTVSPropertyOp54
 70
     1
102
RTVSPropertyOp55
 70
     1
102
RTVSPropertyOp56
 70
     1
102
RTVSPropertyOp57
 70
     1
102
RTVSPost2010Prop28
280
     0
102
RTVSPost2010PropOp28
 70
     1
102
RTVSPost2010Prop29
280
     1
102
RTVSPost2010PropOp29
 70
     1
102
RTVSPost2010Prop30
280
     1
102
RTVSPost2010PropOp30
 70
     1
102
RTVSPost2010Prop31
280
     0
102
RTVSPost2010PropOp31
 70
     1
102
RTVSPost2010Prop32
280
     0
102
RTVSPost2010PropOp32
 70
     1
102
RTVSPost2010Prop33
280
     0
102
RTVSPost2010PropOp33
 70
     1
102
RTVSPost2010Prop34
280
     0
102
RTVSPost2010PropOp34
 70
     1
102
RTVSPost2010Prop35
280
     0
102
RTVSPost2010PropOp35
 70
     1
102
RTVSPost2010Prop36
280
     0
102
RTVSPost2010PropOp36
 70
     1
102
RTVSPost2010Prop37
 90
       50
102
RTVSPost2010PropOp37
 70
     1
102
RTVSPost2010Prop38
140
0.0
102
RTVSPost2010PropOp38
 70
     1
102
RTVSPost2010Prop39
140
1.0
102
RTVSPost2010PropOp39
 70
     1
102
RTVSPost2010Prop40
 90
        0
102
RTVSPost2010PropOp40
 70
     1
102
RTVSPost2010Prop41ColorIndex
 90
       18
102
RTVSPost2010Prop41ColorRGB
 90
        0
102
RTVSPost2010PropOp41
 70
     1
102
RTVSPost2010Prop42
 90
       50
102
RTVSPost2010PropOp42
 70
     1
102
RTVSPost2010Prop43
 90
        3
102
RTVSPost2010PropOp43
 70
     1
102
RTVSPost2010Prop44ColorIndex
 90
        5
102
RTVSPost2010Prop44ColorRGB
 90
      255
102
RTVSPost2010PropOp44
 70
     1
102
RTVSPost2010Prop45
280
     0
102
RTVSPost2010PropOp45
 70
     1
102
RTVSPost2010Prop46
 90
       50
102
RTVSPost2010PropOp46
 70
     1
102
RTVSPost2010Prop47
 90
       50
102
RTVSPost2010PropOp47
 70
     1
102
RTVSPost2010Prop48
 90
       50
102
RTVSPost2010PropOp48
 70
     1
102
RTVSPost2010Prop49
280
     0
102
RTVSPost2010PropOp49
 70
     1
102
RTVSPost2010Prop50
 90
       50
102
RTVSPost2010PropOp50
 70
     1
102
RTVSPost2010Prop51ColorIndex
 90
      256
102
RTVSPost2010Prop51ColorRGB
 90
-16777216
102
RTVSPost2010PropOp51
 70
     0
102
RTVSPost2010Prop52
140
1.0
102
RTVSPost2010PropOp52
 70
     0
102
RTVSPost2010Prop53
 90
        2
102
RTVSPost2010PropOp53
 70
     1
102
RTVSPost2010Prop54
  1
strokes_ogs.tif
102
RTVSPost2010PropOp54
 70
     1
102
RTVSPost2010Prop55
280
     0
102
RTVSPost2010PropOp55
 70
     1
102
RTVSPost2010Prop56
140
1.0
102
RTVSPost2010PropOp56
 70
     1
102
RTVSPost2010Prop57
140
1.0
102
RTVSPost2010PropOp57
 70
     1
  0
XRECORD
  5
14E
102
{ACAD_REACTORS
330
14D
102
}
330
14D
100
AcDbXrecord
280
     1
102
RTVSPropertyOp0
 70
     1
102
RTVSPropertyOp1
 70
     1
102
RTVSPropertyOp2
 70
     1
102
RTVSPropertyOp3
 70
     1
102
RTVSPropertyOp4
 70
     1
102
RTVSPropertyOp5
 70
     1
102
RTVSPropertyOp6
 70
     1
102
RTVSPropertyOp7
 70
     1
102
RTVSPropertyOp8
 70
     1
102
RTVSPropertyOp9
 70
     1
102
RTVSPropertyOp10
 70
     1
102
RTVSPropertyOp11
 70
     1
102
RTVSPropertyOp12
 70
     1
102
RTVSPropertyOp13
 70
     1
102
RTVSPropertyOp14
 70
     1
102
RTVSPropertyOp15
 70
     1
102
RTVSPropertyOp16
 70
     1
102
RTVSPropertyOp17
 70
     1
102
RTVSPropertyOp18
 70
     1
102
RTVSPropertyOp19
 70
     1
102
RTVSPropertyOp20
 70
     1
102
RTVSPropertyOp21
 70
     1
102
RTVSPropertyOp22
 70
     1
102
RTVSPropertyOp23
 70
     1
102
RTVSPropertyOp24
 70
     1
102
RTVSPropertyOp25
 70
     1
102
RTVSPropertyOp26
 70
     1
102
RTVSPropertyOp27
 70
     1
102
RTVSPropertyOp28
 70
     1
102
RTVSPropertyOp29
 70
     1
102
RTVSPropertyOp30
 70
     1
102
RTVSPropertyOp31
 70
     1
102
RTVSPropertyOp32
 70
     1
102
RTVSPropertyOp33
 70
     1
102
RTVSPropertyOp34
 70
     1
102
RTVSPropertyOp35
 70
     1
102
RTVSPropertyOp36
 70
     1
102
RTVSPropertyOp37
 70
     1
102
RTVSPropertyOp38
 70
     1
102
RTVSPropertyOp39
 70
     1
102
RTVSPropertyOp40
 70
     1
102
RTVSPropertyOp41
 70
     1
102
RTVSPropertyOp42
 70
     1
102
RTVSPropertyOp43
 70
     1
102
RTVSPropertyOp44
 70
     1
102
RTVSPropertyOp45
 70
     1
102
RTVSPropertyOp46
 70
     1
102
RTVSPropertyOp47
 70
     1
102
RTVSPropertyOp48
 70
     1
102
RTVSPropertyOp49
 70
     1
102
RTVSPropertyOp50
 70
     1
102
RTVSPropertyOp51
 70
     0
102
RTVSPropertyOp52
 70
     0
102
RTVSPropertyOp53
 70
     1
102
RTVSPropertyOp54
 70
     1
102
RTVSPropertyOp55
 70
     1
102
RTVSPropertyOp56
 70
     1
102
RTVSPropertyOp57
 70
     1
102
RTVSPost2010Prop28
280
     0
102
RTVSPost2010PropOp28
 70
     1
102
RTVSPost2010Prop29
280
     1
102
RTVSPost2010PropOp29
 70
     1
102
RTVSPost2010Prop30
280
     1
102
RTVSPost2010PropOp30
 70
     1
102
RTVSPost2010Prop31
280
     0
102
RTVSPost2010PropOp31
 70
     1
102
RTVSPost2010Prop32
280
     0
102
RTVSPost2010PropOp32
 70
     1
102
RTVSPost2010Prop33
280
     0
102
RTVSPost2010PropOp33
 70
     1
102
RTVSPost2010Prop34
280
     0
102
RTVSPost2010PropOp34
 70
     1
102
RTVSPost2010Prop35
280
     0
102
RTVSPost2010PropOp35
 70
     1
102
RTVSPost2010Prop36
280
     0
102
RTVSPost2010PropOp36
 70
     1
102
RTVSPost2010Prop37
 90
       50
102
RTVSPost2010PropOp37
 70
     1
102
RTVSPost2010Prop38
140
0.0
102
RTVSPost2010PropOp38
 70
     1
102
RTVSPost2010Prop39
140
1.0
102
RTVSPost2010PropOp39
 70
     1
102
RTVSPost2010Prop40
 90
        0
102
RTVSPost2010PropOp40
 70
     1
102
RTVSPost2010Prop41ColorIndex
 90
       18
102
RTVSPost2010Prop41ColorRGB
 90
        0
102
RTVSPost2010PropOp41
 70
     1
102
RTVSPost2010Prop42
 90
       50
102
RTVSPost2010PropOp42
 70
     1
102
RTVSPost2010Prop43
 90
        3
102
RTVSPost2010PropOp43
 70
     1
102
RTVSPost2010Prop44ColorIndex
 90
        5
102
RTVSPost2010Prop44ColorRGB
 90
      255
102
RTVSPost2010PropOp44
 70
     1
102
RTVSPost2010Prop45
280
     0
102
RTVSPost2010PropOp45
 70
     1
102
RTVSPost2010Prop46
 90
       50
102
RTVSPost2010PropOp46
 70
     1
102
RTVSPost2010Prop47
 90
       50
102
RTVSPost2010PropOp47
 70
     1
102
RTVSPost2010Prop48
 90
       50
102
RTVSPost2010PropOp48
 70
     1
102
RTVSPost2010Prop49
280
     0
102
RTVSPost2010PropOp49
 70
     1
102
RTVSPost2010Prop50
 90
       50
102
RTVSPost2010PropOp50
 70
     1
102
RTVSPost2010Prop51ColorIndex
 90
      256
102
RTVSPost2010Prop51ColorRGB
 90
-16777216
102
RTVSPost2010PropOp51
 70
     0
102
RTVSPost2010Prop52
140
1.0
102
RTVSPost2010PropOp52
 70
     0
102
RTVSPost2010Prop53
 90
        2
102
RTVSPost2010PropOp53
 70
     1
102
RTVSPost2010Prop54
  1
strokes_ogs.tif
102
RTVSPost2010PropOp54
 70
     1
102
RTVSPost2010Prop55
280
     0
102
RTVSPost2010PropOp55
 70
     1
102
RTVSPost2010Prop56
140
1.0
102
RTVSPost2010PropOp56
 70
     1
102
RTVSPost2010Prop57
140
1.0
102
RTVSPost2010PropOp57
 70
     1
  0
XRECORD
  5
142
102
{ACAD_REACTORS
330
141
102
}
330
141
100
AcDbXrecord
280
     1
102
RTVSPropertyOp0
 70
     1
102
RTVSPropertyOp1
 70
     1
102
RTVSPropertyOp2
 70
     1
102
RTVSPropertyOp3
 70
     1
102
RTVSPropertyOp4
 70
     1
102
RTVSPropertyOp5
 70
     1
102
RTVSPropertyOp6
 70
     1
102
RTVSPropertyOp7
 70
     1
102
RTVSPropertyOp8
 70
     1
102
RTVSPropertyOp9
 70
     1
102
RTVSPropertyOp10
 70
     1
102
RTVSPropertyOp11
 70
     1
102
RTVSPropertyOp12
 70
     1
102
RTVSPropertyOp13
 70
     1
102
RTVSPropertyOp14
 70
     1
102
RTVSPropertyOp15
 70
     1
102
RTVSPropertyOp16
 70
     1
102
RTVSPropertyOp17
 70
     1
102
RTVSPropertyOp18
 70
     1
102
RTVSPropertyOp19
 70
     1
102
RTVSPropertyOp20
 70
     1
102
RTVSPropertyOp21
 70
     1
102
RTVSPropertyOp22
 70
     1
102
RTVSPropertyOp23
 70
     1
102
RTVSPropertyOp24
 70
     1
102
RTVSPropertyOp25
 70
     1
102
RTVSPropertyOp26
 70
     1
102
RTVSPropertyOp27
 70
     1
102
RTVSPropertyOp28
 70
     1
102
RTVSPropertyOp29
 70
     1
102
RTVSPropertyOp30
 70
     1
102
RTVSPropertyOp31
 70
     1
102
RTVSPropertyOp32
 70
     1
102
RTVSPropertyOp33
 70
     1
102
RTVSPropertyOp34
 70
     1
102
RTVSPropertyOp35
 70
     1
102
RTVSPropertyOp36
 70
     1
102
RTVSPropertyOp37
 70
     1
102
RTVSPropertyOp38
 70
     1
102
RTVSPropertyOp39
 70
     1
102
RTVSPropertyOp40
 70
     1
102
RTVSPropertyOp41
 70
     1
102
RTVSPropertyOp42
 70
     1
102
RTVSPropertyOp43
 70
     1
102
RTVSPropertyOp44
 70
     1
102
RTVSPropertyOp45
 70
     1
102
RTVSPropertyOp46
 70
     1
102
RTVSPropertyOp47
 70
     1
102
RTVSPropertyOp48
 70
     1
102
RTVSPropertyOp49
 70
     1
102
RTVSPropertyOp50
 70
     1
102
RTVSPropertyOp51
 70
     0
102
RTVSPropertyOp52
 70
     0
102
RTVSPropertyOp53
 70
     1
102
RTVSPropertyOp54
 70
     1
102
RTVSPropertyOp55
 70
     1
102
RTVSPropertyOp56
 70
     1
102
RTVSPropertyOp57
 70
     1
102
RTVSPost2010Prop28
280
     0
102
RTVSPost2010PropOp28
 70
     1
102
RTVSPost2010Prop29
280
     1
102
RTVSPost2010PropOp29
 70
     1
102
RTVSPost2010Prop30
280
     1
102
RTVSPost2010PropOp30
 70
     1
102
RTVSPost2010Prop31
280
     0
102
RTVSPost2010PropOp31
 70
     1
102
RTVSPost2010Prop32
280
     0
102
RTVSPost2010PropOp32
 70
     1
102
RTVSPost2010Prop33
280
     0
102
RTVSPost2010PropOp33
 70
     1
102
RTVSPost2010Prop34
280
     0
102
RTVSPost2010PropOp34
 70
     1
102
RTVSPost2010Prop35
280
     0
102
RTVSPost2010PropOp35
 70
     1
102
RTVSPost2010Prop36
280
     0
102
RTVSPost2010PropOp36
 70
     1
102
RTVSPost2010Prop37
 90
       50
102
RTVSPost2010PropOp37
 70
     1
102
RTVSPost2010Prop38
140
0.0
102
RTVSPost2010PropOp38
 70
     1
102
RTVSPost2010Prop39
140
1.0
102
RTVSPost2010PropOp39
 70
     1
102
RTVSPost2010Prop40
 90
        0
102
RTVSPost2010PropOp40
 70
     1
102
RTVSPost2010Prop41ColorIndex
 90
       18
102
RTVSPost2010Prop41ColorRGB
 90
        0
102
RTVSPost2010PropOp41
 70
     1
102
RTVSPost2010Prop42
 90
       50
102
RTVSPost2010PropOp42
 70
     1
102
RTVSPost2010Prop43
 90
        3
102
RTVSPost2010PropOp43
 70
     1
102
RTVSPost2010Prop44ColorIndex
 90
        5
102
RTVSPost2010Prop44ColorRGB
 90
      255
102
RTVSPost2010PropOp44
 70
     1
102
RTVSPost2010Prop45
280
     0
102
RTVSPost2010PropOp45
 70
     1
102
RTVSPost2010Prop46
 90
       50
102
RTVSPost2010PropOp46
 70
     1
102
RTVSPost2010Prop47
 90
       50
102
RTVSPost2010PropOp47
 70
     1
102
RTVSPost2010Prop48
 90
       50
102
RTVSPost2010PropOp48
 70
     1
102
RTVSPost2010Prop49
280
     0
102
RTVSPost2010PropOp49
 70
     1
102
RTVSPost2010Prop50
 90
       50
102
RTVSPost2010PropOp50
 70
     1
102
RTVSPost2010Prop51ColorIndex
 90
      256
102
RTVSPost2010Prop51ColorRGB
 90
-16777216
102
RTVSPost2010PropOp51
 70
     0
102
RTVSPost2010Prop52
140
1.0
102
RTVSPost2010PropOp52
 70
     0
102
RTVSPost2010Prop53
 90
        2
102
RTVSPost2010PropOp53
 70
     1
102
RTVSPost2010Prop54
  1
strokes_ogs.tif
102
RTVSPost2010PropOp54
 70
     1
102
RTVSPost2010Prop55
280
     0
102
RTVSPost2010PropOp55
 70
     1
102
RTVSPost2010Prop56
140
1.0
102
RTVSPost2010PropOp56
 70
     1
102
RTVSPost2010Prop57
140
1.0
102
RTVSPost2010PropOp57
 70
     1
  0
XRECORD
  5
144
102
{ACAD_REACTORS
330
143
102
}
330
143
100
AcDbXrecord
280
     1
102
RTVSPropertyOp0
 70
     1
102
RTVSPropertyOp1
 70
     1
102
RTVSPropertyOp2
 70
     1
102
RTVSPropertyOp3
 70
     1
102
RTVSPropertyOp4
 70
     1
102
RTVSPropertyOp5
 70
     1
102
RTVSPropertyOp6
 70
     1
102
RTVSPropertyOp7
 70
     1
102
RTVSPropertyOp8
 70
     1
102
RTVSPropertyOp9
 70
     1
102
RTVSPropertyOp10
 70
     1
102
RTVSPropertyOp11
 70
     1
102
RTVSPropertyOp12
 70
     1
102
RTVSPropertyOp13
 70
     1
102
RTVSPropertyOp14
 70
     1
102
RTVSPropertyOp15
 70
     1
102
RTVSPropertyOp16
 70
     1
102
RTVSPropertyOp17
 70
     1
102
RTVSPropertyOp18
 70
     1
102
RTVSPropertyOp19
 70
     1
102
RTVSPropertyOp20
 70
     1
102
RTVSPropertyOp21
 70
     1
102
RTVSPropertyOp22
 70
     1
102
RTVSPropertyOp23
 70
     1
102
RTVSPropertyOp24
 70
     1
102
RTVSPropertyOp25
 70
     1
102
RTVSPropertyOp26
 70
     1
102
RTVSPropertyOp27
 70
     1
102
RTVSPropertyOp28
 70
     1
102
RTVSPropertyOp29
 70
     1
102
RTVSPropertyOp30
 70
     1
102
RTVSPropertyOp31
 70
     1
102
RTVSPropertyOp32
 70
     1
102
RTVSPropertyOp33
 70
     1
102
RTVSPropertyOp34
 70
     1
102
RTVSPropertyOp35
 70
     1
102
RTVSPropertyOp36
 70
     1
102
RTVSPropertyOp37
 70
     1
102
RTVSPropertyOp38
 70
     1
102
RTVSPropertyOp39
 70
     1
102
RTVSPropertyOp40
 70
     1
102
RTVSPropertyOp41
 70
     1
102
RTVSPropertyOp42
 70
     1
102
RTVSPropertyOp43
 70
     1
102
RTVSPropertyOp44
 70
     1
102
RTVSPropertyOp45
 70
     1
102
RTVSPropertyOp46
 70
     1
102
RTVSPropertyOp47
 70
     1
102
RTVSPropertyOp48
 70
     1
102
RTVSPropertyOp49
 70
     1
102
RTVSPropertyOp50
 70
     1
102
RTVSPropertyOp51
 70
     0
102
RTVSPropertyOp52
 70
     0
102
RTVSPropertyOp53
 70
     1
102
RTVSPropertyOp54
 70
     1
102
RTVSPropertyOp55
 70
     1
102
RTVSPropertyOp56
 70
     1
102
RTVSPropertyOp57
 70
     1
102
RTVSPost2010Prop28
280
     0
102
RTVSPost2010PropOp28
 70
     1
102
RTVSPost2010Prop29
280
     1
102
RTVSPost2010PropOp29
 70
     1
102
RTVSPost2010Prop30
280
     1
102
RTVSPost2010PropOp30
 70
     1
102
RTVSPost2010Prop31
280
     0
102
RTVSPost2010PropOp31
 70
     1
102
RTVSPost2010Prop32
280
     0
102
RTVSPost2010PropOp32
 70
     1
102
RTVSPost2010Prop33
280
     0
102
RTVSPost2010PropOp33
 70
     1
102
RTVSPost2010Prop34
280
     0
102
RTVSPost2010PropOp34
 70
     1
102
RTVSPost2010Prop35
280
     0
102
RTVSPost2010PropOp35
 70
     1
102
RTVSPost2010Prop36
280
     0
102
RTVSPost2010PropOp36
 70
     1
102
RTVSPost2010Prop37
 90
       50
102
RTVSPost2010PropOp37
 70
     1
102
RTVSPost2010Prop38
140
0.0
102
RTVSPost2010PropOp38
 70
     1
102
RTVSPost2010Prop39
140
1.0
102
RTVSPost2010PropOp39
 70
     1
102
RTVSPost2010Prop40
 90
        0
102
RTVSPost2010PropOp40
 70
     1
102
RTVSPost2010Prop41ColorIndex
 90
       18
102
RTVSPost2010Prop41ColorRGB
 90
        0
102
RTVSPost2010PropOp41
 70
     1
102
RTVSPost2010Prop42
 90
       50
102
RTVSPost2010PropOp42
 70
     1
102
RTVSPost2010Prop43
 90
        3
102
RTVSPost2010PropOp43
 70
     1
102
RTVSPost2010Prop44ColorIndex
 90
        5
102
RTVSPost2010Prop44ColorRGB
 90
      255
102
RTVSPost2010PropOp44
 70
     1
102
RTVSPost2010Prop45
280
     0
102
RTVSPost2010PropOp45
 70
     1
102
RTVSPost2010Prop46
 90
       50
102
RTVSPost2010PropOp46
 70
     1
102
RTVSPost2010Prop47
 90
       50
102
RTVSPost2010PropOp47
 70
     1
102
RTVSPost2010Prop48
 90
       50
102
RTVSPost2010PropOp48
 70
     1
102
RTVSPost2010Prop49
280
     0
102
RTVSPost2010PropOp49
 70
     1
102
RTVSPost2010Prop50
 90
       50
102
RTVSPost2010PropOp50
 70
     1
102
RTVSPost2010Prop51ColorIndex
 90
      256
102
RTVSPost2010Prop51ColorRGB
 90
-16777216
102
RTVSPost2010PropOp51
 70
     0
102
RTVSPost2010Prop52
140
1.0
102
RTVSPost2010PropOp52
 70
     0
102
RTVSPost2010Prop53
 90
        2
102
RTVSPost2010PropOp53
 70
     1
102
RTVSPost2010Prop54
  1
strokes_ogs.tif
102
RTVSPost2010PropOp54
 70
     1
102
RTVSPost2010Prop55
280
     0
102
RTVSPost2010PropOp55
 70
     1
102
RTVSPost2010Prop56
140
1.0
102
RTVSPost2010PropOp56
 70
     1
102
RTVSPost2010Prop57
140
1.0
102
RTVSPost2010PropOp57
 70
     1
  0
XRECORD
  5
154
102
{ACAD_REACTORS
330
153
102
}
330
153
100
AcDbXrecord
280
     1
102
RTVSPropertyOp0
 70
     0
102
RTVSPropertyOp1
 70
     0
102
RTVSPropertyOp2
 70
     0
102
RTVSPropertyOp3
 70
     0
102
RTVSPropertyOp4
 70
     0
102
RTVSPropertyOp5
 70
     0
102
RTVSPropertyOp6
 70
     0
102
RTVSPropertyOp7
 70
     0
102
RTVSPropertyOp8
 70
     0
102
RTVSPropertyOp9
 70
     0
102
RTVSPropertyOp10
 70
     0
102
RTVSPropertyOp11
 70
     0
102
RTVSPropertyOp12
 70
     0
102
RTVSPropertyOp13
 70
     0
102
RTVSPropertyOp14
 70
     2
102
RTVSPropertyOp15
 70
     0
102
RTVSPropertyOp16
 70
     0
102
RTVSPropertyOp17
 70
     0
102
RTVSPropertyOp18
 70
     0
102
RTVSPropertyOp19
 70
     0
102
RTVSPropertyOp20
 70
     0
102
RTVSPropertyOp21
 70
     0
102
RTVSPropertyOp22
 70
     0
102
RTVSPropertyOp23
 70
     0
102
RTVSPropertyOp24
 70
     0
102
RTVSPropertyOp25
 70
     0
102
RTVSPropertyOp26
 70
     0
102
RTVSPropertyOp27
 70
     0
102
RTVSPropertyOp28
 70
     0
102
RTVSPropertyOp29
 70
     0
102
RTVSPropertyOp30
 70
     0
102
RTVSPropertyOp31
 70
     0
102
RTVSPropertyOp32
 70
     0
102
RTVSPropertyOp33
 70
     0
102
RTVSPropertyOp34
 70
     0
102
RTVSPropertyOp35
 70
     0
102
RTVSPropertyOp36
 70
     0
102
RTVSPropertyOp37
 70
     0
102
RTVSPropertyOp38
 70
     0
102
RTVSPropertyOp39
 70
     0
102
RTVSPropertyOp40
 70
     0
102
RTVSPropertyOp41
 70
     0
102
RTVSPropertyOp42
 70
     0
102
RTVSPropertyOp43
 70
     0
102
RTVSPropertyOp44
 70
     0
102
RTVSPropertyOp45
 70
     0
102
RTVSPropertyOp46
 70
     0
102
RTVSPropertyOp47
 70
     0
102
RTVSPropertyOp48
 70
     0
102
RTVSPropertyOp49
 70
     0
102
RTVSPropertyOp50
 70
     0
102
RTVSPropertyOp51
 70
     0
102
RTVSPropertyOp52
 70
     0
102
RTVSPropertyOp53
 70
     0
102
RTVSPropertyOp54
 70
     0
102
RTVSPropertyOp55
 70
     0
102
RTVSPropertyOp56
 70
     0
102
RTVSPropertyOp57
 70
     0
102
RTVSPost2010Prop28
280
     0
102
RTVSPost2010PropOp28
 70
     0
102
RTVSPost2010Prop29
280
     1
102
RTVSPost2010PropOp29
 70
     0
102
RTVSPost2010Prop30
280
     1
102
RTVSPost2010PropOp30
 70
     0
102
RTVSPost2010Prop31
280
     0
102
RTVSPost2010PropOp31
 70
     0
102
RTVSPost2010Prop32
280
     0
102
RTVSPost2010PropOp32
 70
     0
102
RTVSPost2010Prop33
280
     0
102
RTVSPost2010PropOp33
 70
     0
102
RTVSPost2010Prop34
280
     0
102
RTVSPost2010PropOp34
 70
     0
102
RTVSPost2010Prop35
280
     0
102
RTVSPost2010PropOp35
 70
     0
102
RTVSPost2010Prop36
280
     0
102
RTVSPost2010PropOp36
 70
     0
102
RTVSPost2010Prop37
 90
       50
102
RTVSPost2010PropOp37
 70
     0
102
RTVSPost2010Prop38
140
0.0
102
RTVSPost2010PropOp38
 70
     0
102
RTVSPost2010Prop39
140
1.0
102
RTVSPost2010PropOp39
 70
     0
102
RTVSPost2010Prop40
 90
        0
102
RTVSPost2010PropOp40
 70
     0
102
RTVSPost2010Prop41ColorIndex
 90
       18
102
RTVSPost2010Prop41ColorRGB
 90
        0
102
RTVSPost2010PropOp41
 70
     0
102
RTVSPost2010Prop42
 90
       50
102
RTVSPost2010PropOp42
 70
     0
102
RTVSPost2010Prop43
 90
        3
102
RTVSPost2010PropOp43
 70
     0
102
RTVSPost2010Prop44ColorIndex
 90
        5
102
RTVSPost2010Prop44ColorRGB
 90
      255
102
RTVSPost2010PropOp44
 70
     0
102
RTVSPost2010Prop45
280
     0
102
RTVSPost2010PropOp45
 70
     0
102
RTVSPost2010Prop46
 90
       50
102
RTVSPost2010PropOp46
 70
     0
102
RTVSPost2010Prop47
 90
       50
102
RTVSPost2010PropOp47
 70
     0
102
RTVSPost2010Prop48
 90
       50
102
RTVSPost2010PropOp48
 70
     0
102
RTVSPost2010Prop49
280
     0
102
RTVSPost2010PropOp49
 70
     0
102
RTVSPost2010Prop50
 90
       50
102
RTVSPost2010PropOp50
 70
     0
102
RTVSPost2010Prop51ColorIndex
 90
      256
102
RTVSPost2010Prop51ColorRGB
 90
-16777216
102
RTVSPost2010PropOp51
 70
     0
102
RTVSPost2010Prop52
140
1.0
102
RTVSPost2010PropOp52
 70
     0
102
RTVSPost2010Prop53
 90
        2
102
RTVSPost2010PropOp53
 70
     0
102
RTVSPost2010Prop54
  1
strokes_ogs.tif
102
RTVSPost2010PropOp54
 70
     0
102
RTVSPost2010Prop55
280
     0
102
RTVSPost2010PropOp55
 70
     0
102
RTVSPost2010Prop56
140
1.0
102
RTVSPost2010PropOp56
 70
     0
102
RTVSPost2010Prop57
140
1.0
102
RTVSPost2010PropOp57
 70
     0
  0
XRECORD
  5
14C
102
{ACAD_REACTORS
330
14B
102
}
330
14B
100
AcDbXrecord
280
     1
102
RTVSPropertyOp0
 70
     1
102
RTVSPropertyOp1
 70
     1
102
RTVSPropertyOp2
 70
     1
102
RTVSPropertyOp3
 70
     1
102
RTVSPropertyOp4
 70
     1
102
RTVSPropertyOp5
 70
     1
102
RTVSPropertyOp6
 70
     1
102
RTVSPropertyOp7
 70
     1
102
RTVSPropertyOp8
 70
     1
102
RTVSPropertyOp9
 70
     1
102
RTVSPropertyOp10
 70
     1
102
RTVSPropertyOp11
 70
     1
102
RTVSPropertyOp12
 70
     1
102
RTVSPropertyOp13
 70
     1
102
RTVSPropertyOp14
 70
     1
102
RTVSPropertyOp15
 70
     1
102
RTVSPropertyOp16
 70
     1
102
RTVSPropertyOp17
 70
     1
102
RTVSPropertyOp18
 70
     1
102
RTVSPropertyOp19
 70
     1
102
RTVSPropertyOp20
 70
     1
102
RTVSPropertyOp21
 70
     1
102
RTVSPropertyOp22
 70
     1
102
RTVSPropertyOp23
 70
     1
102
RTVSPropertyOp24
 70
     1
102
RTVSPropertyOp25
 70
     1
102
RTVSPropertyOp26
 70
     1
102
RTVSPropertyOp27
 70
     1
102
RTVSPropertyOp28
 70
     1
102
RTVSPropertyOp29
 70
     1
102
RTVSPropertyOp30
 70
     1
102
RTVSPropertyOp31
 70
     1
102
RTVSPropertyOp32
 70
     1
102
RTVSPropertyOp33
 70
     1
102
RTVSPropertyOp34
 70
     1
102
RTVSPropertyOp35
 70
     1
102
RTVSPropertyOp36
 70
     1
102
RTVSPropertyOp37
 70
     1
102
RTVSPropertyOp38
 70
     1
102
RTVSPropertyOp39
 70
     1
102
RTVSPropertyOp40
 70
     1
102
RTVSPropertyOp41
 70
     1
102
RTVSPropertyOp42
 70
     1
102
RTVSPropertyOp43
 70
     1
102
RTVSPropertyOp44
 70
     1
102
RTVSPropertyOp45
 70
     1
102
RTVSPropertyOp46
 70
     1
102
RTVSPropertyOp47
 70
     1
102
RTVSPropertyOp48
 70
     1
102
RTVSPropertyOp49
 70
     1
102
RTVSPropertyOp50
 70
     1
102
RTVSPropertyOp51
 70
     0
102
RTVSPropertyOp52
 70
     0
102
RTVSPropertyOp53
 70
     1
102
RTVSPropertyOp54
 70
     1
102
RTVSPropertyOp55
 70
     1
102
RTVSPropertyOp56
 70
     1
102
RTVSPropertyOp57
 70
     1
102
RTVSPost2010Prop28
280
     0
102
RTVSPost2010PropOp28
 70
     1
102
RTVSPost2010Prop29
280
     1
102
RTVSPost2010PropOp29
 70
     1
102
RTVSPost2010Prop30
280
     1
102
RTVSPost2010PropOp30
 70
     1
102
RTVSPost2010Prop31
280
     0
102
RTVSPost2010PropOp31
 70
     1
102
RTVSPost2010Prop32
280
     0
102
RTVSPost2010PropOp32
 70
     1
102
RTVSPost2010Prop33
280
     0
102
RTVSPost2010PropOp33
 70
     1
102
RTVSPost2010Prop34
280
     0
102
RTVSPost2010PropOp34
 70
     1
102
RTVSPost2010Prop35
280
     0
102
RTVSPost2010PropOp35
 70
     1
102
RTVSPost2010Prop36
280
     0
102
RTVSPost2010PropOp36
 70
     1
102
RTVSPost2010Prop37
 90
       50
102
RTVSPost2010PropOp37
 70
     1
102
RTVSPost2010Prop38
140
0.0
102
RTVSPost2010PropOp38
 70
     1
102
RTVSPost2010Prop39
140
1.0
102
RTVSPost2010PropOp39
 70
     1
102
RTVSPost2010Prop40
 90
        0
102
RTVSPost2010PropOp40
 70
     1
102
RTVSPost2010Prop41ColorIndex
 90
       18
102
RTVSPost2010Prop41ColorRGB
 90
        0
102
RTVSPost2010PropOp41
 70
     1
102
RTVSPost2010Prop42
 90
       50
102
RTVSPost2010PropOp42
 70
     1
102
RTVSPost2010Prop43
 90
        3
102
RTVSPost2010PropOp43
 70
     1
102
RTVSPost2010Prop44ColorIndex
 90
        5
102
RTVSPost2010Prop44ColorRGB
 90
      255
102
RTVSPost2010PropOp44
 70
     1
102
RTVSPost2010Prop45
280
     0
102
RTVSPost2010PropOp45
 70
     1
102
RTVSPost2010Prop46
 90
       50
102
RTVSPost2010PropOp46
 70
     1
102
RTVSPost2010Prop47
 90
       50
102
RTVSPost2010PropOp47
 70
     1
102
RTVSPost2010Prop48
 90
       50
102
RTVSPost2010PropOp48
 70
     1
102
RTVSPost2010Prop49
280
     0
102
RTVSPost2010PropOp49
 70
     1
102
RTVSPost2010Prop50
 90
       50
102
RTVSPost2010PropOp50
 70
     1
102
RTVSPost2010Prop51ColorIndex
 90
      256
102
RTVSPost2010Prop51ColorRGB
 90
-16777216
102
RTVSPost2010PropOp51
 70
     0
102
RTVSPost2010Prop52
140
1.0
102
RTVSPost2010PropOp52
 70
     0
102
RTVSPost2010Prop53
 90
        2
102
RTVSPost2010PropOp53
 70
     1
102
RTVSPost2010Prop54
  1
strokes_ogs.tif
102
RTVSPost2010PropOp54
 70
     1
102
RTVSPost2010Prop55
280
     0
102
RTVSPost2010PropOp55
 70
     1
102
RTVSPost2010Prop56
140
1.0
102
RTVSPost2010PropOp56
 70
     1
102
RTVSPost2010Prop57
140
1.0
102
RTVSPost2010PropOp57
 70
     1
  0
XRECORD
  5
130
102
{ACAD_REACTORS
330
12F
102
}
330
12F
100
AcDbXrecord
280
     1
102
RTVSPropertyOp0
 70
     1
102
RTVSPropertyOp1
 70
     1
102
RTVSPropertyOp2
 70
     1
102
RTVSPropertyOp3
 70
     1
102
RTVSPropertyOp4
 70
     1
102
RTVSPropertyOp5
 70
     1
102
RTVSPropertyOp6
 70
     1
102
RTVSPropertyOp7
 70
     1
102
RTVSPropertyOp8
 70
     1
102
RTVSPropertyOp9
 70
     1
102
RTVSPropertyOp10
 70
     1
102
RTVSPropertyOp11
 70
     1
102
RTVSPropertyOp12
 70
     1
102
RTVSPropertyOp13
 70
     1
102
RTVSPropertyOp14
 70
     1
102
RTVSPropertyOp15
 70
     1
102
RTVSPropertyOp16
 70
     1
102
RTVSPropertyOp17
 70
     1
102
RTVSPropertyOp18
 70
     1
102
RTVSPropertyOp19
 70
     1
102
RTVSPropertyOp20
 70
     1
102
RTVSPropertyOp21
 70
     1
102
RTVSPropertyOp22
 70
     1
102
RTVSPropertyOp23
 70
     1
102
RTVSPropertyOp24
 70
     1
102
RTVSPropertyOp25
 70
     1
102
RTVSPropertyOp26
 70
     1
102
RTVSPropertyOp27
 70
     1
102
RTVSPropertyOp28
 70
     1
102
RTVSPropertyOp29
 70
     1
102
RTVSPropertyOp30
 70
     1
102
RTVSPropertyOp31
 70
     1
102
RTVSPropertyOp32
 70
     1
102
RTVSPropertyOp33
 70
     1
102
RTVSPropertyOp34
 70
     1
102
RTVSPropertyOp35
 70
     1
102
RTVSPropertyOp36
 70
     1
102
RTVSPropertyOp37
 70
     1
102
RTVSPropertyOp38
 70
     1
102
RTVSPropertyOp39
 70
     1
102
RTVSPropertyOp40
 70
     1
102
RTVSPropertyOp41
 70
     1
102
RTVSPropertyOp42
 70
     1
102
RTVSPropertyOp43
 70
     1
102
RTVSPropertyOp44
 70
     1
102
RTVSPropertyOp45
 70
     1
102
RTVSPropertyOp46
 70
     1
102
RTVSPropertyOp47
 70
     1
102
RTVSPropertyOp48
 70
     1
102
RTVSPropertyOp49
 70
     1
102
RTVSPropertyOp50
 70
     1
102
RTVSPropertyOp51
 70
     0
102
RTVSPropertyOp52
 70
     0
102
RTVSPropertyOp53
 70
     1
102
RTVSPropertyOp54
 70
     1
102
RTVSPropertyOp55
 70
     1
102
RTVSPropertyOp56
 70
     1
102
RTVSPropertyOp57
 70
     1
102
RTVSPost2010Prop28
280
     0
102
RTVSPost2010PropOp28
 70
     1
102
RTVSPost2010Prop29
280
     1
102
RTVSPost2010PropOp29
 70
     1
102
RTVSPost2010Prop30
280
     1
102
RTVSPost2010PropOp30
 70
     1
102
RTVSPost2010Prop31
280
     0
102
RTVSPost2010PropOp31
 70
     1
102
RTVSPost2010Prop32
280
     0
102
RTVSPost2010PropOp32
 70
     1
102
RTVSPost2010Prop33
280
     0
102
RTVSPost2010PropOp33
 70
     1
102
RTVSPost2010Prop34
280
     0
102
RTVSPost2010PropOp34
 70
     1
102
RTVSPost2010Prop35
280
     0
102
RTVSPost2010PropOp35
 70
     1
102
RTVSPost2010Prop36
280
     0
102
RTVSPost2010PropOp36
 70
     1
102
RTVSPost2010Prop37
 90
       50
102
RTVSPost2010PropOp37
 70
     1
102
RTVSPost2010Prop38
140
0.0
102
RTVSPost2010PropOp38
 70
     1
102
RTVSPost2010Prop39
140
1.0
102
RTVSPost2010PropOp39
 70
     1
102
RTVSPost2010Prop40
 90
        0
102
RTVSPost2010PropOp40
 70
     1
102
RTVSPost2010Prop41ColorIndex
 90
       18
102
RTVSPost2010Prop41ColorRGB
 90
        0
102
RTVSPost2010PropOp41
 70
     1
102
RTVSPost2010Prop42
 90
       50
102
RTVSPost2010PropOp42
 70
     1
102
RTVSPost2010Prop43
 90
        3
102
RTVSPost2010PropOp43
 70
     1
102
RTVSPost2010Prop44ColorIndex
 90
        5
102
RTVSPost2010Prop44ColorRGB
 90
      255
102
RTVSPost2010PropOp44
 70
     1
102
RTVSPost2010Prop45
280
     0
102
RTVSPost2010PropOp45
 70
     1
102
RTVSPost2010Prop46
 90
       50
102
RTVSPost2010PropOp46
 70
     1
102
RTVSPost2010Prop47
 90
       50
102
RTVSPost2010PropOp47
 70
     1
102
RTVSPost2010Prop48
 90
       50
102
RTVSPost2010PropOp48
 70
     1
102
RTVSPost2010Prop49
280
     0
102
RTVSPost2010PropOp49
 70
     1
102
RTVSPost2010Prop50
 90
       50
102
RTVSPost2010PropOp50
 70
     1
102
RTVSPost2010Prop51ColorIndex
 90
      256
102
RTVSPost2010Prop51ColorRGB
 90
-16777216
102
RTVSPost2010PropOp51
 70
     0
102
RTVSPost2010Prop52
140
1.0
102
RTVSPost2010PropOp52
 70
     0
102
RTVSPost2010Prop53
 90
        2
102
RTVSPost2010PropOp53
 70
     1
102
RTVSPost2010Prop54
  1
strokes_ogs.tif
102
RTVSPost2010PropOp54
 70
     1
102
RTVSPost2010Prop55
280
     0
102
RTVSPost2010PropOp55
 70
     1
102
RTVSPost2010Prop56
140
1.0
102
RTVSPost2010PropOp56
 70
     1
102
RTVSPost2010Prop57
140
1.0
102
RTVSPost2010PropOp57
 70
     1
  0
XRECORD
  5
132
102
{ACAD_REACTORS
330
131
102
}
330
131
100
AcDbXrecord
280
     1
102
RTVSPropertyOp0
 70
     1
102
RTVSPropertyOp1
 70
     1
102
RTVSPropertyOp2
 70
     1
102
RTVSPropertyOp3
 70
     1
102
RTVSPropertyOp4
 70
     1
102
RTVSPropertyOp5
 70
     1
102
RTVSPropertyOp6
 70
     1
102
RTVSPropertyOp7
 70
     1
102
RTVSPropertyOp8
 70
     1
102
RTVSPropertyOp9
 70
     1
102
RTVSPropertyOp10
 70
     1
102
RTVSPropertyOp11
 70
     1
102
RTVSPropertyOp12
 70
     1
102
RTVSPropertyOp13
 70
     1
102
RTVSPropertyOp14
 70
     1
102
RTVSPropertyOp15
 70
     1
102
RTVSPropertyOp16
 70
     1
102
RTVSPropertyOp17
 70
     1
102
RTVSPropertyOp18
 70
     1
102
RTVSPropertyOp19
 70
     1
102
RTVSPropertyOp20
 70
     1
102
RTVSPropertyOp21
 70
     1
102
RTVSPropertyOp22
 70
     1
102
RTVSPropertyOp23
 70
     1
102
RTVSPropertyOp24
 70
     1
102
RTVSPropertyOp25
 70
     1
102
RTVSPropertyOp26
 70
     1
102
RTVSPropertyOp27
 70
     1
102
RTVSPropertyOp28
 70
     1
102
RTVSPropertyOp29
 70
     1
102
RTVSPropertyOp30
 70
     1
102
RTVSPropertyOp31
 70
     1
102
RTVSPropertyOp32
 70
     1
102
RTVSPropertyOp33
 70
     1
102
RTVSPropertyOp34
 70
     1
102
RTVSPropertyOp35
 70
     1
102
RTVSPropertyOp36
 70
     1
102
RTVSPropertyOp37
 70
     1
102
RTVSPropertyOp38
 70
     1
102
RTVSPropertyOp39
 70
     1
102
RTVSPropertyOp40
 70
     1
102
RTVSPropertyOp41
 70
     1
102
RTVSPropertyOp42
 70
     1
102
RTVSPropertyOp43
 70
     1
102
RTVSPropertyOp44
 70
     1
102
RTVSPropertyOp45
 70
     1
102
RTVSPropertyOp46
 70
     1
102
RTVSPropertyOp47
 70
     1
102
RTVSPropertyOp48
 70
     1
102
RTVSPropertyOp49
 70
     1
102
RTVSPropertyOp50
 70
     1
102
RTVSPropertyOp51
 70
     0
102
RTVSPropertyOp52
 70
     0
102
RTVSPropertyOp53
 70
     1
102
RTVSPropertyOp54
 70
     1
102
RTVSPropertyOp55
 70
     1
102
RTVSPropertyOp56
 70
     1
102
RTVSPropertyOp57
 70
     1
102
RTVSPost2010Prop28
280
     0
102
RTVSPost2010PropOp28
 70
     1
102
RTVSPost2010Prop29
280
     1
102
RTVSPost2010PropOp29
 70
     1
102
RTVSPost2010Prop30
280
     1
102
RTVSPost2010PropOp30
 70
     1
102
RTVSPost2010Prop31
280
     0
102
RTVSPost2010PropOp31
 70
     1
102
RTVSPost2010Prop32
280
     0
102
RTVSPost2010PropOp32
 70
     1
102
RTVSPost2010Prop33
280
     0
102
RTVSPost2010PropOp33
 70
     1
102
RTVSPost2010Prop34
280
     0
102
RTVSPost2010PropOp34
 70
     1
102
RTVSPost2010Prop35
280
     0
102
RTVSPost2010PropOp35
 70
     1
102
RTVSPost2010Prop36
280
     0
102
RTVSPost2010PropOp36
 70
     1
102
RTVSPost2010Prop37
 90
       50
102
RTVSPost2010PropOp37
 70
     1
102
RTVSPost2010Prop38
140
0.0
102
RTVSPost2010PropOp38
 70
     1
102
RTVSPost2010Prop39
140
1.0
102
RTVSPost2010PropOp39
 70
     1
102
RTVSPost2010Prop40
 90
        0
102
RTVSPost2010PropOp40
 70
     1
102
RTVSPost2010Prop41ColorIndex
 90
       18
102
RTVSPost2010Prop41ColorRGB
 90
        0
102
RTVSPost2010PropOp41
 70
     1
102
RTVSPost2010Prop42
 90
       50
102
RTVSPost2010PropOp42
 70
     1
102
RTVSPost2010Prop43
 90
        3
102
RTVSPost2010PropOp43
 70
     1
102
RTVSPost2010Prop44ColorIndex
 90
        5
102
RTVSPost2010Prop44ColorRGB
 90
      255
102
RTVSPost2010PropOp44
 70
     1
102
RTVSPost2010Prop45
280
     0
102
RTVSPost2010PropOp45
 70
     1
102
RTVSPost2010Prop46
 90
       50
102
RTVSPost2010PropOp46
 70
     1
102
RTVSPost2010Prop47
 90
       50
102
RTVSPost2010PropOp47
 70
     1
102
RTVSPost2010Prop48
 90
       50
102
RTVSPost2010PropOp48
 70
     1
102
RTVSPost2010Prop49
280
     0
102
RTVSPost2010PropOp49
 70
     1
102
RTVSPost2010Prop50
 90
       50
102
RTVSPost2010PropOp50
 70
     1
102
RTVSPost2010Prop51ColorIndex
 90
      256
102
RTVSPost2010Prop51ColorRGB
 90
-16777216
102
RTVSPost2010PropOp51
 70
     0
102
RTVSPost2010Prop52
140
1.0
102
RTVSPost2010PropOp52
 70
     0
102
RTVSPost2010Prop53
 90
        2
102
RTVSPost2010PropOp53
 70
     1
102
RTVSPost2010Prop54
  1
strokes_ogs.tif
102
RTVSPost2010PropOp54
 70
     1
102
RTVSPost2010Prop55
280
     0
102
RTVSPost2010PropOp55
 70
     1
102
RTVSPost2010Prop56
140
1.0
102
RTVSPost2010PropOp56
 70
     1
102
RTVSPost2010Prop57
140
1.0
102
RTVSPost2010PropOp57
 70
     1
  0
XRECORD
  5
134
102
{ACAD_REACTORS
330
133
102
}
330
133
100
AcDbXrecord
280
     1
102
RTVSPropertyOp0
 70
     1
102
RTVSPropertyOp1
 70
     1
102
RTVSPropertyOp2
 70
     1
102
RTVSPropertyOp3
 70
     1
102
RTVSPropertyOp4
 70
     1
102
RTVSPropertyOp5
 70
     1
102
RTVSPropertyOp6
 70
     1
102
RTVSPropertyOp7
 70
     1
102
RTVSPropertyOp8
 70
     1
102
RTVSPropertyOp9
 70
     1
102
RTVSPropertyOp10
 70
     1
102
RTVSPropertyOp11
 70
     1
102
RTVSPropertyOp12
 70
     1
102
RTVSPropertyOp13
 70
     1
102
RTVSPropertyOp14
 70
     1
102
RTVSPropertyOp15
 70
     1
102
RTVSPropertyOp16
 70
     1
102
RTVSPropertyOp17
 70
     1
102
RTVSPropertyOp18
 70
     1
102
RTVSPropertyOp19
 70
     1
102
RTVSPropertyOp20
 70
     1
102
RTVSPropertyOp21
 70
     1
102
RTVSPropertyOp22
 70
     1
102
RTVSPropertyOp23
 70
     1
102
RTVSPropertyOp24
 70
     1
102
RTVSPropertyOp25
 70
     1
102
RTVSPropertyOp26
 70
     1
102
RTVSPropertyOp27
 70
     1
102
RTVSPropertyOp28
 70
     1
102
RTVSPropertyOp29
 70
     1
102
RTVSPropertyOp30
 70
     1
102
RTVSPropertyOp31
 70
     1
102
RTVSPropertyOp32
 70
     1
102
RTVSPropertyOp33
 70
     1
102
RTVSPropertyOp34
 70
     1
102
RTVSPropertyOp35
 70
     1
102
RTVSPropertyOp36
 70
     1
102
RTVSPropertyOp37
 70
     1
102
RTVSPropertyOp38
 70
     1
102
RTVSPropertyOp39
 70
     1
102
RTVSPropertyOp40
 70
     1
102
RTVSPropertyOp41
 70
     1
102
RTVSPropertyOp42
 70
     1
102
RTVSPropertyOp43
 70
     1
102
RTVSPropertyOp44
 70
     1
102
RTVSPropertyOp45
 70
     1
102
RTVSPropertyOp46
 70
     1
102
RTVSPropertyOp47
 70
     1
102
RTVSPropertyOp48
 70
     1
102
RTVSPropertyOp49
 70
     1
102
RTVSPropertyOp50
 70
     1
102
RTVSPropertyOp51
 70
     0
102
RTVSPropertyOp52
 70
     0
102
RTVSPropertyOp53
 70
     1
102
RTVSPropertyOp54
 70
     1
102
RTVSPropertyOp55
 70
     1
102
RTVSPropertyOp56
 70
     1
102
RTVSPropertyOp57
 70
     1
102
RTVSPost2010Prop28
280
     0
102
RTVSPost2010PropOp28
 70
     1
102
RTVSPost2010Prop29
280
     1
102
RTVSPost2010PropOp29
 70
     1
102
RTVSPost2010Prop30
280
     1
102
RTVSPost2010PropOp30
 70
     1
102
RTVSPost2010Prop31
280
     0
102
RTVSPost2010PropOp31
 70
     1
102
RTVSPost2010Prop32
280
     0
102
RTVSPost2010PropOp32
 70
     1
102
RTVSPost2010Prop33
280
     0
102
RTVSPost2010PropOp33
 70
     1
102
RTVSPost2010Prop34
280
     0
102
RTVSPost2010PropOp34
 70
     1
102
RTVSPost2010Prop35
280
     0
102
RTVSPost2010PropOp35
 70
     1
102
RTVSPost2010Prop36
280
     0
102
RTVSPost2010PropOp36
 70
     1
102
RTVSPost2010Prop37
 90
       50
102
RTVSPost2010PropOp37
 70
     1
102
RTVSPost2010Prop38
140
0.0
102
RTVSPost2010PropOp38
 70
     1
102
RTVSPost2010Prop39
140
1.0
102
RTVSPost2010PropOp39
 70
     1
102
RTVSPost2010Prop40
 90
        0
102
RTVSPost2010PropOp40
 70
     1
102
RTVSPost2010Prop41ColorIndex
 90
       18
102
RTVSPost2010Prop41ColorRGB
 90
        0
102
RTVSPost2010PropOp41
 70
     1
102
RTVSPost2010Prop42
 90
       50
102
RTVSPost2010PropOp42
 70
     1
102
RTVSPost2010Prop43
 90
        3
102
RTVSPost2010PropOp43
 70
     1
102
RTVSPost2010Prop44ColorIndex
 90
        5
102
RTVSPost2010Prop44ColorRGB
 90
      255
102
RTVSPost2010PropOp44
 70
     1
102
RTVSPost2010Prop45
280
     0
102
RTVSPost2010PropOp45
 70
     1
102
RTVSPost2010Prop46
 90
       50
102
RTVSPost2010PropOp46
 70
     1
102
RTVSPost2010Prop47
 90
       50
102
RTVSPost2010PropOp47
 70
     1
102
RTVSPost2010Prop48
 90
       50
102
RTVSPost2010PropOp48
 70
     1
102
RTVSPost2010Prop49
280
     0
102
RTVSPost2010PropOp49
 70
     1
102
RTVSPost2010Prop50
 90
       50
102
RTVSPost2010PropOp50
 70
     1
102
RTVSPost2010Prop51ColorIndex
 90
      256
102
RTVSPost2010Prop51ColorRGB
 90
-16777216
102
RTVSPost2010PropOp51
 70
     0
102
RTVSPost2010Prop52
140
1.0
102
RTVSPost2010PropOp52
 70
     0
102
RTVSPost2010Prop53
 90
        2
102
RTVSPost2010PropOp53
 70
     1
102
RTVSPost2010Prop54
  1
strokes_ogs.tif
102
RTVSPost2010PropOp54
 70
     1
102
RTVSPost2010Prop55
280
     0
102
RTVSPost2010PropOp55
 70
     1
102
RTVSPost2010Prop56
140
1.0
102
RTVSPost2010PropOp56
 70
     1
102
RTVSPost2010Prop57
140
1.0
102
RTVSPost2010PropOp57
 70
     1
  0
XRECORD
  5
136
102
{ACAD_REACTORS
330
135
102
}
330
135
100
AcDbXrecord
280
     1
102
RTVSPropertyOp0
 70
     1
102
RTVSPropertyOp1
 70
     1
102
RTVSPropertyOp2
 70
     1
102
RTVSPropertyOp3
 70
     1
102
RTVSPropertyOp4
 70
     1
102
RTVSPropertyOp5
 70
     1
102
RTVSPropertyOp6
 70
     1
102
RTVSPropertyOp7
 70
     1
102
RTVSPropertyOp8
 70
     1
102
RTVSPropertyOp9
 70
     1
102
RTVSPropertyOp10
 70
     1
102
RTVSPropertyOp11
 70
     1
102
RTVSPropertyOp12
 70
     1
102
RTVSPropertyOp13
 70
     1
102
RTVSPropertyOp14
 70
     1
102
RTVSPropertyOp15
 70
     1
102
RTVSPropertyOp16
 70
     1
102
RTVSPropertyOp17
 70
     1
102
RTVSPropertyOp18
 70
     1
102
RTVSPropertyOp19
 70
     1
102
RTVSPropertyOp20
 70
     1
102
RTVSPropertyOp21
 70
     1
102
RTVSPropertyOp22
 70
     1
102
RTVSPropertyOp23
 70
     1
102
RTVSPropertyOp24
 70
     1
102
RTVSPropertyOp25
 70
     1
102
RTVSPropertyOp26
 70
     1
102
RTVSPropertyOp27
 70
     1
102
RTVSPropertyOp28
 70
     1
102
RTVSPropertyOp29
 70
     1
102
RTVSPropertyOp30
 70
     1
102
RTVSPropertyOp31
 70
     1
102
RTVSPropertyOp32
 70
     1
102
RTVSPropertyOp33
 70
     1
102
RTVSPropertyOp34
 70
     1
102
RTVSPropertyOp35
 70
     1
102
RTVSPropertyOp36
 70
     1
102
RTVSPropertyOp37
 70
     1
102
RTVSPropertyOp38
 70
     1
102
RTVSPropertyOp39
 70
     1
102
RTVSPropertyOp40
 70
     1
102
RTVSPropertyOp41
 70
     1
102
RTVSPropertyOp42
 70
     1
102
RTVSPropertyOp43
 70
     1
102
RTVSPropertyOp44
 70
     1
102
RTVSPropertyOp45
 70
     1
102
RTVSPropertyOp46
 70
     1
102
RTVSPropertyOp47
 70
     1
102
RTVSPropertyOp48
 70
     1
102
RTVSPropertyOp49
 70
     1
102
RTVSPropertyOp50
 70
     1
102
RTVSPropertyOp51
 70
     0
102
RTVSPropertyOp52
 70
     0
102
RTVSPropertyOp53
 70
     1
102
RTVSPropertyOp54
 70
     1
102
RTVSPropertyOp55
 70
     1
102
RTVSPropertyOp56
 70
     1
102
RTVSPropertyOp57
 70
     1
102
RTVSPost2010Prop28
280
     0
102
RTVSPost2010PropOp28
 70
     1
102
RTVSPost2010Prop29
280
     1
102
RTVSPost2010PropOp29
 70
     1
102
RTVSPost2010Prop30
280
     1
102
RTVSPost2010PropOp30
 70
     1
102
RTVSPost2010Prop31
280
     0
102
RTVSPost2010PropOp31
 70
     1
102
RTVSPost2010Prop32
280
     0
102
RTVSPost2010PropOp32
 70
     1
102
RTVSPost2010Prop33
280
     0
102
RTVSPost2010PropOp33
 70
     1
102
RTVSPost2010Prop34
280
     0
102
RTVSPost2010PropOp34
 70
     1
102
RTVSPost2010Prop35
280
     0
102
RTVSPost2010PropOp35
 70
     1
102
RTVSPost2010Prop36
280
     0
102
RTVSPost2010PropOp36
 70
     1
102
RTVSPost2010Prop37
 90
       50
102
RTVSPost2010PropOp37
 70
     1
102
RTVSPost2010Prop38
140
0.0
102
RTVSPost2010PropOp38
 70
     1
102
RTVSPost2010Prop39
140
1.0
102
RTVSPost2010PropOp39
 70
     1
102
RTVSPost2010Prop40
 90
        0
102
RTVSPost2010PropOp40
 70
     1
102
RTVSPost2010Prop41ColorIndex
 90
       18
102
RTVSPost2010Prop41ColorRGB
 90
        0
102
RTVSPost2010PropOp41
 70
     1
102
RTVSPost2010Prop42
 90
       50
102
RTVSPost2010PropOp42
 70
     1
102
RTVSPost2010Prop43
 90
        3
102
RTVSPost2010PropOp43
 70
     1
102
RTVSPost2010Prop44ColorIndex
 90
        5
102
RTVSPost2010Prop44ColorRGB
 90
      255
102
RTVSPost2010PropOp44
 70
     1
102
RTVSPost2010Prop45
280
     0
102
RTVSPost2010PropOp45
 70
     1
102
RTVSPost2010Prop46
 90
       50
102
RTVSPost2010PropOp46
 70
     1
102
RTVSPost2010Prop47
 90
       50
102
RTVSPost2010PropOp47
 70
     1
102
RTVSPost2010Prop48
 90
       50
102
RTVSPost2010PropOp48
 70
     1
102
RTVSPost2010Prop49
280
     0
102
RTVSPost2010PropOp49
 70
     1
102
RTVSPost2010Prop50
 90
       50
102
RTVSPost2010PropOp50
 70
     1
102
RTVSPost2010Prop51ColorIndex
 90
      256
102
RTVSPost2010Prop51ColorRGB
 90
-16777216
102
RTVSPost2010PropOp51
 70
     0
102
RTVSPost2010Prop52
140
1.0
102
RTVSPost2010PropOp52
 70
     0
102
RTVSPost2010Prop53
 90
        2
102
RTVSPost2010PropOp53
 70
     1
102
RTVSPost2010Prop54
  1
strokes_ogs.tif
102
RTVSPost2010PropOp54
 70
     1
102
RTVSPost2010Prop55
280
     0
102
RTVSPost2010PropOp55
 70
     1
102
RTVSPost2010Prop56
140
1.0
102
RTVSPost2010PropOp56
 70
     1
102
RTVSPost2010Prop57
140
1.0
102
RTVSPost2010PropOp57
 70
     1
  0
XRECORD
  5
13C
102
{ACAD_REACTORS
330
13B
102
}
330
13B
100
AcDbXrecord
280
     1
102
RTVSPropertyOp0
 70
     1
102
RTVSPropertyOp1
 70
     1
102
RTVSPropertyOp2
 70
     1
102
RTVSPropertyOp3
 70
     1
102
RTVSPropertyOp4
 70
     1
102
RTVSPropertyOp5
 70
     1
102
RTVSPropertyOp6
 70
     1
102
RTVSPropertyOp7
 70
     1
102
RTVSPropertyOp8
 70
     1
102
RTVSPropertyOp9
 70
     1
102
RTVSPropertyOp10
 70
     1
102
RTVSPropertyOp11
 70
     1
102
RTVSPropertyOp12
 70
     1
102
RTVSPropertyOp13
 70
     1
102
RTVSPropertyOp14
 70
     1
102
RTVSPropertyOp15
 70
     1
102
RTVSPropertyOp16
 70
     1
102
RTVSPropertyOp17
 70
     1
102
RTVSPropertyOp18
 70
     1
102
RTVSPropertyOp19
 70
     1
102
RTVSPropertyOp20
 70
     1
102
RTVSPropertyOp21
 70
     1
102
RTVSPropertyOp22
 70
     1
102
RTVSPropertyOp23
 70
     1
102
RTVSPropertyOp24
 70
     1
102
RTVSPropertyOp25
 70
     1
102
RTVSPropertyOp26
 70
     1
102
RTVSPropertyOp27
 70
     1
102
RTVSPropertyOp28
 70
     1
102
RTVSPropertyOp29
 70
     1
102
RTVSPropertyOp30
 70
     1
102
RTVSPropertyOp31
 70
     1
102
RTVSPropertyOp32
 70
     1
102
RTVSPropertyOp33
 70
     1
102
RTVSPropertyOp34
 70
     1
102
RTVSPropertyOp35
 70
     1
102
RTVSPropertyOp36
 70
     1
102
RTVSPropertyOp37
 70
     1
102
RTVSPropertyOp38
 70
     1
102
RTVSPropertyOp39
 70
     1
102
RTVSPropertyOp40
 70
     1
102
RTVSPropertyOp41
 70
     1
102
RTVSPropertyOp42
 70
     1
102
RTVSPropertyOp43
 70
     1
102
RTVSPropertyOp44
 70
     1
102
RTVSPropertyOp45
 70
     1
102
RTVSPropertyOp46
 70
     1
102
RTVSPropertyOp47
 70
     1
102
RTVSPropertyOp48
 70
     1
102
RTVSPropertyOp49
 70
     1
102
RTVSPropertyOp50
 70
     1
102
RTVSPropertyOp51
 70
     0
102
RTVSPropertyOp52
 70
     0
102
RTVSPropertyOp53
 70
     1
102
RTVSPropertyOp54
 70
     1
102
RTVSPropertyOp55
 70
     1
102
RTVSPropertyOp56
 70
     1
102
RTVSPropertyOp57
 70
     1
102
RTVSPost2010Prop28
280
     0
102
RTVSPost2010PropOp28
 70
     1
102
RTVSPost2010Prop29
280
     1
102
RTVSPost2010PropOp29
 70
     1
102
RTVSPost2010Prop30
280
     1
102
RTVSPost2010PropOp30
 70
     1
102
RTVSPost2010Prop31
280
     0
102
RTVSPost2010PropOp31
 70
     1
102
RTVSPost2010Prop32
280
     0
102
RTVSPost2010PropOp32
 70
     1
102
RTVSPost2010Prop33
280
     0
102
RTVSPost2010PropOp33
 70
     1
102
RTVSPost2010Prop34
280
     0
102
RTVSPost2010PropOp34
 70
     1
102
RTVSPost2010Prop35
280
     0
102
RTVSPost2010PropOp35
 70
     1
102
RTVSPost2010Prop36
280
     0
102
RTVSPost2010PropOp36
 70
     1
102
RTVSPost2010Prop37
 90
       50
102
RTVSPost2010PropOp37
 70
     1
102
RTVSPost2010Prop38
140
0.0
102
RTVSPost2010PropOp38
 70
     1
102
RTVSPost2010Prop39
140
1.0
102
RTVSPost2010PropOp39
 70
     1
102
RTVSPost2010Prop40
 90
        0
102
RTVSPost2010PropOp40
 70
     1
102
RTVSPost2010Prop41ColorIndex
 90
       18
102
RTVSPost2010Prop41ColorRGB
 90
        0
102
RTVSPost2010PropOp41
 70
     1
102
RTVSPost2010Prop42
 90
       50
102
RTVSPost2010PropOp42
 70
     1
102
RTVSPost2010Prop43
 90
        3
102
RTVSPost2010PropOp43
 70
     1
102
RTVSPost2010Prop44ColorIndex
 90
        5
102
RTVSPost2010Prop44ColorRGB
 90
      255
102
RTVSPost2010PropOp44
 70
     1
102
RTVSPost2010Prop45
280
     0
102
RTVSPost2010PropOp45
 70
     1
102
RTVSPost2010Prop46
 90
       50
102
RTVSPost2010PropOp46
 70
     1
102
RTVSPost2010Prop47
 90
       50
102
RTVSPost2010PropOp47
 70
     1
102
RTVSPost2010Prop48
 90
       50
102
RTVSPost2010PropOp48
 70
     1
102
RTVSPost2010Prop49
280
     0
102
RTVSPost2010PropOp49
 70
     1
102
RTVSPost2010Prop50
 90
       50
102
RTVSPost2010PropOp50
 70
     1
102
RTVSPost2010Prop51ColorIndex
 90
      256
102
RTVSPost2010Prop51ColorRGB
 90
-16777216
102
RTVSPost2010PropOp51
 70
     0
102
RTVSPost2010Prop52
140
1.0
102
RTVSPost2010PropOp52
 70
     0
102
RTVSPost2010Prop53
 90
        2
102
RTVSPost2010PropOp53
 70
     1
102
RTVSPost2010Prop54
  1
strokes_ogs.tif
102
RTVSPost2010PropOp54
 70
     1
102
RTVSPost2010Prop55
280
     0
102
RTVSPost2010PropOp55
 70
     1
102
RTVSPost2010Prop56
140
1.0
102
RTVSPost2010PropOp56
 70
     1
102
RTVSPost2010Prop57
140
1.0
102
RTVSPost2010PropOp57
 70
     1
  0
XRECORD
  5
150
102
{ACAD_REACTORS
330
14F
102
}
330
14F
100
AcDbXrecord
280
     1
102
RTVSPropertyOp0
 70
     0
102
RTVSPropertyOp1
 70
     0
102
RTVSPropertyOp2
 70
     0
102
RTVSPropertyOp3
 70
     0
102
RTVSPropertyOp4
 70
     0
102
RTVSPropertyOp5
 70
     0
102
RTVSPropertyOp6
 70
     0
102
RTVSPropertyOp7
 70
     0
102
RTVSPropertyOp8
 70
     0
102
RTVSPropertyOp9
 70
     0
102
RTVSPropertyOp10
 70
     0
102
RTVSPropertyOp11
 70
     0
102
RTVSPropertyOp12
 70
     0
102
RTVSPropertyOp13
 70
     0
102
RTVSPropertyOp14
 70
     2
102
RTVSPropertyOp15
 70
     0
102
RTVSPropertyOp16
 70
     0
102
RTVSPropertyOp17
 70
     0
102
RTVSPropertyOp18
 70
     0
102
RTVSPropertyOp19
 70
     0
102
RTVSPropertyOp20
 70
     0
102
RTVSPropertyOp21
 70
     0
102
RTVSPropertyOp22
 70
     0
102
RTVSPropertyOp23
 70
     0
102
RTVSPropertyOp24
 70
     0
102
RTVSPropertyOp25
 70
     0
102
RTVSPropertyOp26
 70
     0
102
RTVSPropertyOp27
 70
     0
102
RTVSPropertyOp28
 70
     0
102
RTVSPropertyOp29
 70
     0
102
RTVSPropertyOp30
 70
     0
102
RTVSPropertyOp31
 70
     0
102
RTVSPropertyOp32
 70
     0
102
RTVSPropertyOp33
 70
     0
102
RTVSPropertyOp34
 70
     0
102
RTVSPropertyOp35
 70
     0
102
RTVSPropertyOp36
 70
     0
102
RTVSPropertyOp37
 70
     0
102
RTVSPropertyOp38
 70
     0
102
RTVSPropertyOp39
 70
     0
102
RTVSPropertyOp40
 70
     0
102
RTVSPropertyOp41
 70
     0
102
RTVSPropertyOp42
 70
     0
102
RTVSPropertyOp43
 70
     0
102
RTVSPropertyOp44
 70
     0
102
RTVSPropertyOp45
 70
     0
102
RTVSPropertyOp46
 70
     0
102
RTVSPropertyOp47
 70
     0
102
RTVSPropertyOp48
 70
     0
102
RTVSPropertyOp49
 70
     0
102
RTVSPropertyOp50
 70
     0
102
RTVSPropertyOp51
 70
     0
102
RTVSPropertyOp52
 70
     0
102
RTVSPropertyOp53
 70
     0
102
RTVSPropertyOp54
 70
     0
102
RTVSPropertyOp55
 70
     0
102
RTVSPropertyOp56
 70
     0
102
RTVSPropertyOp57
 70
     0
102
RTVSPost2010Prop28
280
     0
102
RTVSPost2010PropOp28
 70
     0
102
RTVSPost2010Prop29
280
     1
102
RTVSPost2010PropOp29
 70
     0
102
RTVSPost2010Prop30
280
     1
102
RTVSPost2010PropOp30
 70
     0
102
RTVSPost2010Prop31
280
     0
102
RTVSPost2010PropOp31
 70
     0
102
RTVSPost2010Prop32
280
     0
102
RTVSPost2010PropOp32
 70
     0
102
RTVSPost2010Prop33
280
     0
102
RTVSPost2010PropOp33
 70
     0
102
RTVSPost2010Prop34
280
     0
102
RTVSPost2010PropOp34
 70
     0
102
RTVSPost2010Prop35
280
     0
102
RTVSPost2010PropOp35
 70
     0
102
RTVSPost2010Prop36
280
     0
102
RTVSPost2010PropOp36
 70
     0
102
RTVSPost2010Prop37
 90
       50
102
RTVSPost2010PropOp37
 70
     0
102
RTVSPost2010Prop38
140
0.0
102
RTVSPost2010PropOp38
 70
     0
102
RTVSPost2010Prop39
140
1.0
102
RTVSPost2010PropOp39
 70
     0
102
RTVSPost2010Prop40
 90
        0
102
RTVSPost2010PropOp40
 70
     0
102
RTVSPost2010Prop41ColorIndex
 90
       18
102
RTVSPost2010Prop41ColorRGB
 90
        0
102
RTVSPost2010PropOp41
 70
     0
102
RTVSPost2010Prop42
 90
       50
102
RTVSPost2010PropOp42
 70
     0
102
RTVSPost2010Prop43
 90
        3
102
RTVSPost2010PropOp43
 70
     0
102
RTVSPost2010Prop44ColorIndex
 90
        5
102
RTVSPost2010Prop44ColorRGB
 90
      255
102
RTVSPost2010PropOp44
 70
     0
102
RTVSPost2010Prop45
280
     0
102
RTVSPost2010PropOp45
 70
     0
102
RTVSPost2010Prop46
 90
       50
102
RTVSPost2010PropOp46
 70
     0
102
RTVSPost2010Prop47
 90
       50
102
RTVSPost2010PropOp47
 70
     0
102
RTVSPost2010Prop48
 90
       50
102
RTVSPost2010PropOp48
 70
     0
102
RTVSPost2010Prop49
280
     0
102
RTVSPost2010PropOp49
 70
     0
102
RTVSPost2010Prop50
 90
       50
102
RTVSPost2010PropOp50
 70
     0
102
RTVSPost2010Prop51ColorIndex
 90
      256
102
RTVSPost2010Prop51ColorRGB
 90
-16777216
102
RTVSPost2010PropOp51
 70
     0
102
RTVSPost2010Prop52
140
1.0
102
RTVSPost2010PropOp52
 70
     0
102
RTVSPost2010Prop53
 90
        2
102
RTVSPost2010PropOp53
 70
     0
102
RTVSPost2010Prop54
  1
strokes_ogs.tif
102
RTVSPost2010PropOp54
 70
     0
102
RTVSPost2010Prop55
280
     0
102
RTVSPost2010PropOp55
 70
     0
102
RTVSPost2010Prop56
140
1.0
102
RTVSPost2010PropOp56
 70
     0
102
RTVSPost2010Prop57
140
1.0
102
RTVSPost2010PropOp57
 70
     0
  0
XRECORD
  5
14A
102
{ACAD_REACTORS
330
149
102
}
330
149
100
AcDbXrecord
280
     1
102
RTVSPropertyOp0
 70
     1
102
RTVSPropertyOp1
 70
     1
102
RTVSPropertyOp2
 70
     1
102
RTVSPropertyOp3
 70
     1
102
RTVSPropertyOp4
 70
     1
102
RTVSPropertyOp5
 70
     1
102
RTVSPropertyOp6
 70
     1
102
RTVSPropertyOp7
 70
     1
102
RTVSPropertyOp8
 70
     1
102
RTVSPropertyOp9
 70
     1
102
RTVSPropertyOp10
 70
     1
102
RTVSPropertyOp11
 70
     1
102
RTVSPropertyOp12
 70
     1
102
RTVSPropertyOp13
 70
     1
102
RTVSPropertyOp14
 70
     1
102
RTVSPropertyOp15
 70
     1
102
RTVSPropertyOp16
 70
     1
102
RTVSPropertyOp17
 70
     1
102
RTVSPropertyOp18
 70
     1
102
RTVSPropertyOp19
 70
     1
102
RTVSPropertyOp20
 70
     1
102
RTVSPropertyOp21
 70
     1
102
RTVSPropertyOp22
 70
     1
102
RTVSPropertyOp23
 70
     1
102
RTVSPropertyOp24
 70
     1
102
RTVSPropertyOp25
 70
     1
102
RTVSPropertyOp26
 70
     1
102
RTVSPropertyOp27
 70
     1
102
RTVSPropertyOp28
 70
     1
102
RTVSPropertyOp29
 70
     1
102
RTVSPropertyOp30
 70
     1
102
RTVSPropertyOp31
 70
     1
102
RTVSPropertyOp32
 70
     1
102
RTVSPropertyOp33
 70
     1
102
RTVSPropertyOp34
 70
     1
102
RTVSPropertyOp35
 70
     1
102
RTVSPropertyOp36
 70
     1
102
RTVSPropertyOp37
 70
     1
102
RTVSPropertyOp38
 70
     1
102
RTVSPropertyOp39
 70
     1
102
RTVSPropertyOp40
 70
     1
102
RTVSPropertyOp41
 70
     1
102
RTVSPropertyOp42
 70
     1
102
RTVSPropertyOp43
 70
     1
102
RTVSPropertyOp44
 70
     1
102
RTVSPropertyOp45
 70
     1
102
RTVSPropertyOp46
 70
     1
102
RTVSPropertyOp47
 70
     1
102
RTVSPropertyOp48
 70
     1
102
RTVSPropertyOp49
 70
     1
102
RTVSPropertyOp50
 70
     1
102
RTVSPropertyOp51
 70
     0
102
RTVSPropertyOp52
 70
     0
102
RTVSPropertyOp53
 70
     1
102
RTVSPropertyOp54
 70
     1
102
RTVSPropertyOp55
 70
     1
102
RTVSPropertyOp56
 70
     1
102
RTVSPropertyOp57
 70
     1
102
RTVSPost2010Prop28
280
     0
102
RTVSPost2010PropOp28
 70
     1
102
RTVSPost2010Prop29
280
     1
102
RTVSPost2010PropOp29
 70
     1
102
RTVSPost2010Prop30
280
     1
102
RTVSPost2010PropOp30
 70
     1
102
RTVSPost2010Prop31
280
     0
102
RTVSPost2010PropOp31
 70
     1
102
RTVSPost2010Prop32
280
     0
102
RTVSPost2010PropOp32
 70
     1
102
RTVSPost2010Prop33
280
     0
102
RTVSPost2010PropOp33
 70
     1
102
RTVSPost2010Prop34
280
     0
102
RTVSPost2010PropOp34
 70
     1
102
RTVSPost2010Prop35
280
     0
102
RTVSPost2010PropOp35
 70
     1
102
RTVSPost2010Prop36
280
     0
102
RTVSPost2010PropOp36
 70
     1
102
RTVSPost2010Prop37
 90
       50
102
RTVSPost2010PropOp37
 70
     1
102
RTVSPost2010Prop38
140
0.0
102
RTVSPost2010PropOp38
 70
     1
102
RTVSPost2010Prop39
140
1.0
102
RTVSPost2010PropOp39
 70
     1
102
RTVSPost2010Prop40
 90
        0
102
RTVSPost2010PropOp40
 70
     1
102
RTVSPost2010Prop41ColorIndex
 90
       18
102
RTVSPost2010Prop41ColorRGB
 90
        0
102
RTVSPost2010PropOp41
 70
     1
102
RTVSPost2010Prop42
 90
       50
102
RTVSPost2010PropOp42
 70
     1
102
RTVSPost2010Prop43
 90
        3
102
RTVSPost2010PropOp43
 70
     1
102
RTVSPost2010Prop44ColorIndex
 90
        5
102
RTVSPost2010Prop44ColorRGB
 90
      255
102
RTVSPost2010PropOp44
 70
     1
102
RTVSPost2010Prop45
280
     0
102
RTVSPost2010PropOp45
 70
     1
102
RTVSPost2010Prop46
 90
       50
102
RTVSPost2010PropOp46
 70
     1
102
RTVSPost2010Prop47
 90
       50
102
RTVSPost2010PropOp47
 70
     1
102
RTVSPost2010Prop48
 90
       50
102
RTVSPost2010PropOp48
 70
     1
102
RTVSPost2010Prop49
280
     0
102
RTVSPost2010PropOp49
 70
     1
102
RTVSPost2010Prop50
 90
       50
102
RTVSPost2010PropOp50
 70
     1
102
RTVSPost2010Prop51ColorIndex
 90
      256
102
RTVSPost2010Prop51ColorRGB
 90
-16777216
102
RTVSPost2010PropOp51
 70
     0
102
RTVSPost2010Prop52
140
1.0
102
RTVSPost2010PropOp52
 70
     0
102
RTVSPost2010Prop53
 90
        2
102
RTVSPost2010PropOp53
 70
     1
102
RTVSPost2010Prop54
  1
strokes_ogs.tif
102
RTVSPost2010PropOp54
 70
     1
102
RTVSPost2010Prop55
280
     0
102
RTVSPost2010PropOp55
 70
     1
102
RTVSPost2010Prop56
140
1.0
102
RTVSPost2010PropOp56
 70
     1
102
RTVSPost2010Prop57
140
1.0
102
RTVSPost2010PropOp57
 70
     1
  0
XRECORD
  5
152
102
{ACAD_REACTORS
330
151
102
}
330
151
100
AcDbXrecord
280
     1
102
RTVSPropertyOp0
 70
     0
102
RTVSPropertyOp1
 70
     0
102
RTVSPropertyOp2
 70
     0
102
RTVSPropertyOp3
 70
     0
102
RTVSPropertyOp4
 70
     0
102
RTVSPropertyOp5
 70
     0
102
RTVSPropertyOp6
 70
     0
102
RTVSPropertyOp7
 70
     0
102
RTVSPropertyOp8
 70
     0
102
RTVSPropertyOp9
 70
     0
102
RTVSPropertyOp10
 70
     0
102
RTVSPropertyOp11
 70
     0
102
RTVSPropertyOp12
 70
     0
102
RTVSPropertyOp13
 70
     0
102
RTVSPropertyOp14
 70
     2
102
RTVSPropertyOp15
 70
     0
102
RTVSPropertyOp16
 70
     0
102
RTVSPropertyOp17
 70
     0
102
RTVSPropertyOp18
 70
     0
102
RTVSPropertyOp19
 70
     0
102
RTVSPropertyOp20
 70
     0
102
RTVSPropertyOp21
 70
     0
102
RTVSPropertyOp22
 70
     0
102
RTVSPropertyOp23
 70
     0
102
RTVSPropertyOp24
 70
     0
102
RTVSPropertyOp25
 70
     0
102
RTVSPropertyOp26
 70
     0
102
RTVSPropertyOp27
 70
     0
102
RTVSPropertyOp28
 70
     0
102
RTVSPropertyOp29
 70
     0
102
RTVSPropertyOp30
 70
     0
102
RTVSPropertyOp31
 70
     0
102
RTVSPropertyOp32
 70
     0
102
RTVSPropertyOp33
 70
     0
102
RTVSPropertyOp34
 70
     0
102
RTVSPropertyOp35
 70
     0
102
RTVSPropertyOp36
 70
     0
102
RTVSPropertyOp37
 70
     0
102
RTVSPropertyOp38
 70
     0
102
RTVSPropertyOp39
 70
     0
102
RTVSPropertyOp40
 70
     0
102
RTVSPropertyOp41
 70
     0
102
RTVSPropertyOp42
 70
     0
102
RTVSPropertyOp43
 70
     0
102
RTVSPropertyOp44
 70
     0
102
RTVSPropertyOp45
 70
     0
102
RTVSPropertyOp46
 70
     0
102
RTVSPropertyOp47
 70
     0
102
RTVSPropertyOp48
 70
     0
102
RTVSPropertyOp49
 70
     0
102
RTVSPropertyOp50
 70
     0
102
RTVSPropertyOp51
 70
     0
102
RTVSPropertyOp52
 70
     0
102
RTVSPropertyOp53
 70
     0
102
RTVSPropertyOp54
 70
     0
102
RTVSPropertyOp55
 70
     0
102
RTVSPropertyOp56
 70
     0
102
RTVSPropertyOp57
 70
     0
102
RTVSPost2010Prop28
280
     0
102
RTVSPost2010PropOp28
 70
     0
102
RTVSPost2010Prop29
280
     1
102
RTVSPost2010PropOp29
 70
     0
102
RTVSPost2010Prop30
280
     1
102
RTVSPost2010PropOp30
 70
     0
102
RTVSPost2010Prop31
280
     0
102
RTVSPost2010PropOp31
 70
     0
102
RTVSPost2010Prop32
280
     0
102
RTVSPost2010PropOp32
 70
     0
102
RTVSPost2010Prop33
280
     0
102
RTVSPost2010PropOp33
 70
     0
102
RTVSPost2010Prop34
280
     0
102
RTVSPost2010PropOp34
 70
     0
102
RTVSPost2010Prop35
280
     0
102
RTVSPost2010PropOp35
 70
     0
102
RTVSPost2010Prop36
280
     0
102
RTVSPost2010PropOp36
 70
     0
102
RTVSPost2010Prop37
 90
       50
102
RTVSPost2010PropOp37
 70
     0
102
RTVSPost2010Prop38
140
0.0
102
RTVSPost2010PropOp38
 70
     0
102
RTVSPost2010Prop39
140
1.0
102
RTVSPost2010PropOp39
 70
     0
102
RTVSPost2010Prop40
 90
        0
102
RTVSPost2010PropOp40
 70
     0
102
RTVSPost2010Prop41ColorIndex
 90
       18
102
RTVSPost2010Prop41ColorRGB
 90
        0
102
RTVSPost2010PropOp41
 70
     0
102
RTVSPost2010Prop42
 90
       50
102
RTVSPost2010PropOp42
 70
     0
102
RTVSPost2010Prop43
 90
        3
102
RTVSPost2010PropOp43
 70
     0
102
RTVSPost2010Prop44ColorIndex
 90
        5
102
RTVSPost2010Prop44ColorRGB
 90
      255
102
RTVSPost2010PropOp44
 70
     0
102
RTVSPost2010Prop45
280
     0
102
RTVSPost2010PropOp45
 70
     0
102
RTVSPost2010Prop46
 90
       50
102
RTVSPost2010PropOp46
 70
     0
102
RTVSPost2010Prop47
 90
       50
102
RTVSPost2010PropOp47
 70
     0
102
RTVSPost2010Prop48
 90
       50
102
RTVSPost2010PropOp48
 70
     0
102
RTVSPost2010Prop49
280
     0
102
RTVSPost2010PropOp49
 70
     0
102
RTVSPost2010Prop50
 90
       50
102
RTVSPost2010PropOp50
 70
     0
102
RTVSPost2010Prop51ColorIndex
 90
      256
102
RTVSPost2010Prop51ColorRGB
 90
-16777216
102
RTVSPost2010PropOp51
 70
     0
102
RTVSPost2010Prop52
140
1.0
102
RTVSPost2010PropOp52
 70
     0
102
RTVSPost2010Prop53
 90
        2
102
RTVSPost2010PropOp53
 70
     0
102
RTVSPost2010Prop54
  1
strokes_ogs.tif
102
RTVSPost2010PropOp54
 70
     0
102
RTVSPost2010Prop55
280
     0
102
RTVSPost2010PropOp55
 70
     0
102
RTVSPost2010Prop56
140
1.0
102
RTVSPost2010PropOp56
 70
     0
102
RTVSPost2010Prop57
140
1.0
102
RTVSPost2010PropOp57
 70
     0
  0
XRECORD
  5
140
102
{ACAD_REACTORS
330
13F
102
}
330
13F
100
AcDbXrecord
280
     1
102
RTVSPropertyOp0
 70
     1
102
RTVSPropertyOp1
 70
     1
102
RTVSPropertyOp2
 70
     1
102
RTVSPropertyOp3
 70
     1
102
RTVSPropertyOp4
 70
     1
102
RTVSPropertyOp5
 70
     1
102
RTVSPropertyOp6
 70
     1
102
RTVSPropertyOp7
 70
     1
102
RTVSPropertyOp8
 70
     1
102
RTVSPropertyOp9
 70
     1
102
RTVSPropertyOp10
 70
     1
102
RTVSPropertyOp11
 70
     1
102
RTVSPropertyOp12
 70
     1
102
RTVSPropertyOp13
 70
     1
102
RTVSPropertyOp14
 70
     1
102
RTVSPropertyOp15
 70
     1
102
RTVSPropertyOp16
 70
     1
102
RTVSPropertyOp17
 70
     1
102
RTVSPropertyOp18
 70
     1
102
RTVSPropertyOp19
 70
     1
102
RTVSPropertyOp20
 70
     1
102
RTVSPropertyOp21
 70
     1
102
RTVSPropertyOp22
 70
     1
102
RTVSPropertyOp23
 70
     1
102
RTVSPropertyOp24
 70
     1
102
RTVSPropertyOp25
 70
     1
102
RTVSPropertyOp26
 70
     1
102
RTVSPropertyOp27
 70
     1
102
RTVSPropertyOp28
 70
     1
102
RTVSPropertyOp29
 70
     1
102
RTVSPropertyOp30
 70
     1
102
RTVSPropertyOp31
 70
     1
102
RTVSPropertyOp32
 70
     1
102
RTVSPropertyOp33
 70
     1
102
RTVSPropertyOp34
 70
     1
102
RTVSPropertyOp35
 70
     1
102
RTVSPropertyOp36
 70
     1
102
RTVSPropertyOp37
 70
     1
102
RTVSPropertyOp38
 70
     1
102
RTVSPropertyOp39
 70
     1
102
RTVSPropertyOp40
 70
     1
102
RTVSPropertyOp41
 70
     1
102
RTVSPropertyOp42
 70
     1
102
RTVSPropertyOp43
 70
     1
102
RTVSPropertyOp44
 70
     1
102
RTVSPropertyOp45
 70
     1
102
RTVSPropertyOp46
 70
     1
102
RTVSPropertyOp47
 70
     1
102
RTVSPropertyOp48
 70
     1
102
RTVSPropertyOp49
 70
     1
102
RTVSPropertyOp50
 70
     1
102
RTVSPropertyOp51
 70
     0
102
RTVSPropertyOp52
 70
     0
102
RTVSPropertyOp53
 70
     1
102
RTVSPropertyOp54
 70
     1
102
RTVSPropertyOp55
 70
     1
102
RTVSPropertyOp56
 70
     1
102
RTVSPropertyOp57
 70
     1
102
RTVSPost2010Prop28
280
     0
102
RTVSPost2010PropOp28
 70
     1
102
RTVSPost2010Prop29
280
     1
102
RTVSPost2010PropOp29
 70
     1
102
RTVSPost2010Prop30
280
     1
102
RTVSPost2010PropOp30
 70
     1
102
RTVSPost2010Prop31
280
     0
102
RTVSPost2010PropOp31
 70
     1
102
RTVSPost2010Prop32
280
     0
102
RTVSPost2010PropOp32
 70
     1
102
RTVSPost2010Prop33
280
     0
102
RTVSPost2010PropOp33
 70
     1
102
RTVSPost2010Prop34
280
     0
102
RTVSPost2010PropOp34
 70
     1
102
RTVSPost2010Prop35
280
     0
102
RTVSPost2010PropOp35
 70
     1
102
RTVSPost2010Prop36
280
     0
102
RTVSPost2010PropOp36
 70
     1
102
RTVSPost2010Prop37
 90
       50
102
RTVSPost2010PropOp37
 70
     1
102
RTVSPost2010Prop38
140
0.0
102
RTVSPost2010PropOp38
 70
     1
102
RTVSPost2010Prop39
140
1.0
102
RTVSPost2010PropOp39
 70
     1
102
RTVSPost2010Prop40
 90
        0
102
RTVSPost2010PropOp40
 70
     1
102
RTVSPost2010Prop41ColorIndex
 90
       18
102
RTVSPost2010Prop41ColorRGB
 90
        0
102
RTVSPost2010PropOp41
 70
     1
102
RTVSPost2010Prop42
 90
       50
102
RTVSPost2010PropOp42
 70
     1
102
RTVSPost2010Prop43
 90
        3
102
RTVSPost2010PropOp43
 70
     1
102
RTVSPost2010Prop44ColorIndex
 90
        5
102
RTVSPost2010Prop44ColorRGB
 90
      255
102
RTVSPost2010PropOp44
 70
     1
102
RTVSPost2010Prop45
280
     0
102
RTVSPost2010PropOp45
 70
     1
102
RTVSPost2010Prop46
 90
       50
102
RTVSPost2010PropOp46
 70
     1
102
RTVSPost2010Prop47
 90
       50
102
RTVSPost2010PropOp47
 70
     1
102
RTVSPost2010Prop48
 90
       50
102
RTVSPost2010PropOp48
 70
     1
102
RTVSPost2010Prop49
280
     0
102
RTVSPost2010PropOp49
 70
     1
102
RTVSPost2010Prop50
 90
       50
102
RTVSPost2010PropOp50
 70
     1
102
RTVSPost2010Prop51ColorIndex
 90
      256
102
RTVSPost2010Prop51ColorRGB
 90
-16777216
102
RTVSPost2010PropOp51
 70
     0
102
RTVSPost2010Prop52
140
1.0
102
RTVSPost2010PropOp52
 70
     0
102
RTVSPost2010Prop53
 90
        2
102
RTVSPost2010PropOp53
 70
     1
102
RTVSPost2010Prop54
  1
strokes_ogs.tif
102
RTVSPost2010PropOp54
 70
     1
102
RTVSPost2010Prop55
280
     0
102
RTVSPost2010PropOp55
 70
     1
102
RTVSPost2010Prop56
140
1.0
102
RTVSPost2010PropOp56
 70
     1
102
RTVSPost2010Prop57
140
1.0
102
RTVSPost2010PropOp57
 70
     1
  0
XRECORD
  5
15E
102
{ACAD_REACTORS
330
15D
102
}
330
15D
100
AcDbXrecord
280
     1
102
RTVSPropertyOp0
 70
     1
102
RTVSPropertyOp1
 70
     1
102
RTVSPropertyOp2
 70
     1
102
RTVSPropertyOp3
 70
     1
102
RTVSPropertyOp4
 70
     1
102
RTVSPropertyOp5
 70
     1
102
RTVSPropertyOp6
 70
     1
102
RTVSPropertyOp7
 70
     1
102
RTVSPropertyOp8
 70
     1
102
RTVSPropertyOp9
 70
     1
102
RTVSPropertyOp10
 70
     1
102
RTVSPropertyOp11
 70
     1
102
RTVSPropertyOp12
 70
     1
102
RTVSPropertyOp13
 70
     1
102
RTVSPropertyOp14
 70
     1
102
RTVSPropertyOp15
 70
     1
102
RTVSPropertyOp16
 70
     1
102
RTVSPropertyOp17
 70
     1
102
RTVSPropertyOp18
 70
     1
102
RTVSPropertyOp19
 70
     1
102
RTVSPropertyOp20
 70
     1
102
RTVSPropertyOp21
 70
     1
102
RTVSPropertyOp22
 70
     1
102
RTVSPropertyOp23
 70
     1
102
RTVSPropertyOp24
 70
     1
102
RTVSPropertyOp25
 70
     1
102
RTVSPropertyOp26
 70
     1
102
RTVSPropertyOp27
 70
     1
102
RTVSPropertyOp28
 70
     1
102
RTVSPropertyOp29
 70
     1
102
RTVSPropertyOp30
 70
     1
102
RTVSPropertyOp31
 70
     1
102
RTVSPropertyOp32
 70
     1
102
RTVSPropertyOp33
 70
     1
102
RTVSPropertyOp34
 70
     1
102
RTVSPropertyOp35
 70
     1
102
RTVSPropertyOp36
 70
     1
102
RTVSPropertyOp37
 70
     1
102
RTVSPropertyOp38
 70
     1
102
RTVSPropertyOp39
 70
     1
102
RTVSPropertyOp40
 70
     1
102
RTVSPropertyOp41
 70
     1
102
RTVSPropertyOp42
 70
     1
102
RTVSPropertyOp43
 70
     1
102
RTVSPropertyOp44
 70
     1
102
RTVSPropertyOp45
 70
     1
102
RTVSPropertyOp46
 70
     1
102
RTVSPropertyOp47
 70
     1
102
RTVSPropertyOp48
 70
     1
102
RTVSPropertyOp49
 70
     1
102
RTVSPropertyOp50
 70
     1
102
RTVSPropertyOp51
 70
     0
102
RTVSPropertyOp52
 70
     0
102
RTVSPropertyOp53
 70
     1
102
RTVSPropertyOp54
 70
     1
102
RTVSPropertyOp55
 70
     1
102
RTVSPropertyOp56
 70
     1
102
RTVSPropertyOp57
 70
     1
102
RTVSPost2010Prop28
280
     0
102
RTVSPost2010PropOp28
 70
     1
102
RTVSPost2010Prop29
280
     1
102
RTVSPost2010PropOp29
 70
     1
102
RTVSPost2010Prop30
280
     1
102
RTVSPost2010PropOp30
 70
     1
102
RTVSPost2010Prop31
280
     0
102
RTVSPost2010PropOp31
 70
     1
102
RTVSPost2010Prop32
280
     0
102
RTVSPost2010PropOp32
 70
     1
102
RTVSPost2010Prop33
280
     0
102
RTVSPost2010PropOp33
 70
     1
102
RTVSPost2010Prop34
280
     0
102
RTVSPost2010PropOp34
 70
     1
102
RTVSPost2010Prop35
280
     0
102
RTVSPost2010PropOp35
 70
     1
102
RTVSPost2010Prop36
280
     0
102
RTVSPost2010PropOp36
 70
     1
102
RTVSPost2010Prop37
 90
       50
102
RTVSPost2010PropOp37
 70
     1
102
RTVSPost2010Prop38
140
0.0
102
RTVSPost2010PropOp38
 70
     1
102
RTVSPost2010Prop39
140
1.0
102
RTVSPost2010PropOp39
 70
     1
102
RTVSPost2010Prop40
 90
        0
102
RTVSPost2010PropOp40
 70
     1
102
RTVSPost2010Prop41ColorIndex
 90
       18
102
RTVSPost2010Prop41ColorRGB
 90
        0
102
RTVSPost2010PropOp41
 70
     1
102
RTVSPost2010Prop42
 90
       50
102
RTVSPost2010PropOp42
 70
     1
102
RTVSPost2010Prop43
 90
        3
102
RTVSPost2010PropOp43
 70
     1
102
RTVSPost2010Prop44ColorIndex
 90
        5
102
RTVSPost2010Prop44ColorRGB
 90
      255
102
RTVSPost2010PropOp44
 70
     1
102
RTVSPost2010Prop45
280
     0
102
RTVSPost2010PropOp45
 70
     1
102
RTVSPost2010Prop46
 90
       50
102
RTVSPost2010PropOp46
 70
     1
102
RTVSPost2010Prop47
 90
       50
102
RTVSPost2010PropOp47
 70
     1
102
RTVSPost2010Prop48
 90
       50
102
RTVSPost2010PropOp48
 70
     1
102
RTVSPost2010Prop49
280
     0
102
RTVSPost2010PropOp49
 70
     1
102
RTVSPost2010Prop50
 90
       50
102
RTVSPost2010PropOp50
 70
     1
102
RTVSPost2010Prop51ColorIndex
 90
      256
102
RTVSPost2010Prop51ColorRGB
 90
-16777216
102
RTVSPost2010PropOp51
 70
     0
102
RTVSPost2010Prop52
140
1.0
102
RTVSPost2010PropOp52
 70
     0
102
RTVSPost2010Prop53
 90
        2
102
RTVSPost2010PropOp53
 70
     1
102
RTVSPost2010Prop54
  1
strokes_ogs.tif
102
RTVSPost2010PropOp54
 70
     1
102
RTVSPost2010Prop55
280
     0
102
RTVSPost2010PropOp55
 70
     1
102
RTVSPost2010Prop56
140
1.0
102
RTVSPost2010PropOp56
 70
     1
102
RTVSPost2010Prop57
140
1.0
102
RTVSPost2010PropOp57
 70
     1
  0
XRECORD
  5
15C
102
{ACAD_REACTORS
330
15B
102
}
330
15B
100
AcDbXrecord
280
     1
102
RTVSPropertyOp0
 70
     1
102
RTVSPropertyOp1
 70
     1
102
RTVSPropertyOp2
 70
     1
102
RTVSPropertyOp3
 70
     1
102
RTVSPropertyOp4
 70
     1
102
RTVSPropertyOp5
 70
     1
102
RTVSPropertyOp6
 70
     1
102
RTVSPropertyOp7
 70
     1
102
RTVSPropertyOp8
 70
     1
102
RTVSPropertyOp9
 70
     1
102
RTVSPropertyOp10
 70
     1
102
RTVSPropertyOp11
 70
     1
102
RTVSPropertyOp12
 70
     1
102
RTVSPropertyOp13
 70
     1
102
RTVSPropertyOp14
 70
     1
102
RTVSPropertyOp15
 70
     1
102
RTVSPropertyOp16
 70
     1
102
RTVSPropertyOp17
 70
     1
102
RTVSPropertyOp18
 70
     1
102
RTVSPropertyOp19
 70
     1
102
RTVSPropertyOp20
 70
     1
102
RTVSPropertyOp21
 70
     1
102
RTVSPropertyOp22
 70
     1
102
RTVSPropertyOp23
 70
     1
102
RTVSPropertyOp24
 70
     1
102
RTVSPropertyOp25
 70
     1
102
RTVSPropertyOp26
 70
     1
102
RTVSPropertyOp27
 70
     1
102
RTVSPropertyOp28
 70
     1
102
RTVSPropertyOp29
 70
     1
102
RTVSPropertyOp30
 70
     1
102
RTVSPropertyOp31
 70
     1
102
RTVSPropertyOp32
 70
     1
102
RTVSPropertyOp33
 70
     1
102
RTVSPropertyOp34
 70
     1
102
RTVSPropertyOp35
 70
     1
102
RTVSPropertyOp36
 70
     1
102
RTVSPropertyOp37
 70
     1
102
RTVSPropertyOp38
 70
     1
102
RTVSPropertyOp39
 70
     1
102
RTVSPropertyOp40
 70
     1
102
RTVSPropertyOp41
 70
     1
102
RTVSPropertyOp42
 70
     1
102
RTVSPropertyOp43
 70
     1
102
RTVSPropertyOp44
 70
     1
102
RTVSPropertyOp45
 70
     1
102
RTVSPropertyOp46
 70
     1
102
RTVSPropertyOp47
 70
     1
102
RTVSPropertyOp48
 70
     1
102
RTVSPropertyOp49
 70
     1
102
RTVSPropertyOp50
 70
     1
102
RTVSPropertyOp51
 70
     0
102
RTVSPropertyOp52
 70
     0
102
RTVSPropertyOp53
 70
     1
102
RTVSPropertyOp54
 70
     1
102
RTVSPropertyOp55
 70
     1
102
RTVSPropertyOp56
 70
     1
102
RTVSPropertyOp57
 70
     1
102
RTVSPost2010Prop28
280
     0
102
RTVSPost2010PropOp28
 70
     1
102
RTVSPost2010Prop29
280
     1
102
RTVSPost2010PropOp29
 70
     1
102
RTVSPost2010Prop30
280
     1
102
RTVSPost2010PropOp30
 70
     1
102
RTVSPost2010Prop31
280
     0
102
RTVSPost2010PropOp31
 70
     1
102
RTVSPost2010Prop32
280
     0
102
RTVSPost2010PropOp32
 70
     1
102
RTVSPost2010Prop33
280
     0
102
RTVSPost2010PropOp33
 70
     1
102
RTVSPost2010Prop34
280
     0
102
RTVSPost2010PropOp34
 70
     1
102
RTVSPost2010Prop35
280
     0
102
RTVSPost2010PropOp35
 70
     1
102
RTVSPost2010Prop36
280
     0
102
RTVSPost2010PropOp36
 70
     1
102
RTVSPost2010Prop37
 90
       50
102
RTVSPost2010PropOp37
 70
     1
102
RTVSPost2010Prop38
140
0.0
102
RTVSPost2010PropOp38
 70
     1
102
RTVSPost2010Prop39
140
1.0
102
RTVSPost2010PropOp39
 70
     1
102
RTVSPost2010Prop40
 90
        0
102
RTVSPost2010PropOp40
 70
     1
102
RTVSPost2010Prop41ColorIndex
 90
       18
102
RTVSPost2010Prop41ColorRGB
 90
        0
102
RTVSPost2010PropOp41
 70
     1
102
RTVSPost2010Prop42
 90
       50
102
RTVSPost2010PropOp42
 70
     1
102
RTVSPost2010Prop43
 90
        3
102
RTVSPost2010PropOp43
 70
     1
102
RTVSPost2010Prop44ColorIndex
 90
        5
102
RTVSPost2010Prop44ColorRGB
 90
      255
102
RTVSPost2010PropOp44
 70
     1
102
RTVSPost2010Prop45
280
     0
102
RTVSPost2010PropOp45
 70
     1
102
RTVSPost2010Prop46
 90
       50
102
RTVSPost2010PropOp46
 70
     1
102
RTVSPost2010Prop47
 90
       50
102
RTVSPost2010PropOp47
 70
     1
102
RTVSPost2010Prop48
 90
       50
102
RTVSPost2010PropOp48
 70
     1
102
RTVSPost2010Prop49
280
     0
102
RTVSPost2010PropOp49
 70
     1
102
RTVSPost2010Prop50
 90
       50
102
RTVSPost2010PropOp50
 70
     1
102
RTVSPost2010Prop51ColorIndex
 90
      256
102
RTVSPost2010Prop51ColorRGB
 90
-16777216
102
RTVSPost2010PropOp51
 70
     0
102
RTVSPost2010Prop52
140
1.0
102
RTVSPost2010PropOp52
 70
     0
102
RTVSPost2010Prop53
 90
        2
102
RTVSPost2010PropOp53
 70
     1
102
RTVSPost2010Prop54
  1
strokes_ogs.tif
102
RTVSPost2010PropOp54
 70
     1
102
RTVSPost2010Prop55
280
     0
102
RTVSPost2010PropOp55
 70
     1
102
RTVSPost2010Prop56
140
1.0
102
RTVSPost2010PropOp56
 70
     1
102
RTVSPost2010Prop57
140
1.0
102
RTVSPost2010PropOp57
 70
     1
  0
XRECORD
  5
156
102
{ACAD_REACTORS
330
155
102
}
330
155
100
AcDbXrecord
280
     1
102
RTVSPropertyOp0
 70
     1
102
RTVSPropertyOp1
 70
     1
102
RTVSPropertyOp2
 70
     1
102
RTVSPropertyOp3
 70
     1
102
RTVSPropertyOp4
 70
     1
102
RTVSPropertyOp5
 70
     1
102
RTVSPropertyOp6
 70
     1
102
RTVSPropertyOp7
 70
     1
102
RTVSPropertyOp8
 70
     1
102
RTVSPropertyOp9
 70
     1
102
RTVSPropertyOp10
 70
     1
102
RTVSPropertyOp11
 70
     1
102
RTVSPropertyOp12
 70
     1
102
RTVSPropertyOp13
 70
     1
102
RTVSPropertyOp14
 70
     1
102
RTVSPropertyOp15
 70
     1
102
RTVSPropertyOp16
 70
     1
102
RTVSPropertyOp17
 70
     1
102
RTVSPropertyOp18
 70
     1
102
RTVSPropertyOp19
 70
     1
102
RTVSPropertyOp20
 70
     1
102
RTVSPropertyOp21
 70
     1
102
RTVSPropertyOp22
 70
     1
102
RTVSPropertyOp23
 70
     1
102
RTVSPropertyOp24
 70
     1
102
RTVSPropertyOp25
 70
     1
102
RTVSPropertyOp26
 70
     1
102
RTVSPropertyOp27
 70
     1
102
RTVSPropertyOp28
 70
     1
102
RTVSPropertyOp29
 70
     1
102
RTVSPropertyOp30
 70
     1
102
RTVSPropertyOp31
 70
     1
102
RTVSPropertyOp32
 70
     1
102
RTVSPropertyOp33
 70
     1
102
RTVSPropertyOp34
 70
     1
102
RTVSPropertyOp35
 70
     1
102
RTVSPropertyOp36
 70
     1
102
RTVSPropertyOp37
 70
     1
102
RTVSPropertyOp38
 70
     1
102
RTVSPropertyOp39
 70
     1
102
RTVSPropertyOp40
 70
     1
102
RTVSPropertyOp41
 70
     1
102
RTVSPropertyOp42
 70
     1
102
RTVSPropertyOp43
 70
     1
102
RTVSPropertyOp44
 70
     1
102
RTVSPropertyOp45
 70
     1
102
RTVSPropertyOp46
 70
     1
102
RTVSPropertyOp47
 70
     1
102
RTVSPropertyOp48
 70
     1
102
RTVSPropertyOp49
 70
     1
102
RTVSPropertyOp50
 70
     1
102
RTVSPropertyOp51
 70
     0
102
RTVSPropertyOp52
 70
     0
102
RTVSPropertyOp53
 70
     1
102
RTVSPropertyOp54
 70
     1
102
RTVSPropertyOp55
 70
     1
102
RTVSPropertyOp56
 70
     1
102
RTVSPropertyOp57
 70
     1
102
RTVSPost2010Prop28
280
     0
102
RTVSPost2010PropOp28
 70
     1
102
RTVSPost2010Prop29
280
     1
102
RTVSPost2010PropOp29
 70
     1
102
RTVSPost2010Prop30
280
     1
102
RTVSPost2010PropOp30
 70
     1
102
RTVSPost2010Prop31
280
     0
102
RTVSPost2010PropOp31
 70
     1
102
RTVSPost2010Prop32
280
     0
102
RTVSPost2010PropOp32
 70
     1
102
RTVSPost2010Prop33
280
     0
102
RTVSPost2010PropOp33
 70
     1
102
RTVSPost2010Prop34
280
     0
102
RTVSPost2010PropOp34
 70
     1
102
RTVSPost2010Prop35
280
     0
102
RTVSPost2010PropOp35
 70
     1
102
RTVSPost2010Prop36
280
     0
102
RTVSPost2010PropOp36
 70
     1
102
RTVSPost2010Prop37
 90
       50
102
RTVSPost2010PropOp37
 70
     1
102
RTVSPost2010Prop38
140
0.0
102
RTVSPost2010PropOp38
 70
     1
102
RTVSPost2010Prop39
140
1.0
102
RTVSPost2010PropOp39
 70
     1
102
RTVSPost2010Prop40
 90
        0
102
RTVSPost2010PropOp40
 70
     1
102
RTVSPost2010Prop41ColorIndex
 90
       18
102
RTVSPost2010Prop41ColorRGB
 90
        0
102
RTVSPost2010PropOp41
 70
     1
102
RTVSPost2010Prop42
 90
       50
102
RTVSPost2010PropOp42
 70
     1
102
RTVSPost2010Prop43
 90
        3
102
RTVSPost2010PropOp43
 70
     1
102
RTVSPost2010Prop44ColorIndex
 90
        5
102
RTVSPost2010Prop44ColorRGB
 90
      255
102
RTVSPost2010PropOp44
 70
     1
102
RTVSPost2010Prop45
280
     0
102
RTVSPost2010PropOp45
 70
     1
102
RTVSPost2010Prop46
 90
       50
102
RTVSPost2010PropOp46
 70
     1
102
RTVSPost2010Prop47
 90
       50
102
RTVSPost2010PropOp47
 70
     1
102
RTVSPost2010Prop48
 90
       50
102
RTVSPost2010PropOp48
 70
     1
102
RTVSPost2010Prop49
280
     0
102
RTVSPost2010PropOp49
 70
     1
102
RTVSPost2010Prop50
 90
       50
102
RTVSPost2010PropOp50
 70
     1
102
RTVSPost2010Prop51ColorIndex
 90
      256
102
RTVSPost2010Prop51ColorRGB
 90
-16777216
102
RTVSPost2010PropOp51
 70
     0
102
RTVSPost2010Prop52
140
1.0
102
RTVSPost2010PropOp52
 70
     0
102
RTVSPost2010Prop53
 90
        2
102
RTVSPost2010PropOp53
 70
     1
102
RTVSPost2010Prop54
  1
strokes_ogs.tif
102
RTVSPost2010PropOp54
 70
     1
102
RTVSPost2010Prop55
280
     0
102
RTVSPost2010PropOp55
 70
     1
102
RTVSPost2010Prop56
140
1.0
102
RTVSPost2010PropOp56
 70
     1
102
RTVSPost2010Prop57
140
1.0
102
RTVSPost2010PropOp57
 70
     1
  0
XRECORD
  5
158
102
{ACAD_REACTORS
330
157
102
}
330
157
100
AcDbXrecord
280
     1
102
RTVSPropertyOp0
 70
     1
102
RTVSPropertyOp1
 70
     1
102
RTVSPropertyOp2
 70
     1
102
RTVSPropertyOp3
 70
     1
102
RTVSPropertyOp4
 70
     1
102
RTVSPropertyOp5
 70
     1
102
RTVSPropertyOp6
 70
     1
102
RTVSPropertyOp7
 70
     1
102
RTVSPropertyOp8
 70
     1
102
RTVSPropertyOp9
 70
     1
102
RTVSPropertyOp10
 70
     1
102
RTVSPropertyOp11
 70
     1
102
RTVSPropertyOp12
 70
     1
102
RTVSPropertyOp13
 70
     1
102
RTVSPropertyOp14
 70
     1
102
RTVSPropertyOp15
 70
     1
102
RTVSPropertyOp16
 70
     1
102
RTVSPropertyOp17
 70
     1
102
RTVSPropertyOp18
 70
     1
102
RTVSPropertyOp19
 70
     1
102
RTVSPropertyOp20
 70
     1
102
RTVSPropertyOp21
 70
     1
102
RTVSPropertyOp22
 70
     1
102
RTVSPropertyOp23
 70
     1
102
RTVSPropertyOp24
 70
     1
102
RTVSPropertyOp25
 70
     1
102
RTVSPropertyOp26
 70
     1
102
RTVSPropertyOp27
 70
     1
102
RTVSPropertyOp28
 70
     1
102
RTVSPropertyOp29
 70
     1
102
RTVSPropertyOp30
 70
     1
102
RTVSPropertyOp31
 70
     1
102
RTVSPropertyOp32
 70
     1
102
RTVSPropertyOp33
 70
     1
102
RTVSPropertyOp34
 70
     1
102
RTVSPropertyOp35
 70
     1
102
RTVSPropertyOp36
 70
     1
102
RTVSPropertyOp37
 70
     1
102
RTVSPropertyOp38
 70
     1
102
RTVSPropertyOp39
 70
     1
102
RTVSPropertyOp40
 70
     1
102
RTVSPropertyOp41
 70
     1
102
RTVSPropertyOp42
 70
     1
102
RTVSPropertyOp43
 70
     1
102
RTVSPropertyOp44
 70
     1
102
RTVSPropertyOp45
 70
     1
102
RTVSPropertyOp46
 70
     1
102
RTVSPropertyOp47
 70
     1
102
RTVSPropertyOp48
 70
     1
102
RTVSPropertyOp49
 70
     1
102
RTVSPropertyOp50
 70
     1
102
RTVSPropertyOp51
 70
     0
102
RTVSPropertyOp52
 70
     0
102
RTVSPropertyOp53
 70
     1
102
RTVSPropertyOp54
 70
     1
102
RTVSPropertyOp55
 70
     1
102
RTVSPropertyOp56
 70
     1
102
RTVSPropertyOp57
 70
     1
102
RTVSPost2010Prop28
280
     0
102
RTVSPost2010PropOp28
 70
     1
102
RTVSPost2010Prop29
280
     1
102
RTVSPost2010PropOp29
 70
     1
102
RTVSPost2010Prop30
280
     1
102
RTVSPost2010PropOp30
 70
     1
102
RTVSPost2010Prop31
280
     0
102
RTVSPost2010PropOp31
 70
     1
102
RTVSPost2010Prop32
280
     0
102
RTVSPost2010PropOp32
 70
     1
102
RTVSPost2010Prop33
280
     0
102
RTVSPost2010PropOp33
 70
     1
102
RTVSPost2010Prop34
280
     0
102
RTVSPost2010PropOp34
 70
     1
102
RTVSPost2010Prop35
280
     0
102
RTVSPost2010PropOp35
 70
     1
102
RTVSPost2010Prop36
280
     0
102
RTVSPost2010PropOp36
 70
     1
102
RTVSPost2010Prop37
 90
       50
102
RTVSPost2010PropOp37
 70
     1
102
RTVSPost2010Prop38
140
0.0
102
RTVSPost2010PropOp38
 70
     1
102
RTVSPost2010Prop39
140
1.0
102
RTVSPost2010PropOp39
 70
     1
102
RTVSPost2010Prop40
 90
        0
102
RTVSPost2010PropOp40
 70
     1
102
RTVSPost2010Prop41ColorIndex
 90
       18
102
RTVSPost2010Prop41ColorRGB
 90
        0
102
RTVSPost2010PropOp41
 70
     1
102
RTVSPost2010Prop42
 90
       50
102
RTVSPost2010PropOp42
 70
     1
102
RTVSPost2010Prop43
 90
        3
102
RTVSPost2010PropOp43
 70
     1
102
RTVSPost2010Prop44ColorIndex
 90
        5
102
RTVSPost2010Prop44ColorRGB
 90
      255
102
RTVSPost2010PropOp44
 70
     1
102
RTVSPost2010Prop45
280
     0
102
RTVSPost2010PropOp45
 70
     1
102
RTVSPost2010Prop46
 90
       50
102
RTVSPost2010PropOp46
 70
     1
102
RTVSPost2010Prop47
 90
       50
102
RTVSPost2010PropOp47
 70
     1
102
RTVSPost2010Prop48
 90
       50
102
RTVSPost2010PropOp48
 70
     1
102
RTVSPost2010Prop49
280
     0
102
RTVSPost2010PropOp49
 70
     1
102
RTVSPost2010Prop50
 90
       50
102
RTVSPost2010PropOp50
 70
     1
102
RTVSPost2010Prop51ColorIndex
 90
      256
102
RTVSPost2010Prop51ColorRGB
 90
-16777216
102
RTVSPost2010PropOp51
 70
     0
102
RTVSPost2010Prop52
140
1.0
102
RTVSPost2010PropOp52
 70
     0
102
RTVSPost2010Prop53
 90
        2
102
RTVSPost2010PropOp53
 70
     1
102
RTVSPost2010Prop54
  1
strokes_ogs.tif
102
RTVSPost2010PropOp54
 70
     1
102
RTVSPost2010Prop55
280
     0
102
RTVSPost2010PropOp55
 70
     1
102
RTVSPost2010Prop56
140
1.0
102
RTVSPost2010PropOp56
 70
     1
102
RTVSPost2010Prop57
140
1.0
102
RTVSPost2010PropOp57
 70
     1
  0
XRECORD
  5
148
102
{ACAD_REACTORS
330
147
102
}
330
147
100
AcDbXrecord
280
     1
102
RTVSPropertyOp0
 70
     1
102
RTVSPropertyOp1
 70
     1
102
RTVSPropertyOp2
 70
     1
102
RTVSPropertyOp3
 70
     1
102
RTVSPropertyOp4
 70
     1
102
RTVSPropertyOp5
 70
     1
102
RTVSPropertyOp6
 70
     1
102
RTVSPropertyOp7
 70
     1
102
RTVSPropertyOp8
 70
     1
102
RTVSPropertyOp9
 70
     1
102
RTVSPropertyOp10
 70
     1
102
RTVSPropertyOp11
 70
     1
102
RTVSPropertyOp12
 70
     1
102
RTVSPropertyOp13
 70
     1
102
RTVSPropertyOp14
 70
     1
102
RTVSPropertyOp15
 70
     1
102
RTVSPropertyOp16
 70
     1
102
RTVSPropertyOp17
 70
     1
102
RTVSPropertyOp18
 70
     1
102
RTVSPropertyOp19
 70
     1
102
RTVSPropertyOp20
 70
     1
102
RTVSPropertyOp21
 70
     1
102
RTVSPropertyOp22
 70
     1
102
RTVSPropertyOp23
 70
     1
102
RTVSPropertyOp24
 70
     1
102
RTVSPropertyOp25
 70
     1
102
RTVSPropertyOp26
 70
     1
102
RTVSPropertyOp27
 70
     1
102
RTVSPropertyOp28
 70
     1
102
RTVSPropertyOp29
 70
     1
102
RTVSPropertyOp30
 70
     1
102
RTVSPropertyOp31
 70
     1
102
RTVSPropertyOp32
 70
     1
102
RTVSPropertyOp33
 70
     1
102
RTVSPropertyOp34
 70
     1
102
RTVSPropertyOp35
 70
     1
102
RTVSPropertyOp36
 70
     1
102
RTVSPropertyOp37
 70
     1
102
RTVSPropertyOp38
 70
     1
102
RTVSPropertyOp39
 70
     1
102
RTVSPropertyOp40
 70
     1
102
RTVSPropertyOp41
 70
     1
102
RTVSPropertyOp42
 70
     1
102
RTVSPropertyOp43
 70
     1
102
RTVSPropertyOp44
 70
     1
102
RTVSPropertyOp45
 70
     1
102
RTVSPropertyOp46
 70
     1
102
RTVSPropertyOp47
 70
     1
102
RTVSPropertyOp48
 70
     1
102
RTVSPropertyOp49
 70
     1
102
RTVSPropertyOp50
 70
     1
102
RTVSPropertyOp51
 70
     0
102
RTVSPropertyOp52
 70
     0
102
RTVSPropertyOp53
 70
     1
102
RTVSPropertyOp54
 70
     1
102
RTVSPropertyOp55
 70
     1
102
RTVSPropertyOp56
 70
     1
102
RTVSPropertyOp57
 70
     1
102
RTVSPost2010Prop28
280
     0
102
RTVSPost2010PropOp28
 70
     1
102
RTVSPost2010Prop29
280
     1
102
RTVSPost2010PropOp29
 70
     1
102
RTVSPost2010Prop30
280
     1
102
RTVSPost2010PropOp30
 70
     1
102
RTVSPost2010Prop31
280
     0
102
RTVSPost2010PropOp31
 70
     1
102
RTVSPost2010Prop32
280
     0
102
RTVSPost2010PropOp32
 70
     1
102
RTVSPost2010Prop33
280
     0
102
RTVSPost2010PropOp33
 70
     1
102
RTVSPost2010Prop34
280
     0
102
RTVSPost2010PropOp34
 70
     1
102
RTVSPost2010Prop35
280
     0
102
RTVSPost2010PropOp35
 70
     1
102
RTVSPost2010Prop36
280
     0
102
RTVSPost2010PropOp36
 70
     1
102
RTVSPost2010Prop37
 90
       50
102
RTVSPost2010PropOp37
 70
     1
102
RTVSPost2010Prop38
140
0.0
102
RTVSPost2010PropOp38
 70
     1
102
RTVSPost2010Prop39
140
1.0
102
RTVSPost2010PropOp39
 70
     1
102
RTVSPost2010Prop40
 90
        0
102
RTVSPost2010PropOp40
 70
     1
102
RTVSPost2010Prop41ColorIndex
 90
       18
102
RTVSPost2010Prop41ColorRGB
 90
        0
102
RTVSPost2010PropOp41
 70
     1
102
RTVSPost2010Prop42
 90
       50
102
RTVSPost2010PropOp42
 70
     1
102
RTVSPost2010Prop43
 90
        3
102
RTVSPost2010PropOp43
 70
     1
102
RTVSPost2010Prop44ColorIndex
 90
        5
102
RTVSPost2010Prop44ColorRGB
 90
      255
102
RTVSPost2010PropOp44
 70
     1
102
RTVSPost2010Prop45
280
     0
102
RTVSPost2010PropOp45
 70
     1
102
RTVSPost2010Prop46
 90
       50
102
RTVSPost2010PropOp46
 70
     1
102
RTVSPost2010Prop47
 90
       50
102
RTVSPost2010PropOp47
 70
     1
102
RTVSPost2010Prop48
 90
       50
102
RTVSPost2010PropOp48
 70
     1
102
RTVSPost2010Prop49
280
     0
102
RTVSPost2010PropOp49
 70
     1
102
RTVSPost2010Prop50
 90
       50
102
RTVSPost2010PropOp50
 70
     1
102
RTVSPost2010Prop51ColorIndex
 90
      256
102
RTVSPost2010Prop51ColorRGB
 90
-16777216
102
RTVSPost2010PropOp51
 70
     0
102
RTVSPost2010Prop52
140
1.0
102
RTVSPost2010PropOp52
 70
     0
102
RTVSPost2010Prop53
 90
        2
102
RTVSPost2010PropOp53
 70
     1
102
RTVSPost2010Prop54
  1
strokes_ogs.tif
102
RTVSPost2010PropOp54
 70
     1
102
RTVSPost2010Prop55
280
     0
102
RTVSPost2010PropOp55
 70
     1
102
RTVSPost2010Prop56
140
1.0
102
RTVSPost2010PropOp56
 70
     1
102
RTVSPost2010Prop57
140
1.0
102
RTVSPost2010PropOp57
 70
     1
  0
XRECORD
  5
13A
102
{ACAD_REACTORS
330
139
102
}
330
139
100
AcDbXrecord
280
     1
102
RTVSPropertyOp0
 70
     1
102
RTVSPropertyOp1
 70
     1
102
RTVSPropertyOp2
 70
     1
102
RTVSPropertyOp3
 70
     1
102
RTVSPropertyOp4
 70
     1
102
RTVSPropertyOp5
 70
     1
102
RTVSPropertyOp6
 70
     1
102
RTVSPropertyOp7
 70
     1
102
RTVSPropertyOp8
 70
     1
102
RTVSPropertyOp9
 70
     1
102
RTVSPropertyOp10
 70
     1
102
RTVSPropertyOp11
 70
     1
102
RTVSPropertyOp12
 70
     1
102
RTVSPropertyOp13
 70
     1
102
RTVSPropertyOp14
 70
     1
102
RTVSPropertyOp15
 70
     1
102
RTVSPropertyOp16
 70
     1
102
RTVSPropertyOp17
 70
     1
102
RTVSPropertyOp18
 70
     1
102
RTVSPropertyOp19
 70
     1
102
RTVSPropertyOp20
 70
     1
102
RTVSPropertyOp21
 70
     1
102
RTVSPropertyOp22
 70
     1
102
RTVSPropertyOp23
 70
     1
102
RTVSPropertyOp24
 70
     1
102
RTVSPropertyOp25
 70
     1
102
RTVSPropertyOp26
 70
     1
102
RTVSPropertyOp27
 70
     1
102
RTVSPropertyOp28
 70
     1
102
RTVSPropertyOp29
 70
     1
102
RTVSPropertyOp30
 70
     1
102
RTVSPropertyOp31
 70
     1
102
RTVSPropertyOp32
 70
     1
102
RTVSPropertyOp33
 70
     1
102
RTVSPropertyOp34
 70
     1
102
RTVSPropertyOp35
 70
     1
102
RTVSPropertyOp36
 70
     1
102
RTVSPropertyOp37
 70
     1
102
RTVSPropertyOp38
 70
     1
102
RTVSPropertyOp39
 70
     1
102
RTVSPropertyOp40
 70
     1
102
RTVSPropertyOp41
 70
     1
102
RTVSPropertyOp42
 70
     1
102
RTVSPropertyOp43
 70
     1
102
RTVSPropertyOp44
 70
     1
102
RTVSPropertyOp45
 70
     1
102
RTVSPropertyOp46
 70
     1
102
RTVSPropertyOp47
 70
     1
102
RTVSPropertyOp48
 70
     1
102
RTVSPropertyOp49
 70
     1
102
RTVSPropertyOp50
 70
     1
102
RTVSPropertyOp51
 70
     0
102
RTVSPropertyOp52
 70
     0
102
RTVSPropertyOp53
 70
     1
102
RTVSPropertyOp54
 70
     1
102
RTVSPropertyOp55
 70
     1
102
RTVSPropertyOp56
 70
     1
102
RTVSPropertyOp57
 70
     1
102
RTVSPost2010Prop28
280
     0
102
RTVSPost2010PropOp28
 70
     1
102
RTVSPost2010Prop29
280
     1
102
RTVSPost2010PropOp29
 70
     1
102
RTVSPost2010Prop30
280
     1
102
RTVSPost2010PropOp30
 70
     1
102
RTVSPost2010Prop31
280
     0
102
RTVSPost2010PropOp31
 70
     1
102
RTVSPost2010Prop32
280
     0
102
RTVSPost2010PropOp32
 70
     1
102
RTVSPost2010Prop33
280
     0
102
RTVSPost2010PropOp33
 70
     1
102
RTVSPost2010Prop34
280
     0
102
RTVSPost2010PropOp34
 70
     1
102
RTVSPost2010Prop35
280
     0
102
RTVSPost2010PropOp35
 70
     1
102
RTVSPost2010Prop36
280
     0
102
RTVSPost2010PropOp36
 70
     1
102
RTVSPost2010Prop37
 90
       50
102
RTVSPost2010PropOp37
 70
     1
102
RTVSPost2010Prop38
140
0.0
102
RTVSPost2010PropOp38
 70
     1
102
RTVSPost2010Prop39
140
1.0
102
RTVSPost2010PropOp39
 70
     1
102
RTVSPost2010Prop40
 90
        0
102
RTVSPost2010PropOp40
 70
     1
102
RTVSPost2010Prop41ColorIndex
 90
       18
102
RTVSPost2010Prop41ColorRGB
 90
        0
102
RTVSPost2010PropOp41
 70
     1
102
RTVSPost2010Prop42
 90
       50
102
RTVSPost2010PropOp42
 70
     1
102
RTVSPost2010Prop43
 90
        3
102
RTVSPost2010PropOp43
 70
     1
102
RTVSPost2010Prop44ColorIndex
 90
        5
102
RTVSPost2010Prop44ColorRGB
 90
      255
102
RTVSPost2010PropOp44
 70
     1
102
RTVSPost2010Prop45
280
     0
102
RTVSPost2010PropOp45
 70
     1
102
RTVSPost2010Prop46
 90
       50
102
RTVSPost2010PropOp46
 70
     1
102
RTVSPost2010Prop47
 90
       50
102
RTVSPost2010PropOp47
 70
     1
102
RTVSPost2010Prop48
 90
       50
102
RTVSPost2010PropOp48
 70
     1
102
RTVSPost2010Prop49
280
     0
102
RTVSPost2010PropOp49
 70
     1
102
RTVSPost2010Prop50
 90
       50
102
RTVSPost2010PropOp50
 70
     1
102
RTVSPost2010Prop51ColorIndex
 90
      256
102
RTVSPost2010Prop51ColorRGB
 90
-16777216
102
RTVSPost2010PropOp51
 70
     0
102
RTVSPost2010Prop52
140
1.0
102
RTVSPost2010PropOp52
 70
     0
102
RTVSPost2010Prop53
 90
        2
102
RTVSPost2010PropOp53
 70
     1
102
RTVSPost2010Prop54
  1
strokes_ogs.tif
102
RTVSPost2010PropOp54
 70
     1
102
RTVSPost2010Prop55
280
     0
102
RTVSPost2010PropOp55
 70
     1
102
RTVSPost2010Prop56
140
1.0
102
RTVSPost2010PropOp56
 70
     1
102
RTVSPost2010Prop57
140
1.0
102
RTVSPost2010PropOp57
 70
     1
  0
XRECORD
  5
15A
102
{ACAD_REACTORS
330
159
102
}
330
159
100
AcDbXrecord
280
     1
102
RTVSPropertyOp0
 70
     1
102
RTVSPropertyOp1
 70
     1
102
RTVSPropertyOp2
 70
     1
102
RTVSPropertyOp3
 70
     1
102
RTVSPropertyOp4
 70
     1
102
RTVSPropertyOp5
 70
     1
102
RTVSPropertyOp6
 70
     1
102
RTVSPropertyOp7
 70
     1
102
RTVSPropertyOp8
 70
     1
102
RTVSPropertyOp9
 70
     1
102
RTVSPropertyOp10
 70
     1
102
RTVSPropertyOp11
 70
     1
102
RTVSPropertyOp12
 70
     1
102
RTVSPropertyOp13
 70
     1
102
RTVSPropertyOp14
 70
     1
102
RTVSPropertyOp15
 70
     1
102
RTVSPropertyOp16
 70
     1
102
RTVSPropertyOp17
 70
     1
102
RTVSPropertyOp18
 70
     1
102
RTVSPropertyOp19
 70
     1
102
RTVSPropertyOp20
 70
     1
102
RTVSPropertyOp21
 70
     1
102
RTVSPropertyOp22
 70
     1
102
RTVSPropertyOp23
 70
     1
102
RTVSPropertyOp24
 70
     1
102
RTVSPropertyOp25
 70
     1
102
RTVSPropertyOp26
 70
     1
102
RTVSPropertyOp27
 70
     1
102
RTVSPropertyOp28
 70
     1
102
RTVSPropertyOp29
 70
     1
102
RTVSPropertyOp30
 70
     1
102
RTVSPropertyOp31
 70
     1
102
RTVSPropertyOp32
 70
     1
102
RTVSPropertyOp33
 70
     1
102
RTVSPropertyOp34
 70
     1
102
RTVSPropertyOp35
 70
     1
102
RTVSPropertyOp36
 70
     1
102
RTVSPropertyOp37
 70
     1
102
RTVSPropertyOp38
 70
     1
102
RTVSPropertyOp39
 70
     1
102
RTVSPropertyOp40
 70
     1
102
RTVSPropertyOp41
 70
     1
102
RTVSPropertyOp42
 70
     1
102
RTVSPropertyOp43
 70
     1
102
RTVSPropertyOp44
 70
     1
102
RTVSPropertyOp45
 70
     1
102
RTVSPropertyOp46
 70
     1
102
RTVSPropertyOp47
 70
     1
102
RTVSPropertyOp48
 70
     1
102
RTVSPropertyOp49
 70
     1
102
RTVSPropertyOp50
 70
     1
102
RTVSPropertyOp51
 70
     0
102
RTVSPropertyOp52
 70
     0
102
RTVSPropertyOp53
 70
     1
102
RTVSPropertyOp54
 70
     1
102
RTVSPropertyOp55
 70
     1
102
RTVSPropertyOp56
 70
     1
102
RTVSPropertyOp57
 70
     1
102
RTVSPost2010Prop28
280
     0
102
RTVSPost2010PropOp28
 70
     1
102
RTVSPost2010Prop29
280
     1
102
RTVSPost2010PropOp29
 70
     1
102
RTVSPost2010Prop30
280
     1
102
RTVSPost2010PropOp30
 70
     1
102
RTVSPost2010Prop31
280
     0
102
RTVSPost2010PropOp31
 70
     1
102
RTVSPost2010Prop32
280
     0
102
RTVSPost2010PropOp32
 70
     1
102
RTVSPost2010Prop33
280
     0
102
RTVSPost2010PropOp33
 70
     1
102
RTVSPost2010Prop34
280
     0
102
RTVSPost2010PropOp34
 70
     1
102
RTVSPost2010Prop35
280
     0
102
RTVSPost2010PropOp35
 70
     1
102
RTVSPost2010Prop36
280
     0
102
RTVSPost2010PropOp36
 70
     1
102
RTVSPost2010Prop37
 90
       50
102
RTVSPost2010PropOp37
 70
     1
102
RTVSPost2010Prop38
140
0.0
102
RTVSPost2010PropOp38
 70
     1
102
RTVSPost2010Prop39
140
1.0
102
RTVSPost2010PropOp39
 70
     1
102
RTVSPost2010Prop40
 90
        0
102
RTVSPost2010PropOp40
 70
     1
102
RTVSPost2010Prop41ColorIndex
 90
       18
102
RTVSPost2010Prop41ColorRGB
 90
        0
102
RTVSPost2010PropOp41
 70
     1
102
RTVSPost2010Prop42
 90
       50
102
RTVSPost2010PropOp42
 70
     1
102
RTVSPost2010Prop43
 90
        3
102
RTVSPost2010PropOp43
 70
     1
102
RTVSPost2010Prop44ColorIndex
 90
        5
102
RTVSPost2010Prop44ColorRGB
 90
      255
102
RTVSPost2010PropOp44
 70
     1
102
RTVSPost2010Prop45
280
     0
102
RTVSPost2010PropOp45
 70
     1
102
RTVSPost2010Prop46
 90
       50
102
RTVSPost2010PropOp46
 70
     1
102
RTVSPost2010Prop47
 90
       50
102
RTVSPost2010PropOp47
 70
     1
102
RTVSPost2010Prop48
 90
       50
102
RTVSPost2010PropOp48
 70
     1
102
RTVSPost2010Prop49
280
     0
102
RTVSPost2010PropOp49
 70
     1
102
RTVSPost2010Prop50
 90
       50
102
RTVSPost2010PropOp50
 70
     1
102
RTVSPost2010Prop51ColorIndex
 90
      256
102
RTVSPost2010Prop51ColorRGB
 90
-16777216
102
RTVSPost2010PropOp51
 70
     0
102
RTVSPost2010Prop52
140
1.0
102
RTVSPost2010PropOp52
 70
     0
102
RTVSPost2010Prop53
 90
        2
102
RTVSPost2010PropOp53
 70
     1
102
RTVSPost2010Prop54
  1
strokes_ogs.tif
102
RTVSPost2010PropOp54
 70
     1
102
RTVSPost2010Prop55
280
     0
102
RTVSPost2010PropOp55
 70
     1
102
RTVSPost2010Prop56
140
1.0
102
RTVSPost2010PropOp56
 70
     1
102
RTVSPost2010Prop57
140
1.0
102
RTVSPost2010PropOp57
 70
     1
  0
ENDSEC
  0
EOF
