0
SECTION
2
HEADER
9
$INSUNITS
70
4
9
$ACADVER
1
AC1014
9
$HANDSEED
5
FFFF
0
ENDSEC
0
SECTION
2
TABLES
0
TABLE
2
VPORT
5
8
100
AcDbSymbolTable
0
ENDTAB
0
TABLE
2
LTYPE
5
5
100
AcDbSymbolTable
0
LTYPE
5
14
100
AcDbSymbolTableRecord
100
AcDbLinetypeTableRecord
2
BYBLOCK
70
0
0
LTYPE
5
15
100
AcDbSymbolTableRecord
100
AcDbLinetypeTableRecord
2
BYLAYER
70
0
0
ENDTAB
0
TABLE
2
LAYER
5
2
100
AcDbSymbolTable
70
2
0
LAYER
5
50
100
AcDbSymbolTableRecord
100
AcDbLayerTableRecord
2
0
70
0
6
CONTINUOUS
0
ENDTAB
0
TABLE
2
STYLE
5
3
100
AcDbSymbolTable
70
1
0
STYLE
5
11
100
AcDbSymbolTableRecord
100
AcDbTextStyleTableRecord
2
STANDARD
70
0
0
ENDTAB
0
TABLE
2
VIEW
5
6
100
AcDbSymbolTable
70
0
0
ENDTAB
0
TABLE
2
UCS
5
7
100
AcDbSymbolTable
70
0
0
ENDTAB
0
TABLE
2
APPID
5
9
100
AcDbSymbolTable
70
2
0
APPID
5
12
100
AcDbSymbolTableRecord
100
AcDbRegAppTableRecord
2
ACAD
70
0
0
ENDTAB
0
TABLE
2
DIMSTYLE
5
A
100
AcDbSymbolTable
70
1
0
ENDTAB
0
TABLE
2
BLOCK_RECORD
5
1
100
AcDbSymbolTable
70
1
0
BLOCK_RECORD
5
1F
100
AcDbSymbolTableRecord
100
AcDbBlockTableRecord
2
*MODEL_SPACE
0
BLOCK_RECORD
5
1B
100
AcDbSymbolTableRecord
100
AcDbBlockTableRecord
2
*PAPER_SPACE
0
ENDTAB
0
ENDSEC
0
SECTION
2
BLOCKS
0
BLOCK
5
20
100
AcDbEntity
100
AcDbBlockBegin
2
*MODEL_SPACE
0
ENDBLK
5
21
100
AcDbEntity
100
AcDbBlockEnd
0
BLOCK
5
1C
100
AcDbEntity
100
AcDbBlockBegin
2
*PAPER_SPACE
0
ENDBLK
5
1D
100
AcDbEntity
100
AcDbBlockEnd
0
ENDSEC
0
SECTION
2
ENTITIES
0
LINE
5
100
100
AcDbEntity
8
0
100
AcDbLine
10
1.7763568394002505e-14
20
8.6602540378444104
30
0
11
0
21
0
31
0
0
LINE
5
101
100
AcDbEntity
8
0
100
AcDbLine
10
0
20
0
30
0
11
7.5000000000000338
21
-4.330127018922231
31
0
0
LINE
5
102
100
AcDbEntity
8
0
100
AcDbLine
10
1.7763568394002505e-14
20
8.6602540378444104
30
0
11
-5.0000000000000133
21
8.6602540378444139
31
0
0
LINE
5
103
100
AcDbEntity
8
0
100
AcDbLine
10
-5.0000000000000133
20
8.6602540378444139
30
0
11
-7.5000000000000355
21
12.990381056766632
31
0
0
LINE
5
104
100
AcDbEntity
8
0
100
AcDbLine
10
-7.5000000000000355
20
12.990381056766632
30
0
11
-15.000000000000044
21
8.6602540378444051
31
0
0
LINE
5
105
100
AcDbEntity
8
0
100
AcDbLine
10
-15.000000000000044
20
8.6602540378444051
30
0
11
-15.000000000000062
21
-4.4408920985006262e-15
31
0
0
LINE
5
106
100
AcDbEntity
8
0
100
AcDbLine
10
-15.000000000000062
20
-4.4408920985006262e-15
30
0
11
-20.000000000000107
21
-1.4432899320127035e-14
31
0
0
LINE
5
107
100
AcDbEntity
8
0
100
AcDbLine
10
-20.000000000000107
20
-1.4432899320127035e-14
30
0
11
-22.500000000000075
21
-4.3301270189221857
31
0
0
LINE
5
108
100
AcDbEntity
8
0
100
AcDbLine
10
-22.500000000000075
20
-4.3301270189221857
30
0
11
-15.000000000000053
21
-8.6602540378443926
31
0
0
LINE
5
109
100
AcDbEntity
8
0
100
AcDbLine
10
-15.000000000000053
20
-8.6602540378443926
30
0
11
-7.5000000000000071
21
-4.3301270189222265
31
0
0
LINE
5
110
100
AcDbEntity
8
0
100
AcDbLine
10
-7.5000000000000071
20
-4.3301270189222265
30
0
11
-4.9999999999999911
21
-8.6602540378444601
31
0
0
LINE
5
111
100
AcDbEntity
8
0
100
AcDbLine
10
-4.9999999999999911
20
-8.6602540378444601
30
0
11
5.0000000000000089
21
-8.6602540378444637
31
0
0
LINE
5
112
100
AcDbEntity
8
0
100
AcDbLine
10
5.0000000000000089
20
-8.6602540378444637
30
0
11
7.5000000000000338
21
-4.330127018922231
31
0
0
ENDSEC
0
SECTION
2
OBJECTS
0
DICTIONARY
5
C
100
AcDbDictionary
3
ACAD_GROUP
350
D
3
ACAD_MLINESTYLE
350
17
0
DICTIONARY
5
D
100
AcDbDictionary
0
DICTIONARY
5
1A
330
C
100
AcDbDictionary
0
DICTIONARY
5
17
100
AcDbDictionary
0
ENDSEC
0
EOF
