ISO-10303-21;
HEADER;
/* Generated by software containing ST-Developer
 * from STEP Tools, Inc. (www.steptools.com) 
 */

FILE_DESCRIPTION(
/* description */ (''),
/* implementation_level */ '2;1');

FILE_NAME(
/* name */ 'Sausage_base_tighter-1.step',
/* time_stamp */ '2023-04-10T13:25:32+03:00',
/* author */ (''),
/* organization */ (''),
/* preprocessor_version */ 'ST-DEVELOPER v19.2',
/* originating_system */ 'Autodesk Translation Framework v12.4.0.73',
/* authorisation */ '');

FILE_SCHEMA (('AUTOMOTIVE_DESIGN { 1 0 10303 214 3 1 1 }'));
ENDSEC;

DATA;
#10=MECHANICAL_DESIGN_GEOMETRIC_PRESENTATION_REPRESENTATION('',(#13),#501);
#11=SHAPE_REPRESENTATION_RELATIONSHIP('SRR','None',#508,#12);
#12=ADVANCED_BREP_SHAPE_REPRESENTATION('',(#14),#500);
#13=STYLED_ITEM('',(#517),#14);
#14=MANIFOLD_SOLID_BREP('Body1',#255);
#15=B_SPLINE_CURVE_WITH_KNOTS('',3,(#424,#425,#426,#427,#428,#429,#430,
#431,#432,#433,#434,#435),.UNSPECIFIED.,.F.,.F.,(4,2,2,2,2,4),(-0.000501543154567548,
0.,0.0420123851291874,0.0836295396585246,0.123541272713851,0.160671585644632),
 .UNSPECIFIED.);
#16=B_SPLINE_CURVE_WITH_KNOTS('',3,(#438,#439,#440,#441,#442,#443,#444,
#445,#446,#447,#448,#449),.UNSPECIFIED.,.F.,.F.,(4,2,2,2,2,4),(-0.321665388678534,
-0.32116397772568,-0.279162666636773,-0.237556481969236,-0.197655269243833,
-0.160534743488998),.UNSPECIFIED.);
#17=CYLINDRICAL_SURFACE('',#276,10.);
#18=CYLINDRICAL_SURFACE('',#279,1.);
#19=CYLINDRICAL_SURFACE('',#290,2.05);
#20=CYLINDRICAL_SURFACE('',#296,19.);
#21=CYLINDRICAL_SURFACE('',#309,2.55);
#22=FACE_BOUND('',#66,.T.);
#23=FACE_BOUND('',#73,.T.);
#24=FACE_BOUND('',#79,.T.);
#25=LINE('',#414,#33);
#26=LINE('',#418,#34);
#27=LINE('',#437,#35);
#28=LINE('',#454,#36);
#29=LINE('',#456,#37);
#30=LINE('',#457,#38);
#31=LINE('',#471,#39);
#32=LINE('',#481,#40);
#33=VECTOR('',#324,10.);
#34=VECTOR('',#329,10.);
#35=VECTOR('',#336,10.);
#36=VECTOR('',#343,10.);
#37=VECTOR('',#344,10.);
#38=VECTOR('',#345,10.);
#39=VECTOR('',#362,2.);
#40=VECTOR('',#375,19.);
#41=PLANE('',#274);
#42=PLANE('',#282);
#43=PLANE('',#288);
#44=PLANE('',#302);
#45=PLANE('',#306);
#46=PLANE('',#308);
#47=FACE_OUTER_BOUND('',#64,.T.);
#48=FACE_OUTER_BOUND('',#65,.T.);
#49=FACE_OUTER_BOUND('',#67,.T.);
#50=FACE_OUTER_BOUND('',#68,.T.);
#51=FACE_OUTER_BOUND('',#69,.T.);
#52=FACE_OUTER_BOUND('',#70,.T.);
#53=FACE_OUTER_BOUND('',#71,.T.);
#54=FACE_OUTER_BOUND('',#72,.T.);
#55=FACE_OUTER_BOUND('',#74,.T.);
#56=FACE_OUTER_BOUND('',#75,.T.);
#57=FACE_OUTER_BOUND('',#76,.T.);
#58=FACE_OUTER_BOUND('',#77,.T.);
#59=FACE_OUTER_BOUND('',#78,.T.);
#60=FACE_OUTER_BOUND('',#80,.T.);
#61=FACE_OUTER_BOUND('',#81,.T.);
#62=FACE_OUTER_BOUND('',#82,.T.);
#63=FACE_OUTER_BOUND('',#83,.T.);
#64=EDGE_LOOP('',(#164,#165,#166,#167,#168));
#65=EDGE_LOOP('',(#169));
#66=EDGE_LOOP('',(#170,#171));
#67=EDGE_LOOP('',(#172,#173,#174,#175,#176,#177));
#68=EDGE_LOOP('',(#178,#179,#180,#181));
#69=EDGE_LOOP('',(#182,#183,#184,#185));
#70=EDGE_LOOP('',(#186,#187,#188,#189));
#71=EDGE_LOOP('',(#190,#191,#192,#193,#194));
#72=EDGE_LOOP('',(#195));
#73=EDGE_LOOP('',(#196));
#74=EDGE_LOOP('',(#197,#198,#199,#200,#201));
#75=EDGE_LOOP('',(#202,#203,#204,#205,#206));
#76=EDGE_LOOP('',(#207,#208,#209,#210,#211,#212));
#77=EDGE_LOOP('',(#213,#214,#215,#216,#217));
#78=EDGE_LOOP('',(#218));
#79=EDGE_LOOP('',(#219));
#80=EDGE_LOOP('',(#220,#221,#222,#223,#224));
#81=EDGE_LOOP('',(#225,#226));
#82=EDGE_LOOP('',(#227));
#83=EDGE_LOOP('',(#228,#229,#230,#231));
#84=CIRCLE('',#270,7.);
#85=CIRCLE('',#271,3.);
#86=CIRCLE('',#272,10.);
#87=CIRCLE('',#273,10.);
#88=CIRCLE('',#275,3.55);
#89=CIRCLE('',#277,10.);
#90=CIRCLE('',#278,10.);
#91=CIRCLE('',#281,2.55);
#92=CIRCLE('',#284,3.05);
#93=CIRCLE('',#285,1.);
#94=CIRCLE('',#286,2.05);
#95=CIRCLE('',#287,2.05);
#96=CIRCLE('',#289,18.);
#97=CIRCLE('',#291,2.05);
#98=CIRCLE('',#293,1.);
#99=CIRCLE('',#294,19.);
#100=CIRCLE('',#295,19.);
#101=CIRCLE('',#297,19.);
#102=CIRCLE('',#298,19.);
#103=CIRCLE('',#300,18.);
#104=CIRCLE('',#301,1.);
#105=CIRCLE('',#303,16.);
#106=CIRCLE('',#305,6.);
#107=CIRCLE('',#307,2.55);
#108=VERTEX_POINT('',#404);
#109=VERTEX_POINT('',#406);
#110=VERTEX_POINT('',#408);
#111=VERTEX_POINT('',#412);
#112=VERTEX_POINT('',#413);
#113=VERTEX_POINT('',#417);
#114=VERTEX_POINT('',#419);
#115=VERTEX_POINT('',#423);
#116=VERTEX_POINT('',#436);
#117=VERTEX_POINT('',#453);
#118=VERTEX_POINT('',#455);
#119=VERTEX_POINT('',#459);
#120=VERTEX_POINT('',#461);
#121=VERTEX_POINT('',#463);
#122=VERTEX_POINT('',#467);
#123=VERTEX_POINT('',#470);
#124=VERTEX_POINT('',#474);
#125=VERTEX_POINT('',#476);
#126=VERTEX_POINT('',#480);
#127=VERTEX_POINT('',#482);
#128=VERTEX_POINT('',#486);
#129=VERTEX_POINT('',#490);
#130=EDGE_CURVE('',#108,#108,#84,.T.);
#131=EDGE_CURVE('',#108,#109,#85,.T.);
#132=EDGE_CURVE('',#109,#110,#86,.T.);
#133=EDGE_CURVE('',#110,#109,#87,.T.);
#134=EDGE_CURVE('',#111,#112,#25,.T.);
#135=EDGE_CURVE('',#112,#111,#88,.T.);
#136=EDGE_CURVE('',#110,#113,#26,.T.);
#137=EDGE_CURVE('',#114,#113,#89,.T.);
#138=EDGE_CURVE('',#113,#114,#90,.T.);
#139=EDGE_CURVE('',#112,#115,#15,.T.);
#140=EDGE_CURVE('',#115,#116,#27,.T.);
#141=EDGE_CURVE('',#111,#116,#16,.T.);
#142=EDGE_CURVE('',#116,#115,#91,.T.);
#143=EDGE_CURVE('',#117,#115,#28,.T.);
#144=EDGE_CURVE('',#118,#117,#29,.F.);
#145=EDGE_CURVE('',#118,#116,#30,.F.);
#146=EDGE_CURVE('',#119,#119,#92,.T.);
#147=EDGE_CURVE('',#119,#120,#93,.T.);
#148=EDGE_CURVE('',#120,#121,#94,.T.);
#149=EDGE_CURVE('',#121,#120,#95,.T.);
#150=EDGE_CURVE('',#122,#122,#96,.T.);
#151=EDGE_CURVE('',#121,#123,#31,.T.);
#152=EDGE_CURVE('',#123,#123,#97,.T.);
#153=EDGE_CURVE('',#122,#124,#98,.T.);
#154=EDGE_CURVE('',#124,#125,#99,.T.);
#155=EDGE_CURVE('',#125,#124,#100,.T.);
#156=EDGE_CURVE('',#125,#126,#32,.T.);
#157=EDGE_CURVE('',#127,#126,#101,.T.);
#158=EDGE_CURVE('',#126,#127,#102,.T.);
#159=EDGE_CURVE('',#128,#128,#103,.T.);
#160=EDGE_CURVE('',#128,#127,#104,.T.);
#161=EDGE_CURVE('',#129,#129,#105,.T.);
#162=EDGE_CURVE('',#114,#129,#106,.T.);
#163=EDGE_CURVE('',#117,#118,#107,.F.);
#164=ORIENTED_EDGE('',*,*,#130,.T.);
#165=ORIENTED_EDGE('',*,*,#131,.T.);
#166=ORIENTED_EDGE('',*,*,#132,.T.);
#167=ORIENTED_EDGE('',*,*,#133,.T.);
#168=ORIENTED_EDGE('',*,*,#131,.F.);
#169=ORIENTED_EDGE('',*,*,#130,.F.);
#170=ORIENTED_EDGE('',*,*,#134,.F.);
#171=ORIENTED_EDGE('',*,*,#135,.F.);
#172=ORIENTED_EDGE('',*,*,#133,.F.);
#173=ORIENTED_EDGE('',*,*,#136,.T.);
#174=ORIENTED_EDGE('',*,*,#137,.F.);
#175=ORIENTED_EDGE('',*,*,#138,.F.);
#176=ORIENTED_EDGE('',*,*,#136,.F.);
#177=ORIENTED_EDGE('',*,*,#132,.F.);
#178=ORIENTED_EDGE('',*,*,#134,.T.);
#179=ORIENTED_EDGE('',*,*,#139,.T.);
#180=ORIENTED_EDGE('',*,*,#140,.T.);
#181=ORIENTED_EDGE('',*,*,#141,.F.);
#182=ORIENTED_EDGE('',*,*,#142,.T.);
#183=ORIENTED_EDGE('',*,*,#139,.F.);
#184=ORIENTED_EDGE('',*,*,#135,.T.);
#185=ORIENTED_EDGE('',*,*,#141,.T.);
#186=ORIENTED_EDGE('',*,*,#140,.F.);
#187=ORIENTED_EDGE('',*,*,#143,.F.);
#188=ORIENTED_EDGE('',*,*,#144,.F.);
#189=ORIENTED_EDGE('',*,*,#145,.T.);
#190=ORIENTED_EDGE('',*,*,#146,.T.);
#191=ORIENTED_EDGE('',*,*,#147,.T.);
#192=ORIENTED_EDGE('',*,*,#148,.T.);
#193=ORIENTED_EDGE('',*,*,#149,.T.);
#194=ORIENTED_EDGE('',*,*,#147,.F.);
#195=ORIENTED_EDGE('',*,*,#150,.F.);
#196=ORIENTED_EDGE('',*,*,#146,.F.);
#197=ORIENTED_EDGE('',*,*,#149,.F.);
#198=ORIENTED_EDGE('',*,*,#151,.T.);
#199=ORIENTED_EDGE('',*,*,#152,.F.);
#200=ORIENTED_EDGE('',*,*,#151,.F.);
#201=ORIENTED_EDGE('',*,*,#148,.F.);
#202=ORIENTED_EDGE('',*,*,#150,.T.);
#203=ORIENTED_EDGE('',*,*,#153,.T.);
#204=ORIENTED_EDGE('',*,*,#154,.T.);
#205=ORIENTED_EDGE('',*,*,#155,.T.);
#206=ORIENTED_EDGE('',*,*,#153,.F.);
#207=ORIENTED_EDGE('',*,*,#155,.F.);
#208=ORIENTED_EDGE('',*,*,#156,.T.);
#209=ORIENTED_EDGE('',*,*,#157,.F.);
#210=ORIENTED_EDGE('',*,*,#158,.F.);
#211=ORIENTED_EDGE('',*,*,#156,.F.);
#212=ORIENTED_EDGE('',*,*,#154,.F.);
#213=ORIENTED_EDGE('',*,*,#159,.T.);
#214=ORIENTED_EDGE('',*,*,#160,.T.);
#215=ORIENTED_EDGE('',*,*,#157,.T.);
#216=ORIENTED_EDGE('',*,*,#158,.T.);
#217=ORIENTED_EDGE('',*,*,#160,.F.);
#218=ORIENTED_EDGE('',*,*,#159,.F.);
#219=ORIENTED_EDGE('',*,*,#161,.F.);
#220=ORIENTED_EDGE('',*,*,#138,.T.);
#221=ORIENTED_EDGE('',*,*,#162,.T.);
#222=ORIENTED_EDGE('',*,*,#161,.T.);
#223=ORIENTED_EDGE('',*,*,#162,.F.);
#224=ORIENTED_EDGE('',*,*,#137,.T.);
#225=ORIENTED_EDGE('',*,*,#144,.T.);
#226=ORIENTED_EDGE('',*,*,#163,.T.);
#227=ORIENTED_EDGE('',*,*,#152,.T.);
#228=ORIENTED_EDGE('',*,*,#142,.F.);
#229=ORIENTED_EDGE('',*,*,#145,.F.);
#230=ORIENTED_EDGE('',*,*,#163,.F.);
#231=ORIENTED_EDGE('',*,*,#143,.T.);
#232=TOROIDAL_SURFACE('',#269,7.,3.);
#233=TOROIDAL_SURFACE('',#280,3.55,1.);
#234=TOROIDAL_SURFACE('',#283,3.05,1.);
#235=TOROIDAL_SURFACE('',#292,18.,1.);
#236=TOROIDAL_SURFACE('',#299,18.,1.);
#237=TOROIDAL_SURFACE('',#304,16.,6.);
#238=ADVANCED_FACE('',(#47),#232,.T.);
#239=ADVANCED_FACE('',(#48,#22),#41,.F.);
#240=ADVANCED_FACE('',(#49),#17,.T.);
#241=ADVANCED_FACE('',(#50),#18,.T.);
#242=ADVANCED_FACE('',(#51),#233,.T.);
#243=ADVANCED_FACE('',(#52),#42,.T.);
#244=ADVANCED_FACE('',(#53),#234,.T.);
#245=ADVANCED_FACE('',(#54,#23),#43,.T.);
#246=ADVANCED_FACE('',(#55),#19,.F.);
#247=ADVANCED_FACE('',(#56),#235,.T.);
#248=ADVANCED_FACE('',(#57),#20,.T.);
#249=ADVANCED_FACE('',(#58),#236,.T.);
#250=ADVANCED_FACE('',(#59,#24),#44,.F.);
#251=ADVANCED_FACE('',(#60),#237,.F.);
#252=ADVANCED_FACE('',(#61),#45,.F.);
#253=ADVANCED_FACE('',(#62),#46,.T.);
#254=ADVANCED_FACE('',(#63),#21,.F.);
#255=CLOSED_SHELL('',(#238,#239,#240,#241,#242,#243,#244,#245,#246,#247,
#248,#249,#250,#251,#252,#253,#254));
#256=DERIVED_UNIT_ELEMENT(#258,1.);
#257=DERIVED_UNIT_ELEMENT(#503,-3.);
#258=(
MASS_UNIT()
NAMED_UNIT(*)
SI_UNIT(.KILO.,.GRAM.)
);
#259=DERIVED_UNIT((#256,#257));
#260=MEASURE_REPRESENTATION_ITEM('density measure',
POSITIVE_RATIO_MEASURE(7850.),#259);
#261=PROPERTY_DEFINITION_REPRESENTATION(#266,#263);
#262=PROPERTY_DEFINITION_REPRESENTATION(#267,#264);
#263=REPRESENTATION('material name',(#265),#500);
#264=REPRESENTATION('density',(#260),#500);
#265=DESCRIPTIVE_REPRESENTATION_ITEM('Steel','Steel');
#266=PROPERTY_DEFINITION('material property','material name',#510);
#267=PROPERTY_DEFINITION('material property','density of part',#510);
#268=AXIS2_PLACEMENT_3D('',#402,#310,#311);
#269=AXIS2_PLACEMENT_3D('',#403,#312,#313);
#270=AXIS2_PLACEMENT_3D('',#405,#314,#315);
#271=AXIS2_PLACEMENT_3D('',#407,#316,#317);
#272=AXIS2_PLACEMENT_3D('',#409,#318,#319);
#273=AXIS2_PLACEMENT_3D('',#410,#320,#321);
#274=AXIS2_PLACEMENT_3D('',#411,#322,#323);
#275=AXIS2_PLACEMENT_3D('',#415,#325,#326);
#276=AXIS2_PLACEMENT_3D('',#416,#327,#328);
#277=AXIS2_PLACEMENT_3D('',#420,#330,#331);
#278=AXIS2_PLACEMENT_3D('',#421,#332,#333);
#279=AXIS2_PLACEMENT_3D('',#422,#334,#335);
#280=AXIS2_PLACEMENT_3D('',#450,#337,#338);
#281=AXIS2_PLACEMENT_3D('',#451,#339,#340);
#282=AXIS2_PLACEMENT_3D('',#452,#341,#342);
#283=AXIS2_PLACEMENT_3D('',#458,#346,#347);
#284=AXIS2_PLACEMENT_3D('',#460,#348,#349);
#285=AXIS2_PLACEMENT_3D('',#462,#350,#351);
#286=AXIS2_PLACEMENT_3D('',#464,#352,#353);
#287=AXIS2_PLACEMENT_3D('',#465,#354,#355);
#288=AXIS2_PLACEMENT_3D('',#466,#356,#357);
#289=AXIS2_PLACEMENT_3D('',#468,#358,#359);
#290=AXIS2_PLACEMENT_3D('',#469,#360,#361);
#291=AXIS2_PLACEMENT_3D('',#472,#363,#364);
#292=AXIS2_PLACEMENT_3D('',#473,#365,#366);
#293=AXIS2_PLACEMENT_3D('',#475,#367,#368);
#294=AXIS2_PLACEMENT_3D('',#477,#369,#370);
#295=AXIS2_PLACEMENT_3D('',#478,#371,#372);
#296=AXIS2_PLACEMENT_3D('',#479,#373,#374);
#297=AXIS2_PLACEMENT_3D('',#483,#376,#377);
#298=AXIS2_PLACEMENT_3D('',#484,#378,#379);
#299=AXIS2_PLACEMENT_3D('',#485,#380,#381);
#300=AXIS2_PLACEMENT_3D('',#487,#382,#383);
#301=AXIS2_PLACEMENT_3D('',#488,#384,#385);
#302=AXIS2_PLACEMENT_3D('',#489,#386,#387);
#303=AXIS2_PLACEMENT_3D('',#491,#388,#389);
#304=AXIS2_PLACEMENT_3D('',#492,#390,#391);
#305=AXIS2_PLACEMENT_3D('',#493,#392,#393);
#306=AXIS2_PLACEMENT_3D('',#494,#394,#395);
#307=AXIS2_PLACEMENT_3D('',#495,#396,#397);
#308=AXIS2_PLACEMENT_3D('',#496,#398,#399);
#309=AXIS2_PLACEMENT_3D('',#497,#400,#401);
#310=DIRECTION('axis',(0.,0.,1.));
#311=DIRECTION('refdir',(1.,0.,0.));
#312=DIRECTION('center_axis',(4.44336864610798E-35,-1.,7.70371977754894E-34));
#313=DIRECTION('ref_axis',(0.,0.,-1.));
#314=DIRECTION('center_axis',(-4.44336864610798E-35,1.,-7.70371977754894E-34));
#315=DIRECTION('ref_axis',(1.,4.44336864610798E-35,-2.31111593326469E-34));
#316=DIRECTION('center_axis',(-1.,-4.44336864610799E-35,-1.22464679914735E-16));
#317=DIRECTION('ref_axis',(-1.22464679914735E-16,0.,1.));
#318=DIRECTION('center_axis',(4.44336864610798E-35,-1.,7.70371977754894E-34));
#319=DIRECTION('ref_axis',(1.,0.,-2.31111593326469E-34));
#320=DIRECTION('center_axis',(4.44336864610798E-35,-1.,7.70371977754894E-34));
#321=DIRECTION('ref_axis',(1.,0.,-2.31111593326469E-34));
#322=DIRECTION('center_axis',(-4.44336864610798E-35,1.,-7.70371977754894E-34));
#323=DIRECTION('ref_axis',(1.,4.44336864610798E-35,0.));
#324=DIRECTION('',(1.,4.44336864610798E-35,2.25486409062779E-68));
#325=DIRECTION('center_axis',(4.44336864610798E-35,-1.,7.70371977754894E-34));
#326=DIRECTION('ref_axis',(-5.4422697285547E-17,7.70371977754894E-34,1.));
#327=DIRECTION('center_axis',(0.,-1.,0.));
#328=DIRECTION('ref_axis',(1.,0.,0.));
#329=DIRECTION('',(0.,1.,0.));
#330=DIRECTION('center_axis',(1.11022302462516E-16,1.,-3.25260651745651E-18));
#331=DIRECTION('ref_axis',(-1.,1.11022302462516E-16,1.9515639104739E-18));
#332=DIRECTION('center_axis',(1.11022302462516E-16,1.,-3.25260651745651E-18));
#333=DIRECTION('ref_axis',(-1.,1.11022302462516E-16,1.9515639104739E-18));
#334=DIRECTION('center_axis',(-1.,-4.44336864610798E-35,-2.25486409062779E-68));
#335=DIRECTION('ref_axis',(0.,-0.707106781186541,0.707106781186554));
#336=DIRECTION('',(-1.,-4.44336864610798E-35,-2.25486409062779E-68));
#337=DIRECTION('center_axis',(-4.44336864610798E-35,1.,-7.70371977754894E-34));
#338=DIRECTION('ref_axis',(0.,0.,1.));
#339=DIRECTION('center_axis',(-4.44336864610798E-35,1.,-7.70371977754894E-34));
#340=DIRECTION('ref_axis',(-5.4422697285547E-17,0.,1.));
#341=DIRECTION('center_axis',(-2.25486409062779E-68,0.,1.));
#342=DIRECTION('ref_axis',(-1.,-1.51638771256057E-35,-2.25486409062779E-68));
#343=DIRECTION('',(0.,-1.,0.));
#344=DIRECTION('',(-1.,1.11022302462516E-16,-2.25486409062779E-68));
#345=DIRECTION('',(0.,1.,0.));
#346=DIRECTION('center_axis',(-1.11022302462516E-16,-1.,3.25260651745651E-18));
#347=DIRECTION('ref_axis',(0.,0.,-1.));
#348=DIRECTION('center_axis',(1.11022302462516E-16,1.,-3.25260651745651E-18));
#349=DIRECTION('ref_axis',(-1.,1.11022302462516E-16,1.58663732558854E-18));
#350=DIRECTION('center_axis',(-1.,1.11022302462516E-16,-1.22464679914735E-16));
#351=DIRECTION('ref_axis',(-1.22464679914735E-16,0.,1.));
#352=DIRECTION('center_axis',(-1.11022302462516E-16,-1.,3.25260651745651E-18));
#353=DIRECTION('ref_axis',(-1.,1.35393051783556E-16,1.58663732558854E-18));
#354=DIRECTION('center_axis',(-1.11022302462516E-16,-1.,3.25260651745651E-18));
#355=DIRECTION('ref_axis',(-1.,1.35393051783556E-16,1.58663732558854E-18));
#356=DIRECTION('center_axis',(1.11022302462516E-16,1.,-3.25260651745651E-18));
#357=DIRECTION('ref_axis',(0.,3.25260651745651E-18,1.));
#358=DIRECTION('center_axis',(-1.11022302462516E-16,-1.,3.25260651745651E-18));
#359=DIRECTION('ref_axis',(-1.,1.11022302462516E-16,1.71189816708237E-19));
#360=DIRECTION('center_axis',(1.04083408558608E-16,1.,0.));
#361=DIRECTION('ref_axis',(-1.,1.04083408558608E-16,-7.70371977754895E-34));
#362=DIRECTION('',(-1.04083408558608E-16,-1.,0.));
#363=DIRECTION('center_axis',(1.11022302462516E-16,1.,-3.25260651745651E-18));
#364=DIRECTION('ref_axis',(-1.,1.04083408558608E-16,-7.70371977754895E-34));
#365=DIRECTION('center_axis',(1.11022302462516E-16,1.,-3.25260651745651E-18));
#366=DIRECTION('ref_axis',(0.,0.,1.));
#367=DIRECTION('center_axis',(-1.,1.11022302462516E-16,1.22464679914735E-16));
#368=DIRECTION('ref_axis',(-1.22464679914735E-16,0.,-1.));
#369=DIRECTION('center_axis',(1.11022302462516E-16,1.,-3.25260651745651E-18));
#370=DIRECTION('ref_axis',(-1.,1.09561482693272E-16,1.71189816708237E-19));
#371=DIRECTION('center_axis',(1.11022302462516E-16,1.,-3.25260651745651E-18));
#372=DIRECTION('ref_axis',(-1.,1.09561482693272E-16,1.71189816708237E-19));
#373=DIRECTION('center_axis',(1.11022302462516E-16,1.,0.));
#374=DIRECTION('ref_axis',(-1.,1.11022302462516E-16,-7.70371977754895E-34));
#375=DIRECTION('',(-1.11022302462516E-16,-1.,0.));
#376=DIRECTION('center_axis',(-1.11022302462516E-16,-1.,3.25260651745651E-18));
#377=DIRECTION('ref_axis',(-1.,1.09561482693272E-16,-1.71189816708237E-19));
#378=DIRECTION('center_axis',(-1.11022302462516E-16,-1.,3.25260651745651E-18));
#379=DIRECTION('ref_axis',(-1.,1.09561482693272E-16,-1.71189816708237E-19));
#380=DIRECTION('center_axis',(-1.11022302462516E-16,-1.,3.25260651745651E-18));
#381=DIRECTION('ref_axis',(0.,0.,-1.));
#382=DIRECTION('center_axis',(1.11022302462516E-16,1.,-3.25260651745651E-18));
#383=DIRECTION('ref_axis',(-1.,1.11022302462516E-16,-1.71189816708237E-19));
#384=DIRECTION('center_axis',(-1.,1.11022302462516E-16,-1.22464679914735E-16));
#385=DIRECTION('ref_axis',(-1.22464679914735E-16,0.,1.));
#386=DIRECTION('center_axis',(1.11022302462516E-16,1.,-3.25260651745651E-18));
#387=DIRECTION('ref_axis',(0.,3.25260651745651E-18,1.));
#388=DIRECTION('center_axis',(-1.11022302462516E-16,-1.,3.25260651745651E-18));
#389=DIRECTION('ref_axis',(-1.,1.11022302462516E-16,1.9515639104739E-18));
#390=DIRECTION('center_axis',(1.11022302462516E-16,1.,-3.25260651745651E-18));
#391=DIRECTION('ref_axis',(0.,0.,1.));
#392=DIRECTION('center_axis',(-1.,1.11022302462516E-16,1.22464679914735E-16));
#393=DIRECTION('ref_axis',(-1.22464679914735E-16,0.,-1.));
#394=DIRECTION('center_axis',(1.11022302462516E-16,1.,-3.25260651745651E-18));
#395=DIRECTION('ref_axis',(-1.,1.11022302462516E-16,-7.70371977754895E-34));
#396=DIRECTION('center_axis',(1.11022302462516E-16,1.,-3.25260651745651E-18));
#397=DIRECTION('ref_axis',(-0.604243129874039,0.,-0.796800000000016));
#398=DIRECTION('center_axis',(1.11022302462516E-16,1.,-3.25260651745651E-18));
#399=DIRECTION('ref_axis',(-1.,1.11022302462516E-16,-7.70371977754895E-34));
#400=DIRECTION('center_axis',(0.,-1.,0.));
#401=DIRECTION('ref_axis',(2.72113486427735E-16,0.,1.));
#402=CARTESIAN_POINT('',(0.,0.,0.));
#403=CARTESIAN_POINT('Origin',(-8.18789480661053E-15,89.6614205103892,-24.9274204903418));
#404=CARTESIAN_POINT('',(-9.04514756601368E-15,86.6614205103892,-17.9274204903418));
#405=CARTESIAN_POINT('Origin',(-8.18789480661053E-15,86.6614205103892,-24.9274204903418));
#406=CARTESIAN_POINT('',(-9.41254160575788E-15,89.6614205103892,-14.9274204903418));
#407=CARTESIAN_POINT('Origin',(-9.04514756601368E-15,89.6614205103892,-17.9274204903418));
#408=CARTESIAN_POINT('',(-10.,89.6614205103892,-24.9274204903418));
#409=CARTESIAN_POINT('Origin',(-8.18789480661053E-15,89.6614205103892,-24.9274204903418));
#410=CARTESIAN_POINT('Origin',(-8.18789480661053E-15,89.6614205103892,-24.9274204903418));
#411=CARTESIAN_POINT('Origin',(-7.7715611723761E-15,86.6614205103892,-24.9274204903418));
#412=CARTESIAN_POINT('',(-1.82995519070817,86.6614205103892,-27.9694204903418));
#413=CARTESIAN_POINT('',(1.82995519070815,86.6614205103892,-27.9694204903418));
#414=CARTESIAN_POINT('',(0.755303912342534,86.6614205103892,-27.9694204903418));
#415=CARTESIAN_POINT('Origin',(-8.18789480661053E-15,86.6614205103892,-24.9274204903418));
#416=CARTESIAN_POINT('Origin',(-8.18789480661053E-15,98.6614205103892,-24.9274204903418));
#417=CARTESIAN_POINT('',(-10.,110.661420510389,-24.9274204903418));
#418=CARTESIAN_POINT('',(-10.,98.6614205103892,-24.9274204903418));
#419=CARTESIAN_POINT('',(-9.41254160575788E-15,110.661420510389,-34.9274204903418));
#420=CARTESIAN_POINT('Origin',(-8.18789480661053E-15,110.661420510389,-24.9274204903418));
#421=CARTESIAN_POINT('Origin',(-8.18789480661053E-15,110.661420510389,-24.9274204903418));
#422=CARTESIAN_POINT('Origin',(0.755303912342534,87.6614205103892,-27.9694204903418));
#423=CARTESIAN_POINT('',(1.52732969590714,87.6614205103892,-26.9694204903418));
#424=CARTESIAN_POINT('Ctrl Pts',(1.82995519070815,86.6614205103892,-27.9694204903418));
#425=CARTESIAN_POINT('Ctrl Pts',(1.82950800312697,86.6614205103892,-27.9678095981462));
#426=CARTESIAN_POINT('Ctrl Pts',(1.82906066384516,86.6614244028496,-27.966198749965));
#427=CARTESIAN_POINT('Ctrl Pts',(1.79112883748703,86.6620842472886,-27.8296581250776));
#428=CARTESIAN_POINT('Ctrl Pts',(1.75284086211488,86.6900375762139,-27.6961605314964));
#429=CARTESIAN_POINT('Ctrl Pts',(1.67977754486478,86.7968821700102,-27.4493364574095));
#430=CARTESIAN_POINT('Ctrl Pts',(1.64551870583622,86.8745064092657,-27.3376645524902));
#431=CARTESIAN_POINT('Ctrl Pts',(1.58807411387495,87.0669111944918,-27.1549053070755));
#432=CARTESIAN_POINT('Ctrl Pts',(1.56503415197056,87.178377251194,-27.0839416556236));
#433=CARTESIAN_POINT('Ctrl Pts',(1.53498119730912,87.4159584891433,-26.9922762879371));
#434=CARTESIAN_POINT('Ctrl Pts',(1.52732969590714,87.5379301597917,-26.9694204903418));
#435=CARTESIAN_POINT('Ctrl Pts',(1.52732969590714,87.6614205103892,-26.9694204903418));
#436=CARTESIAN_POINT('',(-1.52732969590715,87.6614205103892,-26.9694204903418));
#437=CARTESIAN_POINT('',(0.755303912342534,87.6614205103892,-26.9694204903418));
#438=CARTESIAN_POINT('Ctrl Pts',(-1.82995519070817,86.6614205103892,-27.9694204903418));
#439=CARTESIAN_POINT('Ctrl Pts',(-1.82950800312699,86.6614205103892,-27.9678095981462));
#440=CARTESIAN_POINT('Ctrl Pts',(-1.82906066384518,86.6614244028496,-27.966198749965));
#441=CARTESIAN_POINT('Ctrl Pts',(-1.79112883748658,86.6620842472886,-27.8296581250759));
#442=CARTESIAN_POINT('Ctrl Pts',(-1.75284086211419,86.6900375762144,-27.6961605314942));
#443=CARTESIAN_POINT('Ctrl Pts',(-1.67977754486394,86.7968821700119,-27.4493364574068));
#444=CARTESIAN_POINT('Ctrl Pts',(-1.64551870583549,86.8745064092677,-27.3376645524877));
#445=CARTESIAN_POINT('Ctrl Pts',(-1.58807411387438,87.0669111944943,-27.1549053070737));
#446=CARTESIAN_POINT('Ctrl Pts',(-1.56503415197009,87.1783772511967,-27.0839416556221));
#447=CARTESIAN_POINT('Ctrl Pts',(-1.53498119730901,87.4159584891453,-26.9922762879367));
#448=CARTESIAN_POINT('Ctrl Pts',(-1.52732969590715,87.5379301597928,-26.9694204903418));
#449=CARTESIAN_POINT('Ctrl Pts',(-1.52732969590715,87.6614205103892,-26.9694204903418));
#450=CARTESIAN_POINT('Origin',(-8.18789480661053E-15,87.6614205103892,-24.9274204903418));
#451=CARTESIAN_POINT('Origin',(-8.18789480661053E-15,87.6614205103892,-24.9274204903418));
#452=CARTESIAN_POINT('Origin',(1.51060782468508,98.6614205103892,-26.9694204903418));
#453=CARTESIAN_POINT('',(1.52732969590714,98.6614205103892,-26.9694204903418));
#454=CARTESIAN_POINT('',(1.52732969590714,98.6614205103892,-26.9694204903418));
#455=CARTESIAN_POINT('',(-1.52732969590716,98.6614205103892,-26.9694204903418));
#456=CARTESIAN_POINT('',(0.755303912342526,98.6614205103892,-26.9694204903418));
#457=CARTESIAN_POINT('',(-1.52732969590715,98.6614205103892,-26.9694204903418));
#458=CARTESIAN_POINT('Origin',(-2.16745813216593E-14,120.661420510389,-24.9274204903418));
#459=CARTESIAN_POINT('',(-2.19370762929367E-14,121.661420510389,-21.8774204903418));
#460=CARTESIAN_POINT('Origin',(-2.15635590191968E-14,121.661420510389,-24.9274204903418));
#461=CARTESIAN_POINT('',(-2.19256339154845E-14,120.661420510389,-22.8774204903418));
#462=CARTESIAN_POINT('Origin',(-2.20480985953992E-14,120.661420510389,-21.8774204903418));
#463=CARTESIAN_POINT('',(2.04999999999998,120.661420510389,-24.9274204903418));
#464=CARTESIAN_POINT('Origin',(-2.16745813216593E-14,120.661420510389,-24.9274204903418));
#465=CARTESIAN_POINT('Origin',(-2.16745813216593E-14,120.661420510389,-24.9274204903418));
#466=CARTESIAN_POINT('Origin',(-2.18713935851156E-14,121.661420510389,-24.9274204903418));
#467=CARTESIAN_POINT('',(-2.36392383161714E-14,121.661420510389,-42.9274204903418));
#468=CARTESIAN_POINT('Origin',(-2.14348740777061E-14,121.661420510389,-24.9274204903418));
#469=CARTESIAN_POINT('Origin',(-2.37562494928315E-14,100.661420510389,-24.9274204903418));
#470=CARTESIAN_POINT('',(2.04999999999998,100.661420510389,-24.9274204903418));
#471=CARTESIAN_POINT('',(2.04999999999998,100.661420510389,-24.9274204903418));
#472=CARTESIAN_POINT('Origin',(-2.37562494928315E-14,100.661420510389,-24.9274204903418));
#473=CARTESIAN_POINT('Origin',(-2.15458963801687E-14,120.661420510389,-24.9274204903418));
#474=CARTESIAN_POINT('',(-2.38727252985486E-14,120.661420510389,-43.9274204903418));
#475=CARTESIAN_POINT('Origin',(-2.37502606186339E-14,120.661420510389,-42.9274204903418));
#476=CARTESIAN_POINT('',(19.,120.661420510389,-24.9274204903418));
#477=CARTESIAN_POINT('Origin',(-2.15458963801687E-14,120.661420510389,-24.9274204903418));
#478=CARTESIAN_POINT('Origin',(-2.15458963801687E-14,120.661420510389,-24.9274204903418));
#479=CARTESIAN_POINT('Origin',(-2.19899855900187E-14,116.661420510389,-24.9274204903418));
#480=CARTESIAN_POINT('',(19.,117.661420510389,-24.9274204903418));
#481=CARTESIAN_POINT('',(19.,116.661420510389,-24.9274204903418));
#482=CARTESIAN_POINT('',(-2.42057922059362E-14,117.661420510389,-5.92742049034179));
#483=CARTESIAN_POINT('Origin',(-2.18789632875562E-14,117.661420510389,-24.9274204903418));
#484=CARTESIAN_POINT('Origin',(-2.18789632875562E-14,117.661420510389,-24.9274204903418));
#485=CARTESIAN_POINT('Origin',(-2.18789632875562E-14,117.661420510389,-24.9274204903418));
#486=CARTESIAN_POINT('',(-2.4194349828484E-14,116.661420510389,-6.92742049034179));
#487=CARTESIAN_POINT('Origin',(-2.19899855900187E-14,116.661420510389,-24.9274204903418));
#488=CARTESIAN_POINT('Origin',(-2.40833275260214E-14,117.661420510389,-6.92742049034179));
#489=CARTESIAN_POINT('Origin',(-2.24265050974282E-14,116.661420510389,-24.9274204903418));
#490=CARTESIAN_POINT('',(-9.4811958704712E-15,116.661420510389,-40.9274204903418));
#491=CARTESIAN_POINT('Origin',(-7.52176099183544E-15,116.661420510389,-24.9274204903418));
#492=CARTESIAN_POINT('Origin',(-8.18789480661053E-15,110.661420510389,-24.9274204903418));
#493=CARTESIAN_POINT('Origin',(-1.01473296852463E-14,110.661420510389,-40.9274204903418));
#494=CARTESIAN_POINT('Origin',(-2.44249065417534E-14,98.6614205103892,-24.9274204903418));
#495=CARTESIAN_POINT('Origin',(-8.18789480661053E-15,98.6614205103892,-24.9274204903418));
#496=CARTESIAN_POINT('Origin',(-2.44249065417534E-14,100.661420510389,-24.9274204903418));
#497=CARTESIAN_POINT('Origin',(-8.18789480661053E-15,98.6614205103892,-24.9274204903418));
#498=UNCERTAINTY_MEASURE_WITH_UNIT(LENGTH_MEASURE(0.01),#502,
'DISTANCE_ACCURACY_VALUE',
'Maximum model space distance between geometric entities at asserted c
onnectivities');
#499=UNCERTAINTY_MEASURE_WITH_UNIT(LENGTH_MEASURE(0.01),#502,
'DISTANCE_ACCURACY_VALUE',
'Maximum model space distance between geometric entities at asserted c
onnectivities');
#500=(
GEOMETRIC_REPRESENTATION_CONTEXT(3)
GLOBAL_UNCERTAINTY_ASSIGNED_CONTEXT((#498))
GLOBAL_UNIT_ASSIGNED_CONTEXT((#502,#504,#505))
REPRESENTATION_CONTEXT('','3D')
);
#501=(
GEOMETRIC_REPRESENTATION_CONTEXT(3)
GLOBAL_UNCERTAINTY_ASSIGNED_CONTEXT((#499))
GLOBAL_UNIT_ASSIGNED_CONTEXT((#502,#504,#505))
REPRESENTATION_CONTEXT('','3D')
);
#502=(
LENGTH_UNIT()
NAMED_UNIT(*)
SI_UNIT(.MILLI.,.METRE.)
);
#503=(
LENGTH_UNIT()
NAMED_UNIT(*)
SI_UNIT($,.METRE.)
);
#504=(
NAMED_UNIT(*)
PLANE_ANGLE_UNIT()
SI_UNIT($,.RADIAN.)
);
#505=(
NAMED_UNIT(*)
SI_UNIT($,.STERADIAN.)
SOLID_ANGLE_UNIT()
);
#506=SHAPE_DEFINITION_REPRESENTATION(#507,#508);
#507=PRODUCT_DEFINITION_SHAPE('',$,#510);
#508=SHAPE_REPRESENTATION('',(#268),#500);
#509=PRODUCT_DEFINITION_CONTEXT('part definition',#514,'design');
#510=PRODUCT_DEFINITION('Sausage_base','Sausage_base',#511,#509);
#511=PRODUCT_DEFINITION_FORMATION('',$,#516);
#512=PRODUCT_RELATED_PRODUCT_CATEGORY('Sausage_base','Sausage_base',(#516));
#513=APPLICATION_PROTOCOL_DEFINITION('international standard',
'automotive_design',2009,#514);
#514=APPLICATION_CONTEXT(
'Core Data for Automotive Mechanical Design Process');
#515=PRODUCT_CONTEXT('part definition',#514,'mechanical');
#516=PRODUCT('Sausage_base','Sausage_base',$,(#515));
#517=PRESENTATION_STYLE_ASSIGNMENT((#518));
#518=SURFACE_STYLE_USAGE(.BOTH.,#519);
#519=SURFACE_SIDE_STYLE('',(#520));
#520=SURFACE_STYLE_FILL_AREA(#521);
#521=FILL_AREA_STYLE('Steel - Satin',(#522));
#522=FILL_AREA_STYLE_COLOUR('Steel - Satin',#523);
#523=COLOUR_RGB('Steel - Satin',0.627450980392157,0.627450980392157,0.627450980392157);
ENDSEC;
END-ISO-10303-21;
