0
SECTION
2
HEADER
9
$INSUNITS
70
4
9
$ACADVER
1
AC1014
9
$HANDSEED
5
FFFF
0
ENDSEC
0
SECTION
2
TABLES
0
TABLE
2
VPORT
5
8
100
AcDbSymbolTable
0
ENDTAB
0
TABLE
2
LTYPE
5
5
100
AcDbSymbolTable
0
LTYPE
5
14
100
AcDbSymbolTableRecord
100
AcDbLinetypeTableRecord
2
BYBLOCK
70
0
0
LTYPE
5
15
100
AcDbSymbolTableRecord
100
AcDbLinetypeTableRecord
2
BYLAYER
70
0
0
ENDTAB
0
TABLE
2
LAYER
5
2
100
AcDbSymbolTable
70
2
0
LAYER
5
50
100
AcDbSymbolTableRecord
100
AcDbLayerTableRecord
2
0
70
0
6
CONTINUOUS
0
ENDTAB
0
TABLE
2
STYLE
5
3
100
AcDbSymbolTable
70
1
0
STYLE
5
11
100
AcDbSymbolTableRecord
100
AcDbTextStyleTableRecord
2
STANDARD
70
0
0
ENDTAB
0
TABLE
2
VIEW
5
6
100
AcDbSymbolTable
70
0
0
ENDTAB
0
TABLE
2
UCS
5
7
100
AcDbSymbolTable
70
0
0
ENDTAB
0
TABLE
2
APPID
5
9
100
AcDbSymbolTable
70
2
0
APPID
5
12
100
AcDbSymbolTableRecord
100
AcDbRegAppTableRecord
2
ACAD
70
0
0
ENDTAB
0
TABLE
2
DIMSTYLE
5
A
100
AcDbSymbolTable
70
1
0
ENDTAB
0
TABLE
2
BLOCK_RECORD
5
1
100
AcDbSymbolTable
70
1
0
BLOCK_RECORD
5
1F
100
AcDbSymbolTableRecord
100
AcDbBlockTableRecord
2
*MODEL_SPACE
0
BLOCK_RECORD
5
1B
100
AcDbSymbolTableRecord
100
AcDbBlockTableRecord
2
*PAPER_SPACE
0
ENDTAB
0
ENDSEC
0
SECTION
2
BLOCKS
0
BLOCK
5
20
100
AcDbEntity
100
AcDbBlockBegin
2
*MODEL_SPACE
0
ENDBLK
5
21
100
AcDbEntity
100
AcDbBlockEnd
0
BLOCK
5
1C
100
AcDbEntity
100
AcDbBlockBegin
2
*PAPER_SPACE
0
ENDBLK
5
1D
100
AcDbEntity
100
AcDbBlockEnd
0
ENDSEC
0
SECTION
2
ENTITIES
0
LWPOLYLINE
5
100
100
AcDbEntity
8
0
100
AcDbPolyline
90
4
70
1
43
0.0
10
0
20
0
10
30
20
-6.1629758220391547e-32
10
30
20
-30
10
0
20
-30
0
LINE
5
101
100
AcDbEntity
8
0
100
AcDbLine
10
-1.8993396406053054e-13
20
-15.878885540119303
30
0
11
30.000000000000043
21
-15.878885540119303
31
0
0
LINE
5
102
100
AcDbEntity
8
0
100
AcDbLine
10
15
20
-30
30
0
11
15
21
-3.0814879110195774e-32
31
0
0
SPLINE
5
103
100
AcDbEntity
8
0
100
AcDbSpline
70
4
71
5
72
16
73
10
74
0
42
0.000000001
43
0.0000000001
44
0.0000000001
40
0
40
0
40
0
40
0
40
0
40
0
40
0.20000000000000001
40
0.40000000000000002
40
0.60000000000000009
40
0.80000000000000004
40
1
40
1
40
1
40
1
40
1
40
1
41
1
41
1
41
1
41
1
41
1
41
1
41
1
41
1
41
1
41
1
10
0
20
-15
30
0
10
0.2718358120629295
20
-15.082273501141639
30
0
10
0.81402788495523304
20
-15.232680372013194
30
0
10
1.6228683220828839
20
-15.415908741357207
30
0
10
2.6823925365031998
20
-15.587398953980481
30
0
10
3.9061018866082584
20
-15.722796127349234
30
0
10
4.7184444017732554
20
-15.795030713558592
30
0
10
5.1769400742876259
20
-15.837578404772819
30
0
10
5.4040717987097473
20
-15.861473028420063
30
0
10
5.4979865679815889
20
-15.872302467935791
30
0
0
LINE
5
104
100
AcDbEntity
8
0
100
AcDbLine
10
7.5
20
-12.878885540119303
30
0
11
7.5
21
0
31
0
0
ARC
5
105
100
AcDbEntity
8
0
100
AcDbCircle
10
5.6125413911937034
20
-14.87888554011834
30
0
40
0.99999999999770961
210
0
220
0
230
1
100
AcDbArc
50
-96.577948607880415
51
46.658241773003262
0
SPLINE
5
106
100
AcDbEntity
8
0
100
AcDbSpline
70
4
71
5
72
16
73
10
74
0
42
0.000000001
43
0.0000000001
44
0.0000000001
40
0
40
0
40
0
40
0
40
0
40
0
40
0.20000000000000001
40
0.40000000000000002
40
0.60000000000000009
40
0.80000000000000004
40
1
40
1
40
1
40
1
40
1
40
1
41
1
41
1
41
1
41
1
41
1
41
1
41
1
41
1
41
1
41
1
10
15
20
-15
30
0
10
14.728164187937118
20
-15.082273501141625
30
0
10
14.185972115044905
20
-15.232680372012915
30
0
10
13.377131677917454
20
-15.415908741355809
30
0
10
12.317607463497124
20
-15.587398953976656
30
0
10
11.093898113391866
20
-15.722796127341908
30
0
10
10.281555598226683
20
-15.795030713549007
30
0
10
9.8230599257122986
20
-15.837578404762302
30
0
10
9.5959282012902207
20
-15.861473028409332
30
0
10
9.502013432018412
20
-15.872302467925056
30
0
0
ARC
5
107
100
AcDbEntity
8
0
100
AcDbCircle
10
9.3874586088063676
20
-14.878885540127502
30
0
40
1.0000000000031619
210
0
220
0
230
1
100
AcDbArc
50
133.3417582264434
51
276.57794860800703
0
ARC
5
108
100
AcDbEntity
8
0
100
AcDbCircle
10
7.5
20
-12.878885540119303
30
0
40
1.7499999999950329
210
0
220
0
230
1
100
AcDbArc
50
-46.658241772786283
51
226.65824177289826
0
LINE
5
109
100
AcDbEntity
8
0
100
AcDbLine
10
15
20
-15
30
0
11
15
21
-3.0814879110195774e-32
31
0
0
LINE
5
110
100
AcDbEntity
8
0
100
AcDbLine
10
0
20
-14.999999999999998
30
0
11
30
21
-15
31
0
0
SPLINE
5
111
100
AcDbEntity
8
0
100
AcDbSpline
70
4
71
5
72
16
73
10
74
0
42
0.000000001
43
0.0000000001
44
0.0000000001
40
0
40
0
40
0
40
0
40
0
40
0
40
0.20000000000000001
40
0.40000000000000002
40
0.60000000000000009
40
0.80000000000000004
40
1
40
1
40
1
40
1
40
1
40
1
41
1
41
1
41
1
41
1
41
1
41
1
41
1
41
1
41
1
41
1
10
15.000000000000004
20
-30.000000000000004
30
0
10
15.082273501141643
20
-29.728164187937075
30
0
10
15.232680372013199
20
-29.18597211504477
30
0
10
15.415908741357212
20
-28.37713167791712
30
0
10
15.587398953980484
20
-27.317607463496806
30
0
10
15.722796127349239
20
-26.093898113391745
30
0
10
15.795030713558598
20
-25.281555598226749
30
0
10
15.83757840477282
20
-24.823059925712379
30
0
10
15.861473028420065
20
-24.595928201290256
30
0
10
15.872302467935793
20
-24.502013432018416
30
0
0
ARC
5
112
100
AcDbEntity
8
0
100
AcDbCircle
10
14.87888554011834
20
-24.387458608806298
30
0
40
0.99999999999771205
210
0
220
0
230
1
100
AcDbArc
50
-6.5779486078805123
51
136.65824177300348
0
ARC
5
113
100
AcDbEntity
8
0
100
AcDbCircle
10
12.878885540119303
20
-22.500000000000004
30
0
40
1.7499999999950333
210
0
220
-0
230
1
100
AcDbArc
50
43.341758227213724
51
316.65824177289818
0
ARC
5
114
100
AcDbEntity
8
0
100
AcDbCircle
10
14.878885540127502
20
-20.612541391193634
30
0
40
1.0000000000031619
210
0
220
0
230
1
100
AcDbArc
50
-136.65824177355654
51
6.5779486080068299
0
SPLINE
5
115
100
AcDbEntity
8
0
100
AcDbSpline
70
4
71
5
72
16
73
10
74
0
42
0.000000001
43
0.0000000001
44
0.0000000001
40
0
40
0
40
0
40
0
40
0
40
0
40
0.20000000000000001
40
0.40000000000000002
40
0.60000000000000009
40
0.80000000000000004
40
1
40
1
40
1
40
1
40
1
40
1
41
1
41
1
41
1
41
1
41
1
41
1
41
1
41
1
41
1
41
1
10
15
20
-15
30
0
10
15.082273501141628
20
-15.271835812062884
30
0
10
15.232680372012917
20
-15.814027884955097
30
0
10
15.41590874135581
20
-16.622868322082549
30
0
10
15.58739895397666
20
-17.682392536502878
30
0
10
15.722796127341912
20
-18.906101886608134
30
0
10
15.795030713549011
20
-19.718444401773318
30
0
10
15.837578404762304
20
-20.176940074287707
30
0
10
15.861473028409334
20
-20.404071798709783
30
0
10
15.87230246792506
20
-20.497986567981592
30
0
0
SPLINE
5
116
100
AcDbEntity
8
0
100
AcDbSpline
70
4
71
5
72
16
73
10
74
0
42
0.000000001
43
0.0000000001
44
0.0000000001
40
0
40
0
40
0
40
0
40
0
40
0
40
0.20000000000000001
40
0.40000000000000002
40
0.60000000000000009
40
0.80000000000000004
40
1
40
1
40
1
40
1
40
1
40
1
41
1
41
1
41
1
41
1
41
1
41
1
41
1
41
1
41
1
41
1
10
30
20
-15
30
0
10
29.728164187937072
20
-14.917726498858361
30
0
10
29.185972115044766
20
-14.767319627986806
30
0
10
28.37713167791712
20
-14.584091258642793
30
0
10
27.317607463496802
20
-14.412601046019519
30
0
10
26.093898113391742
20
-14.277203872650766
30
0
10
25.281555598226745
20
-14.204969286441408
30
0
10
24.823059925712379
20
-14.162421595227181
30
0
10
24.595928201290253
20
-14.138526971579937
30
0
10
24.502013432018416
20
-14.127697532064209
30
0
0
ARC
5
117
100
AcDbEntity
8
0
100
AcDbCircle
10
24.387458608806298
20
-15.12111445988166
30
0
40
0.99999999999770983
210
0
220
-0
230
1
100
AcDbArc
50
83.422051392119442
51
226.65824177300328
0
ARC
5
118
100
AcDbEntity
8
0
100
AcDbCircle
10
22.5
20
-17.121114459880697
30
0
40
1.7499999999950302
210
0
220
0
230
1
100
AcDbArc
50
-226.65824177278637
51
46.658241772898208
0
ARC
5
119
100
AcDbEntity
8
0
100
AcDbCircle
10
20.612541391193634
20
-15.121114459872496
30
0
40
1.0000000000031635
210
0
220
0
230
1
100
AcDbArc
50
-46.65824177355659
51
96.577948608006892
0
SPLINE
5
120
100
AcDbEntity
8
0
100
AcDbSpline
70
4
71
5
72
16
73
10
74
0
42
0.000000001
43
0.0000000001
44
0.0000000001
40
0
40
0
40
0
40
0
40
0
40
0
40
0.20000000000000001
40
0.40000000000000002
40
0.60000000000000009
40
0.80000000000000004
40
1
40
1
40
1
40
1
40
1
40
1
41
1
41
1
41
1
41
1
41
1
41
1
41
1
41
1
41
1
41
1
10
15.000000000000002
20
-14.999999999999998
30
0
10
15.271835812062884
20
-14.917726498858372
30
0
10
15.814027884955097
20
-14.767319627987083
30
0
10
16.622868322082549
20
-14.58409125864419
30
0
10
17.682392536502878
20
-14.41260104602334
30
0
10
18.906101886608134
20
-14.277203872658088
30
0
10
19.718444401773318
20
-14.204969286450989
30
0
10
20.1769400742877
20
-14.162421595237696
30
0
10
20.404071798709783
20
-14.138526971590666
30
0
10
20.497986567981592
20
-14.12769753207494
30
0
0
SPLINE
5
121
100
AcDbEntity
8
0
100
AcDbSpline
70
4
71
5
72
16
73
10
74
0
42
0.000000001
43
0.0000000001
44
0.0000000001
40
0
40
0
40
0
40
0
40
0
40
0
40
0.20000000000000001
40
0.40000000000000002
40
0.60000000000000009
40
0.80000000000000004
40
1
40
1
40
1
40
1
40
1
40
1
41
1
41
1
41
1
41
1
41
1
41
1
41
1
41
1
41
1
41
1
10
15.000000000000004
20
-1.1102230246251565e-15
30
0
10
14.917726498858366
20
-0.27183581206293062
30
0
10
14.76731962798681
20
-0.81402788495523415
30
0
10
14.584091258642797
20
-1.6228683220828848
30
0
10
14.412601046019525
20
-2.6823925365032011
30
0
10
14.27720387265077
20
-3.9061018866082597
30
0
10
14.204969286441411
20
-4.7184444017732572
30
0
10
14.162421595227183
20
-5.1769400742876268
30
0
10
14.138526971579939
20
-5.4040717987097491
30
0
10
14.127697532064211
20
-5.4979865679815898
30
0
0
ARC
5
122
100
AcDbEntity
8
0
100
AcDbCircle
10
15.121114459881662
20
-5.6125413911937052
30
0
40
0.99999999999770961
210
0
220
0
230
1
100
AcDbArc
50
173.42205139211956
51
316.65824177300334
0
ARC
5
123
100
AcDbEntity
8
0
100
AcDbCircle
10
17.121114459880701
20
-7.5000000000000009
30
0
40
1.7499999999950329
210
0
220
0
230
1
100
AcDbArc
50
-136.65824177278631
51
136.65824177289832
0
ARC
5
124
100
AcDbEntity
8
0
100
AcDbCircle
10
15.1211144598725
20
-9.3874586088063694
30
0
40
1.0000000000031619
210
0
220
-0
230
1
100
AcDbArc
50
43.341758226443403
51
186.57794860800684
0
SPLINE
5
125
100
AcDbEntity
8
0
100
AcDbSpline
70
4
71
5
72
16
73
10
74
0
42
0.000000001
43
0.0000000001
44
0.0000000001
40
0
40
0
40
0
40
0
40
0
40
0
40
0.20000000000000001
40
0.40000000000000002
40
0.60000000000000009
40
0.80000000000000004
40
1
40
1
40
1
40
1
40
1
40
1
41
1
41
1
41
1
41
1
41
1
41
1
41
1
41
1
41
1
41
1
10
15
20
-15
30
0
10
14.917726498858377
20
-14.728164187937118
30
0
10
14.767319627987089
20
-14.185972115044905
30
0
10
14.584091258644193
20
-13.377131677917454
30
0
10
14.412601046023346
20
-12.317607463497124
30
0
10
14.277203872658093
20
-11.093898113391866
30
0
10
14.204969286450995
20
-10.281555598226683
30
0
10
14.162421595237699
20
-9.8230599257123004
30
0
10
14.13852697159067
20
-9.5959282012902207
30
0
10
14.127697532074945
20
-9.502013432018412
30
0
0
ENDSEC
0
SECTION
2
OBJECTS
0
DICTIONARY
5
C
100
AcDbDictionary
3
ACAD_GROUP
350
D
3
ACAD_MLINESTYLE
350
17
0
DICTIONARY
5
D
100
AcDbDictionary
0
DICTIONARY
5
1A
330
C
100
AcDbDictionary
0
DICTIONARY
5
17
100
AcDbDictionary
0
ENDSEC
0
EOF
