999
"DXF R12 Output" (www.mydxf.blogspot.com)
 0 
SECTION
 2 
HEADER
 9 
$ACADVER
 1 
AC1009
 9 
$EXTMIN
 10 
 0 
 20 
 0 
 9 
$EXTMAX
 10 
 8.5 
 20 
 11 
 0 
ENDSEC
 0 
SECTION
 2 
ENTITIES
0
LINE
8
Layer 1
10
26.306700
20
6.012080
11
27.232871
21
6.012080
0
LINE
8
Layer 1
10
27.232871
20
6.012080
11
27.318723
21
6.095331
0
LINE
8
Layer 1
10
27.318723
20
6.095331
11
27.318723
21
6.615651
0
LINE
8
Layer 1
10
27.318723
20
6.615651
11
27.178237
21
6.756137
0
LINE
8
Layer 1
10
27.178237
20
6.756137
11
25.518417
21
6.756137
0
LINE
8
Layer 1
10
25.518417
20
6.756137
11
25.411751
21
6.761342
0
LINE
8
Layer 1
10
25.411751
20
6.761342
11
25.188013
21
6.982478
0
LINE
8
Layer 1
10
25.188013
20
6.982478
11
25.182900
21
7.089150
0
LINE
8
Layer 1
10
25.182900
20
7.089150
11
25.182900
21
8.093370
0
LINE
8
Layer 1
10
25.182900
20
8.093370
11
25.091844
21
8.187028
0
LINE
8
Layer 1
10
25.091844
20
8.187028
11
24.532499
21
8.187028
0
LINE
8
Layer 1
10
24.532499
20
8.187028
11
24.438841
21
8.088167
0
LINE
8
Layer 1
10
24.438841
20
8.088167
11
24.438841
21
6.998097
0
LINE
8
Layer 1
10
24.438841
20
6.998097
11
24.518678
21
6.620499
0
LINE
8
Layer 1
10
24.518678
20
6.620499
11
24.734123
21
6.307046
0
LINE
8
Layer 1
10
24.734123
20
6.307046
11
25.049079
21
6.092617
0
LINE
8
Layer 1
10
25.049079
20
6.092617
11
25.427450
21
6.012090
0
LINE
8
Layer 1
10
25.427450
20
6.012090
11
26.306792
21
6.012090
0
LINE
8
Layer 1
10
26.306792
20
6.012090
11
26.306700
21
6.012080
0
LINE
8
Layer 1
10
17.404100
20
6.012080
11
17.973851
21
6.012080
0
LINE
8
Layer 1
10
17.973851
20
6.012080
11
18.062305
21
6.097933
0
LINE
8
Layer 1
10
18.062305
20
6.097933
11
18.062305
21
6.667684
0
LINE
8
Layer 1
10
18.062305
20
6.667684
11
17.976453
21
6.758740
0
LINE
8
Layer 1
10
17.976453
20
6.758740
11
17.898404
21
6.758740
0
LINE
8
Layer 1
10
17.898404
20
6.758740
11
16.972234
21
6.758740
0
LINE
8
Layer 1
10
16.972234
20
6.758740
11
16.875975
21
6.758740
0
LINE
8
Layer 1
10
16.875975
20
6.758740
11
16.639229
21
6.977275
0
LINE
8
Layer 1
10
16.639229
20
6.977275
11
16.631424
21
7.083941
0
LINE
8
Layer 1
10
16.631424
20
7.083941
11
16.631424
21
7.604262
0
LINE
8
Layer 1
10
16.631424
20
7.604262
11
16.542969
21
7.692716
0
LINE
8
Layer 1
10
16.542969
20
7.692716
11
15.983624
21
7.692716
0
LINE
8
Layer 1
10
15.983624
20
7.692716
11
15.887365
21
7.599058
0
LINE
8
Layer 1
10
15.887365
20
7.599058
11
15.887365
21
7.011096
0
LINE
8
Layer 1
10
15.887365
20
7.011096
11
15.969681
21
6.623783
0
LINE
8
Layer 1
10
15.969681
20
6.623783
11
16.186874
21
6.306713
0
LINE
8
Layer 1
10
16.186874
20
6.306713
11
16.506018
21
6.092080
0
LINE
8
Layer 1
10
16.506018
20
6.092080
11
16.894185
21
6.012081
0
LINE
8
Layer 1
10
16.894185
20
6.012081
11
17.406701
21
6.012081
0
LINE
8
Layer 1
10
17.406701
20
6.012081
11
17.404100
21
6.012080
0
LINE
8
Layer 1
10
29.519700
20
6.012080
11
30.089450
21
6.012080
0
LINE
8
Layer 1
10
30.089450
20
6.012080
11
30.177905
21
6.105738
0
LINE
8
Layer 1
10
30.177905
20
6.105738
11
30.177905
21
6.618254
0
LINE
8
Layer 1
10
30.177905
20
6.618254
11
30.040020
21
6.761342
0
LINE
8
Layer 1
10
30.040020
20
6.761342
11
29.064418
21
6.761342
0
LINE
8
Layer 1
10
29.064418
20
6.761342
11
28.921329
21
6.779553
0
LINE
8
Layer 1
10
28.921329
20
6.779553
11
28.749625
21
7.055323
0
LINE
8
Layer 1
10
28.749625
20
7.055323
11
28.749625
21
7.604261
0
LINE
8
Layer 1
10
28.749625
20
7.604261
11
28.655966
21
7.695317
0
LINE
8
Layer 1
10
28.655966
20
7.695317
11
28.096622
21
7.695317
0
LINE
8
Layer 1
10
28.096622
20
7.695317
11
28.005566
21
7.604261
0
LINE
8
Layer 1
10
28.005566
20
7.604261
11
28.005566
21
6.995486
0
LINE
8
Layer 1
10
28.005566
20
6.995486
11
28.093699
21
6.612115
0
LINE
8
Layer 1
10
28.093699
20
6.612115
11
28.314509
21
6.299232
0
LINE
8
Layer 1
10
28.314509
20
6.299232
11
28.631903
21
6.089275
0
LINE
8
Layer 1
10
28.631903
20
6.089275
11
29.009786
21
6.014682
0
LINE
8
Layer 1
10
29.009786
20
6.014682
11
29.522302
21
6.014682
0
LINE
8
Layer 1
10
29.522302
20
6.014682
11
29.519700
21
6.012080
0
LINE
8
Layer 1
10
12.120200
20
7.305080
11
12.120200
21
7.208821
0
LINE
8
Layer 1
10
12.120200
20
7.208821
11
12.120200
21
6.100541
0
LINE
8
Layer 1
10
12.120200
20
6.100541
11
12.185240
21
6.012086
0
LINE
8
Layer 1
10
12.185240
20
6.012086
11
12.801820
21
6.012086
0
LINE
8
Layer 1
10
12.801820
20
6.012086
11
12.864259
21
6.074525
0
LINE
8
Layer 1
10
12.864259
20
6.074525
11
12.864259
21
6.160378
0
LINE
8
Layer 1
10
12.864259
20
6.160378
11
12.864259
21
7.250448
0
LINE
8
Layer 1
10
12.864259
20
7.250448
11
12.864259
21
8.486208
0
LINE
8
Layer 1
10
12.864259
20
8.486208
11
12.734179
21
8.613687
0
LINE
8
Layer 1
10
12.734179
20
8.613687
11
12.252882
21
8.613687
0
LINE
8
Layer 1
10
12.252882
20
8.613687
11
12.167029
21
8.611086
0
LINE
8
Layer 1
10
12.167029
20
8.611086
11
12.120200
21
8.561656
0
LINE
8
Layer 1
10
12.120200
20
8.561656
11
12.120200
21
8.483607
0
LINE
8
Layer 1
10
12.120200
20
8.483607
11
12.120200
21
7.307687
0
LINE
8
Layer 1
10
12.120200
20
7.307687
11
12.120200
21
7.305080
0
LINE
8
Layer 1
10
17.185500
20
9.604900
11
17.185500
21
9.604900
0
LINE
8
Layer 1
10
17.185500
20
9.604900
11
16.886316
21
9.604900
0
LINE
8
Layer 1
10
16.886316
20
9.604900
11
16.685993
21
9.584087
0
LINE
8
Layer 1
10
16.685993
20
9.584087
11
16.127624
21
9.249456
0
LINE
8
Layer 1
10
16.127624
20
9.249456
11
15.887301
21
8.647510
0
LINE
8
Layer 1
10
15.887301
20
8.647510
11
15.887301
21
7.942476
0
LINE
8
Layer 1
10
15.887301
20
7.942476
11
15.970552
21
7.864428
0
LINE
8
Layer 1
10
15.970552
20
7.864428
11
16.550709
21
7.864428
0
LINE
8
Layer 1
10
16.550709
20
7.864428
11
16.568921
21
7.864428
0
LINE
8
Layer 1
10
16.568921
20
7.864428
11
16.631359
21
7.926867
0
LINE
8
Layer 1
10
16.631359
20
7.926867
11
16.631359
21
8.004915
0
LINE
8
Layer 1
10
16.631359
20
8.004915
11
16.631359
21
8.517431
0
LINE
8
Layer 1
10
16.631359
20
8.517431
11
16.701928
21
8.768160
0
LINE
8
Layer 1
10
16.701928
20
8.768160
11
16.977372
21
8.860843
0
LINE
8
Layer 1
10
16.977372
20
8.860843
11
17.557529
21
8.860843
0
LINE
8
Layer 1
10
17.557529
20
8.860843
11
17.638179
21
8.936289
0
LINE
8
Layer 1
10
17.638179
20
8.936289
11
17.638179
21
9.534658
0
LINE
8
Layer 1
10
17.638179
20
9.534658
11
17.565334
21
9.604901
0
LINE
8
Layer 1
10
17.565334
20
9.604901
11
17.188102
21
9.604901
0
LINE
8
Layer 1
10
17.188102
20
9.604901
11
17.185500
21
9.604900
0
LINE
8
Layer 1
10
29.309000
20
9.604900
11
29.309000
21
9.604900
0
LINE
8
Layer 1
10
29.309000
20
9.604900
11
29.259568
21
9.604900
0
LINE
8
Layer 1
10
29.259568
20
9.604900
11
28.817296
21
9.586689
0
LINE
8
Layer 1
10
28.817296
20
9.586689
11
28.270959
21
9.276448
0
LINE
8
Layer 1
10
28.270959
20
9.276448
11
28.013400
21
8.712550
0
LINE
8
Layer 1
10
28.013400
20
8.712550
11
28.005595
21
7.932069
0
LINE
8
Layer 1
10
28.005595
20
7.932069
11
28.075839
21
7.864427
0
LINE
8
Layer 1
10
28.075839
20
7.864427
11
28.663801
21
7.864427
0
LINE
8
Layer 1
10
28.663801
20
7.864427
11
28.752256
21
7.950280
0
LINE
8
Layer 1
10
28.752256
20
7.950280
11
28.752256
21
8.007515
0
LINE
8
Layer 1
10
28.752256
20
8.007515
11
28.752256
21
8.577266
0
LINE
8
Layer 1
10
28.752256
20
8.577266
11
28.829020
21
8.779216
0
LINE
8
Layer 1
10
28.829020
20
8.779216
11
29.030626
21
8.858239
0
LINE
8
Layer 1
10
29.030626
20
8.858239
11
29.116481
21
8.858239
0
LINE
8
Layer 1
10
29.116481
20
8.858239
11
29.665419
21
8.858239
0
LINE
8
Layer 1
10
29.665419
20
8.858239
11
29.746066
21
8.933686
0
LINE
8
Layer 1
10
29.746066
20
8.933686
11
29.746066
21
9.532055
0
LINE
8
Layer 1
10
29.746066
20
9.532055
11
29.673221
21
9.604900
0
LINE
8
Layer 1
10
29.673221
20
9.604900
11
29.306395
21
9.604900
0
LINE
8
Layer 1
10
29.306395
20
9.604900
11
29.309000
21
9.604900
0
LINE
8
Layer 1
10
35.875400
20
8.311900
11
35.875400
21
8.611084
0
LINE
8
Layer 1
10
35.875400
20
8.611084
11
35.854577
21
8.811407
0
LINE
8
Layer 1
10
35.854577
20
8.811407
11
35.523197
21
9.363272
0
LINE
8
Layer 1
10
35.523197
20
9.363272
11
34.936209
21
9.604896
0
LINE
8
Layer 1
10
34.936209
20
9.604896
11
34.241581
21
9.604896
0
LINE
8
Layer 1
10
34.241581
20
9.604896
11
34.163535
21
9.529449
0
LINE
8
Layer 1
10
34.163535
20
9.529449
11
34.163535
21
8.941487
0
LINE
8
Layer 1
10
34.163535
20
8.941487
11
34.246786
21
8.858236
0
LINE
8
Layer 1
10
34.246786
20
8.858236
11
34.795724
21
8.858236
0
LINE
8
Layer 1
10
34.795724
20
8.858236
11
34.891984
21
8.855635
0
LINE
8
Layer 1
10
34.891984
20
8.855635
11
35.126127
21
8.613686
0
LINE
8
Layer 1
10
35.126127
20
8.613686
11
35.126127
21
8.535638
0
LINE
8
Layer 1
10
35.126127
20
8.535638
11
35.126127
21
7.947676
0
LINE
8
Layer 1
10
35.126127
20
7.947676
11
35.206777
21
7.864425
0
LINE
8
Layer 1
10
35.206777
20
7.864425
11
35.794739
21
7.864425
0
LINE
8
Layer 1
10
35.794739
20
7.864425
11
35.872789
21
7.942473
0
LINE
8
Layer 1
10
35.872789
20
7.942473
11
35.872789
21
8.309299
0
LINE
8
Layer 1
10
35.872789
20
8.309299
11
35.875400
21
8.311900
0
LINE
8
Layer 1
10
23.757200
20
8.311900
11
23.757200
21
8.621491
0
LINE
8
Layer 1
10
23.757200
20
8.621491
11
23.725981
21
8.858237
0
LINE
8
Layer 1
10
23.725981
20
8.858237
11
23.381268
21
9.385387
0
LINE
8
Layer 1
10
23.381268
20
9.385387
11
22.818022
21
9.602295
0
LINE
8
Layer 1
10
22.818022
20
9.602295
11
22.123394
21
9.602295
0
LINE
8
Layer 1
10
22.123394
20
9.602295
11
22.047947
21
9.526848
0
LINE
8
Layer 1
10
22.047947
20
9.526848
11
22.047947
21
8.938887
0
LINE
8
Layer 1
10
22.047947
20
8.938887
11
22.047947
21
8.899863
0
LINE
8
Layer 1
10
22.047947
20
8.899863
11
22.081768
21
8.860839
0
LINE
8
Layer 1
10
22.081768
20
8.860839
11
22.167621
21
8.855635
0
LINE
8
Layer 1
10
22.167621
20
8.855635
11
22.716559
21
8.855635
0
LINE
8
Layer 1
10
22.716559
20
8.855635
11
22.933793
21
8.779213
0
LINE
8
Layer 1
10
22.933793
20
8.779213
11
23.010540
21
8.564255
0
LINE
8
Layer 1
10
23.010540
20
8.564255
11
23.010540
21
7.947675
0
LINE
8
Layer 1
10
23.010540
20
7.947675
11
23.091190
21
7.864424
0
LINE
8
Layer 1
10
23.091190
20
7.864424
11
23.671347
21
7.864424
0
LINE
8
Layer 1
10
23.671347
20
7.864424
11
23.757200
21
7.952879
0
LINE
8
Layer 1
10
23.757200
20
7.952879
11
23.757200
21
8.309298
0
LINE
8
Layer 1
10
23.757200
20
8.309298
11
23.757200
21
8.311900
0
LINE
8
Layer 1
10
31.598400
20
8.306700
11
31.598400
21
8.306700
0
LINE
8
Layer 1
10
31.598400
20
8.306700
11
31.598400
21
8.527836
0
LINE
8
Layer 1
10
31.598400
20
8.527836
11
31.564578
21
8.860841
0
LINE
8
Layer 1
10
31.564578
20
8.860841
11
31.184744
21
9.409454
0
LINE
8
Layer 1
10
31.184744
20
9.409454
11
30.586375
21
9.604899
0
LINE
8
Layer 1
10
30.586375
20
9.604899
11
30.008819
21
9.604899
0
LINE
8
Layer 1
10
30.008819
20
9.604899
11
29.915162
21
9.516445
0
LINE
8
Layer 1
10
29.915162
20
9.516445
11
29.915162
21
8.957099
0
LINE
8
Layer 1
10
29.915162
20
8.957099
11
30.014024
21
8.860840
0
LINE
8
Layer 1
10
30.014024
20
8.860840
11
30.555157
21
8.860840
0
LINE
8
Layer 1
10
30.555157
20
8.860840
11
30.777919
21
8.784743
0
LINE
8
Layer 1
10
30.777919
20
8.784743
11
30.854342
21
8.564257
0
LINE
8
Layer 1
10
30.854342
20
8.564257
11
30.854342
21
7.955482
0
LINE
8
Layer 1
10
30.854342
20
7.955482
11
30.940194
21
7.867028
0
LINE
8
Layer 1
10
30.940194
20
7.867028
11
31.517750
21
7.867028
0
LINE
8
Layer 1
10
31.517750
20
7.867028
11
31.598400
21
7.950279
0
LINE
8
Layer 1
10
31.598400
20
7.950279
11
31.598400
21
8.306699
0
LINE
8
Layer 1
10
31.598400
20
8.306699
11
31.598400
21
8.306700
0
LINE
8
Layer 1
10
19.480100
20
8.314500
11
19.480100
21
8.314500
0
LINE
8
Layer 1
10
19.480100
20
8.314500
11
19.480100
21
8.603278
0
LINE
8
Layer 1
10
19.480100
20
8.603278
11
19.355300
21
9.081980
0
LINE
8
Layer 1
10
19.355300
20
9.081980
11
19.013800
21
9.450104
0
LINE
8
Layer 1
10
19.013800
20
9.450104
11
18.535800
21
9.599700
0
LINE
8
Layer 1
10
18.535800
20
9.599700
11
17.880196
21
9.599700
0
LINE
8
Layer 1
10
17.880196
20
9.599700
11
17.796945
21
9.511246
0
LINE
8
Layer 1
10
17.796945
20
9.511246
11
17.796945
21
8.998730
0
LINE
8
Layer 1
10
17.796945
20
8.998730
11
17.801498
21
8.872227
0
LINE
8
Layer 1
10
17.801498
20
8.872227
11
17.942635
21
8.853040
0
LINE
8
Layer 1
10
17.942635
20
8.853040
11
18.462955
21
8.853040
0
LINE
8
Layer 1
10
18.462955
20
8.853040
11
18.655473
21
8.779544
0
LINE
8
Layer 1
10
18.655473
20
8.779544
11
18.730920
21
8.585075
0
LINE
8
Layer 1
10
18.730920
20
8.585075
11
18.730920
21
8.499222
0
LINE
8
Layer 1
10
18.730920
20
8.499222
11
18.730920
21
7.947682
0
LINE
8
Layer 1
10
18.730920
20
7.947682
11
18.801163
21
7.861829
0
LINE
8
Layer 1
10
18.801163
20
7.861829
11
19.417743
21
7.861829
0
LINE
8
Layer 1
10
19.417743
20
7.861829
11
19.477580
21
7.926869
0
LINE
8
Layer 1
10
19.477580
20
7.926869
11
19.477580
21
8.311906
0
LINE
8
Layer 1
10
19.477580
20
8.311906
11
19.480100
21
8.314500
0
LINE
8
Layer 1
10
21.415700
20
6.012080
11
21.790331
21
6.012080
0
LINE
8
Layer 1
10
21.790331
20
6.012080
11
21.883989
21
6.100534
0
LINE
8
Layer 1
10
21.883989
20
6.100534
11
21.883989
21
6.659879
0
LINE
8
Layer 1
10
21.883989
20
6.659879
11
21.785128
21
6.756139
0
LINE
8
Layer 1
10
21.785128
20
6.756139
11
21.215377
21
6.756139
0
LINE
8
Layer 1
10
21.215377
20
6.756139
11
20.987736
21
6.839065
0
LINE
8
Layer 1
10
20.987736
20
6.839065
11
20.908388
21
7.068331
0
LINE
8
Layer 1
10
20.908388
20
7.068331
11
20.908388
21
7.599058
0
LINE
8
Layer 1
10
20.908388
20
7.599058
11
20.819933
21
7.692715
0
LINE
8
Layer 1
10
20.819933
20
7.692715
11
20.260588
21
7.692715
0
LINE
8
Layer 1
10
20.260588
20
7.692715
11
20.164329
21
7.593854
0
LINE
8
Layer 1
10
20.164329
20
7.593854
11
20.164329
21
6.995486
0
LINE
8
Layer 1
10
20.164329
20
6.995486
11
20.401075
21
6.372402
0
LINE
8
Layer 1
10
20.401075
20
6.372402
11
20.973427
21
6.030291
0
LINE
8
Layer 1
10
20.973427
20
6.030291
11
21.418301
21
6.012080
0
LINE
8
Layer 1
10
21.418301
20
6.012080
11
21.415700
21
6.012080
0
LINE
8
Layer 1
10
34.598100
20
6.012080
11
34.598100
21
6.012080
0
LINE
8
Layer 1
10
34.598100
20
6.012080
11
34.840051
21
6.012080
0
LINE
8
Layer 1
10
34.840051
20
6.012080
11
35.228339
21
6.075494
0
LINE
8
Layer 1
10
35.228339
20
6.075494
11
35.558092
21
6.285248
0
LINE
8
Layer 1
10
35.558092
20
6.285248
11
35.782807
21
6.584432
0
LINE
8
Layer 1
10
35.782807
20
6.584432
11
35.872888
21
6.946055
0
LINE
8
Layer 1
10
35.872888
20
6.946055
11
35.872888
21
7.612065
0
LINE
8
Layer 1
10
35.872888
20
7.612065
11
35.792238
21
7.692715
0
LINE
8
Layer 1
10
35.792238
20
7.692715
11
35.243300
21
7.692715
0
LINE
8
Layer 1
10
35.243300
20
7.692715
11
35.128828
21
7.575643
0
LINE
8
Layer 1
10
35.128828
20
7.575643
11
35.128828
21
7.026705
0
LINE
8
Layer 1
10
35.128828
20
7.026705
11
35.057609
21
6.839064
0
LINE
8
Layer 1
10
35.057609
20
6.839064
11
34.871270
21
6.758740
0
LINE
8
Layer 1
10
34.871270
20
6.758740
11
34.785418
21
6.758740
0
LINE
8
Layer 1
10
34.785418
20
6.758740
11
34.244285
21
6.758740
0
LINE
8
Layer 1
10
34.244285
20
6.758740
11
34.166236
21
6.691098
0
LINE
8
Layer 1
10
34.166236
20
6.691098
11
34.166236
21
6.084925
0
LINE
8
Layer 1
10
34.166236
20
6.084925
11
34.241681
21
6.014682
0
LINE
8
Layer 1
10
34.241681
20
6.014682
11
34.598101
21
6.014682
0
LINE
8
Layer 1
10
34.598101
20
6.014682
11
34.598100
21
6.012080
0
LINE
8
Layer 1
10
33.531400
20
6.012080
11
33.926843
21
6.012080
0
LINE
8
Layer 1
10
33.926843
20
6.012080
11
33.991883
21
6.071917
0
LINE
8
Layer 1
10
33.991883
20
6.071917
11
33.991883
21
6.139559
0
LINE
8
Layer 1
10
33.991883
20
6.139559
11
33.991883
21
6.631262
0
LINE
8
Layer 1
10
33.991883
20
6.631262
11
33.864404
21
6.758740
0
LINE
8
Layer 1
10
33.864404
20
6.758740
11
33.305060
21
6.758740
0
LINE
8
Layer 1
10
33.305060
20
6.758740
11
33.068314
21
6.883617
0
LINE
8
Layer 1
10
33.068314
20
6.883617
11
33.026690
21
7.057924
0
LINE
8
Layer 1
10
33.026690
20
7.057924
11
33.026690
21
7.606861
0
LINE
8
Layer 1
10
33.026690
20
7.606861
11
32.938234
21
7.692714
0
LINE
8
Layer 1
10
32.938234
20
7.692714
11
32.378890
21
7.692714
0
LINE
8
Layer 1
10
32.378890
20
7.692714
11
32.282632
21
7.593853
0
LINE
8
Layer 1
10
32.282632
20
7.593853
11
32.282632
21
7.013696
0
LINE
8
Layer 1
10
32.282632
20
7.013696
11
32.514499
21
6.374027
0
LINE
8
Layer 1
10
32.514499
20
6.374027
11
33.099535
21
6.025087
0
LINE
8
Layer 1
10
33.099535
20
6.025087
11
33.531401
21
6.006876
0
LINE
8
Layer 1
10
33.531401
20
6.006876
11
33.531400
21
6.012080
0
LINE
8
Layer 1
10
22.472000
20
6.012080
11
22.752973
21
6.012080
0
LINE
8
Layer 1
10
22.752973
20
6.012080
11
23.412805
21
6.256305
0
LINE
8
Layer 1
10
23.412805
20
6.256305
11
23.746785
21
6.873210
0
LINE
8
Layer 1
10
23.746785
20
6.873210
11
23.757191
21
7.635480
0
LINE
8
Layer 1
10
23.757191
20
7.635480
11
23.681745
21
7.695317
0
LINE
8
Layer 1
10
23.681745
20
7.695317
11
23.104189
21
7.695317
0
LINE
8
Layer 1
10
23.104189
20
7.695317
11
23.013132
21
7.604261
0
LINE
8
Layer 1
10
23.013132
20
7.604261
11
23.013132
21
7.034510
0
LINE
8
Layer 1
10
23.013132
20
7.034510
11
22.941263
21
6.841016
0
LINE
8
Layer 1
10
22.941263
20
6.841016
11
22.750370
21
6.758740
0
LINE
8
Layer 1
10
22.750370
20
6.758740
11
22.664517
21
6.758740
0
LINE
8
Layer 1
10
22.664517
20
6.758740
11
22.133790
21
6.758740
0
LINE
8
Layer 1
10
22.133790
20
6.758740
11
22.047937
21
6.670286
0
LINE
8
Layer 1
10
22.047937
20
6.670286
11
22.047937
21
6.092730
0
LINE
8
Layer 1
10
22.047937
20
6.092730
11
22.125985
21
6.014682
0
LINE
8
Layer 1
10
22.125985
20
6.014682
11
22.471998
21
6.014682
0
LINE
8
Layer 1
10
22.471998
20
6.014682
11
22.472000
21
6.012080
0
LINE
8
Layer 1
10
14.128600
20
7.864430
11
15.132820
21
7.864430
0
LINE
8
Layer 1
10
15.132820
20
7.864430
11
15.213470
21
7.945080
0
LINE
8
Layer 1
10
15.213470
20
7.945080
11
15.213470
21
8.475807
0
LINE
8
Layer 1
10
15.213470
20
8.475807
11
15.075585
21
8.611090
0
LINE
8
Layer 1
10
15.075585
20
8.611090
11
13.590065
21
8.611090
0
LINE
8
Layer 1
10
13.590065
20
8.611090
11
13.137386
21
8.611090
0
LINE
8
Layer 1
10
13.137386
20
8.611090
11
13.038525
21
8.512229
0
LINE
8
Layer 1
10
13.038525
20
8.512229
11
13.038525
21
7.963291
0
LINE
8
Layer 1
10
13.038525
20
7.963291
11
13.134784
21
7.867031
0
LINE
8
Layer 1
10
13.134784
20
7.867031
11
14.128596
21
7.867031
0
LINE
8
Layer 1
10
14.128596
20
7.867031
11
14.128600
21
7.864430
0
LINE
8
Layer 1
10
19.480100
20
6.852400
11
19.480100
21
7.586052
0
LINE
8
Layer 1
10
19.480100
20
7.586052
11
19.376036
21
7.692718
0
LINE
8
Layer 1
10
19.376036
20
7.692718
11
18.962381
21
7.692718
0
LINE
8
Layer 1
10
18.962381
20
7.692718
11
18.788073
21
7.692718
0
LINE
8
Layer 1
10
18.788073
20
7.692718
11
18.733439
21
7.643288
0
LINE
8
Layer 1
10
18.733439
20
7.643288
11
18.733439
21
7.565240
0
LINE
8
Layer 1
10
18.733439
20
7.565240
11
18.733439
21
6.920042
0
LINE
8
Layer 1
10
18.733439
20
6.920042
11
18.733439
21
6.110944
0
LINE
8
Layer 1
10
18.733439
20
6.110944
11
18.829699
21
6.012083
0
LINE
8
Layer 1
10
18.829699
20
6.012083
11
19.389044
21
6.012083
0
LINE
8
Layer 1
10
19.389044
20
6.012083
11
19.482701
21
6.110944
0
LINE
8
Layer 1
10
19.482701
20
6.110944
11
19.482701
21
6.852401
0
LINE
8
Layer 1
10
19.482701
20
6.852401
11
19.480100
21
6.852400
0
LINE
8
Layer 1
10
30.851700
20
6.849800
11
30.851700
21
6.097937
0
LINE
8
Layer 1
10
30.851700
20
6.097937
11
30.937555
21
6.012084
0
LINE
8
Layer 1
10
30.937555
20
6.012084
11
31.517710
21
6.012084
0
LINE
8
Layer 1
10
31.517710
20
6.012084
11
31.598361
21
6.087531
0
LINE
8
Layer 1
10
31.598361
20
6.087531
11
31.598361
21
6.136961
0
LINE
8
Layer 1
10
31.598361
20
6.136961
11
31.598361
21
7.575651
0
LINE
8
Layer 1
10
31.598361
20
7.575651
11
31.598361
21
7.625082
0
LINE
8
Layer 1
10
31.598361
20
7.625082
11
31.525516
21
7.695325
0
LINE
8
Layer 1
10
31.525516
20
7.695325
11
30.955766
21
7.695325
0
LINE
8
Layer 1
10
30.955766
20
7.695325
11
30.854304
21
7.596464
0
LINE
8
Layer 1
10
30.854304
20
7.596464
11
30.854304
21
6.852406
0
LINE
8
Layer 1
10
30.854304
20
6.852406
11
30.851700
21
6.849800
0
LINE
8
Layer 1
10
13.062000
20
10.515500
11
13.067202
21
10.531110
0
LINE
8
Layer 1
10
13.067202
20
10.531110
11
15.268162
21
10.531110
0
LINE
8
Layer 1
10
15.268162
20
10.531110
11
15.268162
21
10.512898
0
LINE
8
Layer 1
10
15.268162
20
10.512898
11
13.101022
21
10.512898
0
LINE
8
Layer 1
10
13.101022
20
10.512898
11
13.061998
21
10.515500
0
LINE
8
Layer 1
10
13.061998
20
10.515500
11
13.062000
21
10.515500
0
LINE
8
Layer 1
10
33.016300
20
10.531100
11
33.013654
21
10.510287
0
LINE
8
Layer 1
10
33.013654
20
10.510287
11
32.298214
21
10.512889
0
LINE
8
Layer 1
10
32.298214
20
10.512889
11
32.300860
21
10.531100
0
LINE
8
Layer 1
10
32.300860
20
10.531100
11
33.016300
21
10.531100
0
LINE
8
Layer 1
10
33.016300
20
10.531100
11
33.016300
21
10.531100
0
LINE
8
Layer 1
10
20.887600
20
10.531100
11
20.890193
21
10.512889
0
LINE
8
Layer 1
10
20.890193
20
10.512889
11
20.174752
21
10.510287
0
LINE
8
Layer 1
10
20.174752
20
10.510287
11
20.172159
21
10.531100
0
LINE
8
Layer 1
10
20.172159
20
10.531100
11
20.887600
21
10.531100
0
LINE
8
Layer 1
10
20.887600
20
10.531100
11
20.887600
21
10.531100
0
LINE
8
Layer 1
10
24.457000
20
10.515500
11
24.459593
21
10.533711
0
LINE
8
Layer 1
10
24.459593
20
10.533711
11
25.154200
21
10.533700
0
LINE
8
Layer 1
10
25.154200
20
10.533700
11
25.159404
21
10.518090
0
LINE
8
Layer 1
10
25.159404
20
10.518090
11
24.456971
21
10.518090
0
LINE
8
Layer 1
10
24.456971
20
10.518090
11
24.457000
21
10.515500
0
LINE
8
Layer 1
10
26.306700
20
6.012080
11
25.427358
21
6.012080
0
LINE
8
Layer 1
10
25.427358
20
6.012080
11
25.049353
21
6.091510
0
LINE
8
Layer 1
10
25.049353
20
6.091510
11
24.735007
21
6.306061
0
LINE
8
Layer 1
10
24.735007
20
6.306061
11
24.519683
21
6.620123
0
LINE
8
Layer 1
10
24.519683
20
6.620123
11
24.438749
21
6.998087
0
LINE
8
Layer 1
10
24.438749
20
6.998087
11
24.438749
21
8.088157
0
LINE
8
Layer 1
10
24.438749
20
8.088157
11
24.532407
21
8.187018
0
LINE
8
Layer 1
10
24.532407
20
8.187018
11
25.091752
21
8.187018
0
LINE
8
Layer 1
10
25.091752
20
8.187018
11
25.182808
21
8.093360
0
LINE
8
Layer 1
10
25.182808
20
8.093360
11
25.182808
21
7.089140
0
LINE
8
Layer 1
10
25.182808
20
7.089140
11
25.188012
21
6.982474
0
LINE
8
Layer 1
10
25.188012
20
6.982474
11
25.411750
21
6.761338
0
LINE
8
Layer 1
10
25.411750
20
6.761338
11
25.518416
21
6.756134
0
LINE
8
Layer 1
10
25.518416
20
6.756134
11
27.178236
21
6.756134
0
LINE
8
Layer 1
10
27.178236
20
6.756134
11
27.318722
21
6.615648
0
LINE
8
Layer 1
10
27.318722
20
6.615648
11
27.318722
21
6.095328
0
LINE
8
Layer 1
10
27.318722
20
6.095328
11
27.232870
21
6.012077
0
LINE
8
Layer 1
10
27.232870
20
6.012077
11
26.306700
21
6.012077
0
LINE
8
Layer 1
10
26.306700
20
6.012077
11
26.306700
21
6.012080
0
LINE
8
Layer 1
10
13.062000
20
10.515500
11
13.101024
21
10.512898
0
LINE
8
Layer 1
10
13.101024
20
10.512898
11
15.268164
21
10.512898
0
LINE
8
Layer 1
10
15.268164
20
10.512898
11
15.286375
21
10.432249
0
LINE
8
Layer 1
10
15.286375
20
10.432249
11
15.286375
21
9.862498
0
LINE
8
Layer 1
10
15.286375
20
9.862498
11
15.200522
21
9.776645
0
LINE
8
Layer 1
10
15.200522
20
9.776645
11
13.954352
21
9.776645
0
LINE
8
Layer 1
10
13.954352
20
9.776645
11
13.249318
21
9.776645
0
LINE
8
Layer 1
10
13.249318
20
9.776645
11
13.199888
21
9.776645
0
LINE
8
Layer 1
10
13.199888
20
9.776645
11
12.950785
21
9.697296
0
LINE
8
Layer 1
10
12.950785
20
9.697296
11
12.861680
21
9.438437
0
LINE
8
Layer 1
10
12.861680
20
9.438437
11
12.861680
21
8.918116
0
LINE
8
Layer 1
10
12.861680
20
8.918116
11
12.861680
21
8.832263
0
LINE
8
Layer 1
10
12.861680
20
8.832263
11
12.804445
21
8.772426
0
LINE
8
Layer 1
10
12.804445
20
8.772426
11
12.187864
21
8.772426
0
LINE
8
Layer 1
10
12.187864
20
8.772426
11
12.120223
21
8.834864
0
LINE
8
Layer 1
10
12.120223
20
8.834864
11
12.135833
21
9.664775
0
LINE
8
Layer 1
10
12.135833
20
9.664775
11
12.447700
21
10.253063
0
LINE
8
Layer 1
10
12.447700
20
10.253063
11
13.062004
21
10.515499
0
LINE
8
Layer 1
10
13.062004
20
10.515499
11
13.062000
21
10.515500
0
LINE
8
Layer 1
10
20.177400
20
10.510300
11
20.892841
21
10.512902
0
LINE
8
Layer 1
10
20.892841
20
10.512902
11
20.908451
21
10.421846
0
LINE
8
Layer 1
10
20.908451
20
10.421846
11
20.908451
21
9.909330
0
LINE
8
Layer 1
10
20.908451
20
9.909330
11
20.987475
21
9.683640
0
LINE
8
Layer 1
10
20.987475
20
9.683640
11
21.212839
21
9.602341
0
LINE
8
Layer 1
10
21.212839
20
9.602341
11
21.800801
21
9.602341
0
LINE
8
Layer 1
10
21.800801
20
9.602341
11
21.881451
21
9.521691
0
LINE
8
Layer 1
10
21.881451
20
9.521691
11
21.881451
21
8.941534
0
LINE
8
Layer 1
10
21.881451
20
8.941534
11
21.798200
21
8.858283
0
LINE
8
Layer 1
10
21.798200
20
8.858283
11
21.218043
21
8.858283
0
LINE
8
Layer 1
10
21.218043
20
8.858283
11
20.982598
21
8.774055
0
LINE
8
Layer 1
10
20.982598
20
8.774055
11
20.903249
21
8.543489
0
LINE
8
Layer 1
10
20.903249
20
8.543489
11
20.903249
21
7.955527
0
LINE
8
Layer 1
10
20.903249
20
7.955527
11
20.819997
21
7.867072
0
LINE
8
Layer 1
10
20.819997
20
7.867072
11
20.232035
21
7.867072
0
LINE
8
Layer 1
10
20.232035
20
7.867072
11
20.159191
21
7.937316
0
LINE
8
Layer 1
10
20.159191
20
7.937316
11
20.159191
21
8.015364
0
LINE
8
Layer 1
10
20.159191
20
8.015364
11
20.159191
21
10.369814
0
LINE
8
Layer 1
10
20.159191
20
10.369814
11
20.172198
21
10.512902
0
LINE
8
Layer 1
10
20.172198
20
10.512902
11
20.177400
21
10.510300
0
LINE
8
Layer 1
10
32.298200
20
10.515500
11
33.013640
21
10.512898
0
LINE
8
Layer 1
10
33.013640
20
10.512898
11
33.026657
21
10.398427
0
LINE
8
Layer 1
10
33.026657
20
10.398427
11
33.026657
21
9.914529
0
LINE
8
Layer 1
10
33.026657
20
9.914529
11
33.105355
21
9.684613
0
LINE
8
Layer 1
10
33.105355
20
9.684613
11
33.336248
21
9.604938
0
LINE
8
Layer 1
10
33.336248
20
9.604938
11
33.905998
21
9.604938
0
LINE
8
Layer 1
10
33.905998
20
9.604938
11
33.991850
21
9.526890
0
LINE
8
Layer 1
10
33.991850
20
9.526890
11
33.991850
21
8.938928
0
LINE
8
Layer 1
10
33.991850
20
8.938928
11
33.913804
21
8.860880
0
LINE
8
Layer 1
10
33.913804
20
8.860880
11
33.325840
21
8.860880
0
LINE
8
Layer 1
10
33.325840
20
8.860880
11
33.120315
21
8.793238
0
LINE
8
Layer 1
10
33.120315
20
8.793238
11
33.029258
21
8.579907
0
LINE
8
Layer 1
10
33.029258
20
8.579907
11
33.029258
21
8.020562
0
LINE
8
Layer 1
10
33.029258
20
8.020562
11
33.029258
21
7.942514
0
LINE
8
Layer 1
10
33.029258
20
7.942514
11
32.948608
21
7.869670
0
LINE
8
Layer 1
10
32.948608
20
7.869670
11
32.360646
21
7.869670
0
LINE
8
Layer 1
10
32.360646
20
7.869670
11
32.285201
21
7.945116
0
LINE
8
Layer 1
10
32.285201
20
7.945116
11
32.285201
21
8.611126
0
LINE
8
Layer 1
10
32.285201
20
8.611126
11
32.285201
21
10.406236
0
LINE
8
Layer 1
10
32.285201
20
10.406236
11
32.300811
21
10.515503
0
LINE
8
Layer 1
10
32.300811
20
10.515503
11
32.298200
21
10.515500
0
LINE
8
Layer 1
10
17.404100
20
6.012080
11
16.891584
21
6.012080
0
LINE
8
Layer 1
10
16.891584
20
6.012080
11
16.503416
21
6.090982
0
LINE
8
Layer 1
10
16.503416
20
6.090982
11
16.184272
21
6.305736
0
LINE
8
Layer 1
10
16.184272
20
6.305736
11
15.967079
21
6.623416
0
LINE
8
Layer 1
10
15.967079
20
6.623416
11
15.884764
21
7.011095
0
LINE
8
Layer 1
10
15.884764
20
7.011095
11
15.884764
21
7.599057
0
LINE
8
Layer 1
10
15.884764
20
7.599057
11
15.981023
21
7.692715
0
LINE
8
Layer 1
10
15.981023
20
7.692715
11
16.540368
21
7.692715
0
LINE
8
Layer 1
10
16.540368
20
7.692715
11
16.628823
21
7.604260
0
LINE
8
Layer 1
10
16.628823
20
7.604260
11
16.628823
21
7.083939
0
LINE
8
Layer 1
10
16.628823
20
7.083939
11
16.636628
21
6.977273
0
LINE
8
Layer 1
10
16.636628
20
6.977273
11
16.873374
21
6.758738
0
LINE
8
Layer 1
10
16.873374
20
6.758738
11
16.969633
21
6.758738
0
LINE
8
Layer 1
10
16.969633
20
6.758738
11
17.895804
21
6.758738
0
LINE
8
Layer 1
10
17.895804
20
6.758738
11
17.973852
21
6.758738
0
LINE
8
Layer 1
10
17.973852
20
6.758738
11
18.059705
21
6.667682
0
LINE
8
Layer 1
10
18.059705
20
6.667682
11
18.059705
21
6.097931
0
LINE
8
Layer 1
10
18.059705
20
6.097931
11
17.971251
21
6.012079
0
LINE
8
Layer 1
10
17.971251
20
6.012079
11
17.401500
21
6.012079
0
LINE
8
Layer 1
10
17.401500
20
6.012079
11
17.404100
21
6.012080
0
LINE
8
Layer 1
10
29.519700
20
6.012080
11
29.007184
21
6.012080
0
LINE
8
Layer 1
10
29.007184
20
6.012080
11
28.629301
21
6.086672
0
LINE
8
Layer 1
10
28.629301
20
6.086672
11
28.311904
21
6.296630
0
LINE
8
Layer 1
10
28.311904
20
6.296630
11
28.091093
21
6.609513
0
LINE
8
Layer 1
10
28.091093
20
6.609513
11
28.002964
21
6.992884
0
LINE
8
Layer 1
10
28.002964
20
6.992884
11
28.002964
21
7.601659
0
LINE
8
Layer 1
10
28.002964
20
7.601659
11
28.094020
21
7.692715
0
LINE
8
Layer 1
10
28.094020
20
7.692715
11
28.653364
21
7.692715
0
LINE
8
Layer 1
10
28.653364
20
7.692715
11
28.747021
21
7.601659
0
LINE
8
Layer 1
10
28.747021
20
7.601659
11
28.747021
21
7.052721
0
LINE
8
Layer 1
10
28.747021
20
7.052721
11
28.918727
21
6.776951
0
LINE
8
Layer 1
10
28.918727
20
6.776951
11
29.061816
21
6.758740
0
LINE
8
Layer 1
10
29.061816
20
6.758740
11
30.037416
21
6.758740
0
LINE
8
Layer 1
10
30.037416
20
6.758740
11
30.175301
21
6.615652
0
LINE
8
Layer 1
10
30.175301
20
6.615652
11
30.175301
21
6.103136
0
LINE
8
Layer 1
10
30.175301
20
6.103136
11
30.086849
21
6.009478
0
LINE
8
Layer 1
10
30.086849
20
6.009478
11
29.517096
21
6.009478
0
LINE
8
Layer 1
10
29.517096
20
6.009478
11
29.519700
21
6.012080
0
LINE
8
Layer 1
10
12.120200
20
7.305080
11
12.120200
21
8.481000
0
LINE
8
Layer 1
10
12.120200
20
8.481000
11
12.120200
21
8.559048
0
LINE
8
Layer 1
10
12.120200
20
8.559048
11
12.167029
21
8.608479
0
LINE
8
Layer 1
10
12.167029
20
8.608479
11
12.252882
21
8.611079
0
LINE
8
Layer 1
10
12.252882
20
8.611079
11
12.734179
21
8.611079
0
LINE
8
Layer 1
10
12.734179
20
8.611079
11
12.864259
21
8.483600
0
LINE
8
Layer 1
10
12.864259
20
8.483600
11
12.864259
21
7.247840
0
LINE
8
Layer 1
10
12.864259
20
7.247840
11
12.864259
21
6.157770
0
LINE
8
Layer 1
10
12.864259
20
6.157770
11
12.864259
21
6.071917
0
LINE
8
Layer 1
10
12.864259
20
6.071917
11
12.801820
21
6.009479
0
LINE
8
Layer 1
10
12.801820
20
6.009479
11
12.185240
21
6.009479
0
LINE
8
Layer 1
10
12.185240
20
6.009479
11
12.120200
21
6.097933
0
LINE
8
Layer 1
10
12.120200
20
6.097933
11
12.120200
21
7.206213
0
LINE
8
Layer 1
10
12.120200
20
7.206213
11
12.120200
21
7.302473
0
LINE
8
Layer 1
10
12.120200
20
7.302473
11
12.120200
21
7.305080
0
LINE
8
Layer 1
10
17.185500
20
9.604900
11
17.562732
21
9.604900
0
LINE
8
Layer 1
10
17.562732
20
9.604900
11
17.635577
21
9.534657
0
LINE
8
Layer 1
10
17.635577
20
9.534657
11
17.635577
21
8.936288
0
LINE
8
Layer 1
10
17.635577
20
8.936288
11
17.554927
21
8.860841
0
LINE
8
Layer 1
10
17.554927
20
8.860841
11
16.974770
21
8.860841
0
LINE
8
Layer 1
10
16.974770
20
8.860841
11
16.700301
21
8.768159
0
LINE
8
Layer 1
10
16.700301
20
8.768159
11
16.628757
21
8.517429
0
LINE
8
Layer 1
10
16.628757
20
8.517429
11
16.628757
21
8.004913
0
LINE
8
Layer 1
10
16.628757
20
8.004913
11
16.628757
21
7.926865
0
LINE
8
Layer 1
10
16.628757
20
7.926865
11
16.566318
21
7.864427
0
LINE
8
Layer 1
10
16.566318
20
7.864427
11
16.548107
21
7.864427
0
LINE
8
Layer 1
10
16.548107
20
7.864427
11
15.967950
21
7.864427
0
LINE
8
Layer 1
10
15.967950
20
7.864427
11
15.884699
21
7.942475
0
LINE
8
Layer 1
10
15.884699
20
7.942475
11
15.884699
21
8.647509
0
LINE
8
Layer 1
10
15.884699
20
8.647509
11
16.125022
21
9.247503
0
LINE
8
Layer 1
10
16.125022
20
9.247503
11
16.683391
21
9.584086
0
LINE
8
Layer 1
10
16.683391
20
9.584086
11
16.883714
21
9.604899
0
LINE
8
Layer 1
10
16.883714
20
9.604899
11
17.182898
21
9.604899
0
LINE
8
Layer 1
10
17.182898
20
9.604899
11
17.182900
21
9.604900
0
LINE
8
Layer 1
10
17.182900
20
9.604900
11
17.185500
21
9.604900
0
LINE
8
Layer 1
10
29.309000
20
9.604900
11
29.675826
21
9.604900
0
LINE
8
Layer 1
10
29.675826
20
9.604900
11
29.748671
21
9.532055
0
LINE
8
Layer 1
10
29.748671
20
9.532055
11
29.748671
21
8.933686
0
LINE
8
Layer 1
10
29.748671
20
8.933686
11
29.668021
21
8.858240
0
LINE
8
Layer 1
10
29.668021
20
8.858240
11
29.119083
21
8.858240
0
LINE
8
Layer 1
10
29.119083
20
8.858240
11
29.033231
21
8.858240
0
LINE
8
Layer 1
10
29.033231
20
8.858240
11
28.831605
21
8.780192
0
LINE
8
Layer 1
10
28.831605
20
8.780192
11
28.754858
21
8.577267
0
LINE
8
Layer 1
10
28.754858
20
8.577267
11
28.754858
21
8.007516
0
LINE
8
Layer 1
10
28.754858
20
8.007516
11
28.754858
21
7.950281
0
LINE
8
Layer 1
10
28.754858
20
7.950281
11
28.666405
21
7.864428
0
LINE
8
Layer 1
10
28.666405
20
7.864428
11
28.078441
21
7.864428
0
LINE
8
Layer 1
10
28.078441
20
7.864428
11
28.008200
21
7.932069
0
LINE
8
Layer 1
10
28.008200
20
7.932069
11
28.016005
21
8.712550
0
LINE
8
Layer 1
10
28.016005
20
8.712550
11
28.274540
21
9.277423
0
LINE
8
Layer 1
10
28.274540
20
9.277423
11
28.819901
21
9.586689
0
LINE
8
Layer 1
10
28.819901
20
9.586689
11
29.262175
21
9.604900
0
LINE
8
Layer 1
10
29.262175
20
9.604900
11
29.311604
21
9.604900
0
LINE
8
Layer 1
10
29.311604
20
9.604900
11
29.311600
21
9.604900
0
LINE
8
Layer 1
10
29.311600
20
9.604900
11
29.309000
21
9.604900
0
LINE
8
Layer 1
10
35.875400
20
8.311900
11
35.875400
21
7.945074
0
LINE
8
Layer 1
10
35.875400
20
7.945074
11
35.797351
21
7.867026
0
LINE
8
Layer 1
10
35.797351
20
7.867026
11
35.209389
21
7.867026
0
LINE
8
Layer 1
10
35.209389
20
7.867026
11
35.128738
21
7.950277
0
LINE
8
Layer 1
10
35.128738
20
7.950277
11
35.128738
21
8.538239
0
LINE
8
Layer 1
10
35.128738
20
8.538239
11
35.128738
21
8.616287
0
LINE
8
Layer 1
10
35.128738
20
8.616287
11
34.894595
21
8.858236
0
LINE
8
Layer 1
10
34.894595
20
8.858236
11
34.798335
21
8.860837
0
LINE
8
Layer 1
10
34.798335
20
8.860837
11
34.249397
21
8.860837
0
LINE
8
Layer 1
10
34.249397
20
8.860837
11
34.166146
21
8.944089
0
LINE
8
Layer 1
10
34.166146
20
8.944089
11
34.166146
21
9.532051
0
LINE
8
Layer 1
10
34.166146
20
9.532051
11
34.244195
21
9.607497
0
LINE
8
Layer 1
10
34.244195
20
9.607497
11
34.938823
21
9.607497
0
LINE
8
Layer 1
10
34.938823
20
9.607497
11
35.524833
21
9.365873
0
LINE
8
Layer 1
10
35.524833
20
9.365873
11
35.857188
21
8.814008
0
LINE
8
Layer 1
10
35.857188
20
8.814008
11
35.878011
21
8.613685
0
LINE
8
Layer 1
10
35.878011
20
8.613685
11
35.878011
21
8.314501
0
LINE
8
Layer 1
10
35.878011
20
8.314501
11
35.875400
21
8.311900
0
LINE
8
Layer 1
10
23.757200
20
8.311900
11
23.757200
21
7.955480
0
LINE
8
Layer 1
10
23.757200
20
7.955480
11
23.671347
21
7.867026
0
LINE
8
Layer 1
10
23.671347
20
7.867026
11
23.091190
21
7.867026
0
LINE
8
Layer 1
10
23.091190
20
7.867026
11
23.010540
21
7.950277
0
LINE
8
Layer 1
10
23.010540
20
7.950277
11
23.010540
21
8.566857
0
LINE
8
Layer 1
10
23.010540
20
8.566857
11
22.934769
21
8.782790
0
LINE
8
Layer 1
10
22.934769
20
8.782790
11
22.716559
21
8.858237
0
LINE
8
Layer 1
10
22.716559
20
8.858237
11
22.167621
21
8.858237
0
LINE
8
Layer 1
10
22.167621
20
8.858237
11
22.081768
21
8.863440
0
LINE
8
Layer 1
10
22.081768
20
8.863440
11
22.047947
21
8.902464
0
LINE
8
Layer 1
10
22.047947
20
8.902464
11
22.047947
21
8.941488
0
LINE
8
Layer 1
10
22.047947
20
8.941488
11
22.047947
21
9.529450
0
LINE
8
Layer 1
10
22.047947
20
9.529450
11
22.123394
21
9.604897
0
LINE
8
Layer 1
10
22.123394
20
9.604897
11
22.818022
21
9.604897
0
LINE
8
Layer 1
10
22.818022
20
9.604897
11
23.381269
21
9.387988
0
LINE
8
Layer 1
10
23.381269
20
9.387988
11
23.725981
21
8.860839
0
LINE
8
Layer 1
10
23.725981
20
8.860839
11
23.757200
21
8.624093
0
LINE
8
Layer 1
10
23.757200
20
8.624093
11
23.757200
21
8.314502
0
LINE
8
Layer 1
10
23.757200
20
8.314502
11
23.757200
21
8.311900
0
LINE
8
Layer 1
10
31.598400
20
8.306700
11
31.598400
21
7.950280
0
LINE
8
Layer 1
10
31.598400
20
7.950280
11
31.517750
21
7.867029
0
LINE
8
Layer 1
10
31.517750
20
7.867029
11
30.940194
21
7.867029
0
LINE
8
Layer 1
10
30.940194
20
7.867029
11
30.854342
21
7.955483
0
LINE
8
Layer 1
10
30.854342
20
7.955483
11
30.854342
21
8.564258
0
LINE
8
Layer 1
10
30.854342
20
8.564258
11
30.777919
21
8.784744
0
LINE
8
Layer 1
10
30.777919
20
8.784744
11
30.555157
21
8.860841
0
LINE
8
Layer 1
10
30.555157
20
8.860841
11
30.014024
21
8.860841
0
LINE
8
Layer 1
10
30.014024
20
8.860841
11
29.915162
21
8.957100
0
LINE
8
Layer 1
10
29.915162
20
8.957100
11
29.915162
21
9.516445
0
LINE
8
Layer 1
10
29.915162
20
9.516445
11
30.008820
21
9.604900
0
LINE
8
Layer 1
10
30.008820
20
9.604900
11
30.586376
21
9.604900
0
LINE
8
Layer 1
10
30.586376
20
9.604900
11
31.184745
21
9.410430
0
LINE
8
Layer 1
10
31.184745
20
9.410430
11
31.564579
21
8.860842
0
LINE
8
Layer 1
10
31.564579
20
8.860842
11
31.598400
21
8.527837
0
LINE
8
Layer 1
10
31.598400
20
8.527837
11
31.598400
21
8.306701
0
LINE
8
Layer 1
10
31.598400
20
8.306701
11
31.598400
21
8.306700
0
LINE
8
Layer 1
10
19.480100
20
8.314500
11
19.480100
21
7.929463
0
LINE
8
Layer 1
10
19.480100
20
7.929463
11
19.420263
21
7.864423
0
LINE
8
Layer 1
10
19.420263
20
7.864423
11
18.803683
21
7.864423
0
LINE
8
Layer 1
10
18.803683
20
7.864423
11
18.733440
21
7.950276
0
LINE
8
Layer 1
10
18.733440
20
7.950276
11
18.733440
21
8.501816
0
LINE
8
Layer 1
10
18.733440
20
8.501816
11
18.733440
21
8.587669
0
LINE
8
Layer 1
10
18.733440
20
8.587669
11
18.657993
21
8.781163
0
LINE
8
Layer 1
10
18.657993
20
8.781163
11
18.465475
21
8.855634
0
LINE
8
Layer 1
10
18.465475
20
8.855634
11
17.945155
21
8.855634
0
LINE
8
Layer 1
10
17.945155
20
8.855634
11
17.804994
21
8.874820
0
LINE
8
Layer 1
10
17.804994
20
8.874820
11
17.799465
21
9.001324
0
LINE
8
Layer 1
10
17.799465
20
9.001324
11
17.799465
21
9.513840
0
LINE
8
Layer 1
10
17.799465
20
9.513840
11
17.882716
21
9.602294
0
LINE
8
Layer 1
10
17.882716
20
9.602294
11
18.538320
21
9.602294
0
LINE
8
Layer 1
10
18.538320
20
9.602294
11
19.016365
21
9.452702
0
LINE
8
Layer 1
10
19.016365
20
9.452702
11
19.357825
21
9.084575
0
LINE
8
Layer 1
10
19.357825
20
9.084575
11
19.482702
21
8.605880
0
LINE
8
Layer 1
10
19.482702
20
8.605880
11
19.482702
21
8.317102
0
LINE
8
Layer 1
10
19.482702
20
8.317102
11
19.482700
21
8.317100
0
LINE
8
Layer 1
10
19.482700
20
8.317100
11
19.480100
21
8.314500
0
LINE
8
Layer 1
10
21.415700
20
6.012080
11
20.970826
21
6.030291
0
LINE
8
Layer 1
10
20.970826
20
6.030291
11
20.398474
21
6.373378
0
LINE
8
Layer 1
10
20.398474
20
6.373378
11
20.161728
21
6.995486
0
LINE
8
Layer 1
10
20.161728
20
6.995486
11
20.161728
21
7.593854
0
LINE
8
Layer 1
10
20.161728
20
7.593854
11
20.257987
21
7.692715
0
LINE
8
Layer 1
10
20.257987
20
7.692715
11
20.817332
21
7.692715
0
LINE
8
Layer 1
10
20.817332
20
7.692715
11
20.905787
21
7.599057
0
LINE
8
Layer 1
10
20.905787
20
7.599057
11
20.905787
21
7.068331
0
LINE
8
Layer 1
10
20.905787
20
7.068331
11
20.985135
21
6.839065
0
LINE
8
Layer 1
10
20.985135
20
6.839065
11
21.212776
21
6.756139
0
LINE
8
Layer 1
10
21.212776
20
6.756139
11
21.782527
21
6.756139
0
LINE
8
Layer 1
10
21.782527
20
6.756139
11
21.881388
21
6.659879
0
LINE
8
Layer 1
10
21.881388
20
6.659879
11
21.881388
21
6.100534
0
LINE
8
Layer 1
10
21.881388
20
6.100534
11
21.787730
21
6.012080
0
LINE
8
Layer 1
10
21.787730
20
6.012080
11
21.413099
21
6.012080
0
LINE
8
Layer 1
10
21.413099
20
6.012080
11
21.415700
21
6.012080
0
LINE
8
Layer 1
10
34.598100
20
6.012080
11
34.241680
21
6.012080
0
LINE
8
Layer 1
10
34.241680
20
6.012080
11
34.166234
21
6.082323
0
LINE
8
Layer 1
10
34.166234
20
6.082323
11
34.166234
21
6.688497
0
LINE
8
Layer 1
10
34.166234
20
6.688497
11
34.244284
21
6.756139
0
LINE
8
Layer 1
10
34.244284
20
6.756139
11
34.785417
21
6.756139
0
LINE
8
Layer 1
10
34.785417
20
6.756139
11
34.871268
21
6.756139
0
LINE
8
Layer 1
10
34.871268
20
6.756139
11
35.057608
21
6.836463
0
LINE
8
Layer 1
10
35.057608
20
6.836463
11
35.128826
21
7.024104
0
LINE
8
Layer 1
10
35.128826
20
7.024104
11
35.128826
21
7.573042
0
LINE
8
Layer 1
10
35.128826
20
7.573042
11
35.243298
21
7.690114
0
LINE
8
Layer 1
10
35.243298
20
7.690114
11
35.792236
21
7.690114
0
LINE
8
Layer 1
10
35.792236
20
7.690114
11
35.872887
21
7.609464
0
LINE
8
Layer 1
10
35.872887
20
7.609464
11
35.872887
21
6.943454
0
LINE
8
Layer 1
10
35.872887
20
6.943454
11
35.782809
21
6.580855
0
LINE
8
Layer 1
10
35.782809
20
6.580855
11
35.558091
21
6.282647
0
LINE
8
Layer 1
10
35.558091
20
6.282647
11
35.227362
21
6.071917
0
LINE
8
Layer 1
10
35.227362
20
6.071917
11
34.840050
21
6.009479
0
LINE
8
Layer 1
10
34.840050
20
6.009479
11
34.598099
21
6.009479
0
LINE
8
Layer 1
10
34.598099
20
6.009479
11
34.598100
21
6.009480
0
LINE
8
Layer 1
10
34.598100
20
6.009480
11
34.598100
21
6.012080
0
LINE
8
Layer 1
10
33.531400
20
6.012080
11
33.099534
21
6.030291
0
LINE
8
Layer 1
10
33.099534
20
6.030291
11
32.515473
21
6.379231
0
LINE
8
Layer 1
10
32.515473
20
6.379231
11
32.282631
21
7.018900
0
LINE
8
Layer 1
10
32.282631
20
7.018900
11
32.282631
21
7.599057
0
LINE
8
Layer 1
10
32.282631
20
7.599057
11
32.378889
21
7.697918
0
LINE
8
Layer 1
10
32.378889
20
7.697918
11
32.938233
21
7.697918
0
LINE
8
Layer 1
10
32.938233
20
7.697918
11
33.026688
21
7.612065
0
LINE
8
Layer 1
10
33.026688
20
7.612065
11
33.026688
21
7.063127
0
LINE
8
Layer 1
10
33.026688
20
7.063127
11
33.068312
21
6.888819
0
LINE
8
Layer 1
10
33.068312
20
6.888819
11
33.305058
21
6.763942
0
LINE
8
Layer 1
10
33.305058
20
6.763942
11
33.864402
21
6.763942
0
LINE
8
Layer 1
10
33.864402
20
6.763942
11
33.991881
21
6.636464
0
LINE
8
Layer 1
10
33.991881
20
6.636464
11
33.991881
21
6.144761
0
LINE
8
Layer 1
10
33.991881
20
6.144761
11
33.991881
21
6.077119
0
LINE
8
Layer 1
10
33.991881
20
6.077119
11
33.926842
21
6.017282
0
LINE
8
Layer 1
10
33.926842
20
6.017282
11
33.531399
21
6.017282
0
LINE
8
Layer 1
10
33.531399
20
6.017282
11
33.531400
21
6.012080
0
LINE
8
Layer 1
10
22.472000
20
6.012080
11
22.125987
21
6.012080
0
LINE
8
Layer 1
10
22.125987
20
6.012080
11
22.047939
21
6.090128
0
LINE
8
Layer 1
10
22.047939
20
6.090128
11
22.047939
21
6.667684
0
LINE
8
Layer 1
10
22.047939
20
6.667684
11
22.133792
21
6.756138
0
LINE
8
Layer 1
10
22.133792
20
6.756138
11
22.664519
21
6.756138
0
LINE
8
Layer 1
10
22.664519
20
6.756138
11
22.750372
21
6.756138
0
LINE
8
Layer 1
10
22.750372
20
6.756138
11
22.940289
21
6.837439
0
LINE
8
Layer 1
10
22.940289
20
6.837439
11
23.013134
21
7.031908
0
LINE
8
Layer 1
10
23.013134
20
7.031908
11
23.013134
21
7.601659
0
LINE
8
Layer 1
10
23.013134
20
7.601659
11
23.104190
21
7.692715
0
LINE
8
Layer 1
10
23.104190
20
7.692715
11
23.681746
21
7.692715
0
LINE
8
Layer 1
10
23.681746
20
7.692715
11
23.757193
21
7.632878
0
LINE
8
Layer 1
10
23.757193
20
7.632878
11
23.746787
21
6.870608
0
LINE
8
Layer 1
10
23.746787
20
6.870608
11
23.412806
21
6.253704
0
LINE
8
Layer 1
10
23.412806
20
6.253704
11
22.752975
21
6.009478
0
LINE
8
Layer 1
10
22.752975
20
6.009478
11
22.472002
21
6.009478
0
LINE
8
Layer 1
10
22.472002
20
6.009478
11
22.472000
21
6.012080
0
LINE
8
Layer 1
10
14.128600
20
7.864430
11
13.134788
21
7.864430
0
LINE
8
Layer 1
10
13.134788
20
7.864430
11
13.038529
21
7.960689
0
LINE
8
Layer 1
10
13.038529
20
7.960689
11
13.038529
21
8.509627
0
LINE
8
Layer 1
10
13.038529
20
8.509627
11
13.137390
21
8.608488
0
LINE
8
Layer 1
10
13.137390
20
8.608488
11
13.590069
21
8.608488
0
LINE
8
Layer 1
10
13.590069
20
8.608488
11
15.075589
21
8.608488
0
LINE
8
Layer 1
10
15.075589
20
8.608488
11
15.213474
21
8.473205
0
LINE
8
Layer 1
10
15.213474
20
8.473205
11
15.213474
21
7.942478
0
LINE
8
Layer 1
10
15.213474
20
7.942478
11
15.132824
21
7.861829
0
LINE
8
Layer 1
10
15.132824
20
7.861829
11
14.128604
21
7.861829
0
LINE
8
Layer 1
10
14.128604
20
7.861829
11
14.128600
21
7.864430
0
LINE
8
Layer 1
10
24.457000
20
10.515500
11
25.159433
21
10.515500
0
LINE
8
Layer 1
10
25.159433
20
10.515500
11
25.185449
21
10.416639
0
LINE
8
Layer 1
10
25.185449
20
10.416639
11
25.185449
21
8.447229
0
LINE
8
Layer 1
10
25.185449
20
8.447229
11
25.180245
21
8.379587
0
LINE
8
Layer 1
10
25.180245
20
8.379587
11
25.141221
21
8.345767
0
LINE
8
Layer 1
10
25.141221
20
8.345767
11
25.102197
21
8.345767
0
LINE
8
Layer 1
10
25.102197
20
8.345767
11
24.522040
21
8.345767
0
LINE
8
Layer 1
10
24.522040
20
8.345767
11
24.436187
21
8.434221
0
LINE
8
Layer 1
10
24.436187
20
8.434221
11
24.436187
21
9.709011
0
LINE
8
Layer 1
10
24.436187
20
9.709011
11
24.436187
21
10.414045
0
LINE
8
Layer 1
10
24.436187
20
10.414045
11
24.451798
21
10.515508
0
LINE
8
Layer 1
10
24.451798
20
10.515508
11
24.457000
21
10.515500
0
LINE
8
Layer 1
10
19.480100
20
6.852400
11
19.480100
21
6.110943
0
LINE
8
Layer 1
10
19.480100
20
6.110943
11
19.386442
21
6.012082
0
LINE
8
Layer 1
10
19.386442
20
6.012082
11
18.827097
21
6.012082
0
LINE
8
Layer 1
10
18.827097
20
6.012082
11
18.730838
21
6.110943
0
LINE
8
Layer 1
10
18.730838
20
6.110943
11
18.730838
21
6.920041
0
LINE
8
Layer 1
10
18.730838
20
6.920041
11
18.730838
21
7.565239
0
LINE
8
Layer 1
10
18.730838
20
7.565239
11
18.730838
21
7.643287
0
LINE
8
Layer 1
10
18.730838
20
7.643287
11
18.785472
21
7.692717
0
LINE
8
Layer 1
10
18.785472
20
7.692717
11
18.959780
21
7.692717
0
LINE
8
Layer 1
10
18.959780
20
7.692717
11
19.373435
21
7.692717
0
LINE
8
Layer 1
10
19.373435
20
7.692717
11
19.477499
21
7.586051
0
LINE
8
Layer 1
10
19.477499
20
7.586051
11
19.477499
21
6.852399
0
LINE
8
Layer 1
10
19.477499
20
6.852399
11
19.480100
21
6.852400
0
LINE
8
Layer 1
10
30.851700
20
6.849800
11
30.851700
21
7.593858
0
LINE
8
Layer 1
10
30.851700
20
7.593858
11
30.953162
21
7.692719
0
LINE
8
Layer 1
10
30.953162
20
7.692719
11
31.522915
21
7.692719
0
LINE
8
Layer 1
10
31.522915
20
7.692719
11
31.595757
21
7.622476
0
LINE
8
Layer 1
10
31.595757
20
7.622476
11
31.595757
21
7.573045
0
LINE
8
Layer 1
10
31.595757
20
7.573045
11
31.595757
21
6.134355
0
LINE
8
Layer 1
10
31.595757
20
6.134355
11
31.595757
21
6.084925
0
LINE
8
Layer 1
10
31.595757
20
6.084925
11
31.515110
21
6.009478
0
LINE
8
Layer 1
10
31.515110
20
6.009478
11
30.934951
21
6.009478
0
LINE
8
Layer 1
10
30.934951
20
6.009478
11
30.849099
21
6.095331
0
LINE
8
Layer 1
10
30.849099
20
6.095331
11
30.849099
21
6.847194
0
LINE
8
Layer 1
10
30.849099
20
6.847194
11
30.851700
21
6.849800
0
LINE
8
Layer 1
10
42.480900
20
3.553570
11
42.428870
21
3.608204
0
LINE
8
Layer 1
10
42.428870
20
3.608204
11
42.161554
21
3.845925
0
LINE
8
Layer 1
10
42.161554
20
3.845925
11
41.812288
21
3.925600
0
LINE
8
Layer 1
10
41.812288
20
3.925600
11
41.263350
21
3.925600
0
LINE
8
Layer 1
10
41.263350
20
3.925600
11
40.677992
21
3.735683
0
LINE
8
Layer 1
10
40.677992
20
3.735683
11
40.380758
21
3.409832
0
LINE
8
Layer 1
10
40.380758
20
3.409832
11
40.259133
21
2.986422
0
LINE
8
Layer 1
10
40.259133
20
2.986422
11
40.259133
21
2.359436
0
LINE
8
Layer 1
10
40.259133
20
2.359436
11
40.342384
21
2.281388
0
LINE
8
Layer 1
10
40.342384
20
2.281388
11
40.862705
21
2.281388
0
LINE
8
Layer 1
10
40.862705
20
2.281388
11
40.984655
21
2.286266
0
LINE
8
Layer 1
10
40.984655
20
2.286266
11
41.003191
21
2.421874
0
LINE
8
Layer 1
10
41.003191
20
2.421874
11
41.003191
21
2.903171
0
LINE
8
Layer 1
10
41.003191
20
2.903171
11
41.075076
21
3.096340
0
LINE
8
Layer 1
10
41.075076
20
3.096340
11
41.258148
21
3.176339
0
LINE
8
Layer 1
10
41.258148
20
3.176339
11
41.856516
21
3.176339
0
LINE
8
Layer 1
10
41.856516
20
3.176339
11
42.098467
21
2.973414
0
LINE
8
Layer 1
10
42.098467
20
2.973414
11
42.111484
21
2.858943
0
LINE
8
Layer 1
10
42.111484
20
2.858943
11
42.111484
21
2.356834
0
LINE
8
Layer 1
10
42.111484
20
2.356834
11
42.189534
21
2.281387
0
LINE
8
Layer 1
10
42.189534
20
2.281387
11
42.371646
21
2.281387
0
LINE
8
Layer 1
10
42.371646
20
2.281387
11
42.795706
21
2.281387
0
LINE
8
Layer 1
10
42.795706
20
2.281387
11
42.852940
21
2.338622
0
LINE
8
Layer 1
10
42.852940
20
2.338622
11
42.852940
21
2.473905
0
LINE
8
Layer 1
10
42.852940
20
2.473905
11
42.858152
21
2.918779
0
LINE
8
Layer 1
10
42.858152
20
2.918779
11
43.105304
21
3.176338
0
LINE
8
Layer 1
10
43.105304
20
3.176338
11
43.714078
21
3.176338
0
LINE
8
Layer 1
10
43.714078
20
3.176338
11
43.940418
21
3.009835
0
LINE
8
Layer 1
10
43.940418
20
3.009835
11
43.966427
21
2.848536
0
LINE
8
Layer 1
10
43.966427
20
2.848536
11
43.966427
21
2.356833
0
LINE
8
Layer 1
10
43.966427
20
2.356833
11
44.036668
21
2.283989
0
LINE
8
Layer 1
10
44.036668
20
2.283989
11
44.645444
21
2.283989
0
LINE
8
Layer 1
10
44.645444
20
2.283989
11
44.713085
21
2.351630
0
LINE
8
Layer 1
10
44.713085
20
2.351630
11
44.702687
21
3.017640
0
LINE
8
Layer 1
10
44.702687
20
3.017640
11
44.369682
21
3.671943
0
LINE
8
Layer 1
10
44.369682
20
3.671943
11
43.701067
21
3.928201
0
LINE
8
Layer 1
10
43.701067
20
3.928201
11
43.141723
21
3.928201
0
LINE
8
Layer 1
10
43.141723
20
3.928201
11
42.805790
21
3.851779
0
LINE
8
Layer 1
10
42.805790
20
3.851779
11
42.545956
21
3.629017
0
LINE
8
Layer 1
10
42.545956
20
3.629017
11
42.483517
21
3.558774
0
LINE
8
Layer 1
10
42.483517
20
3.558774
11
42.480900
21
3.553570
0
LINE
8
Layer 1
10
27.797500
20
3.610810
11
27.797500
21
2.385450
0
LINE
8
Layer 1
10
27.797500
20
2.385450
11
27.896359
21
2.281386
0
LINE
8
Layer 1
10
27.896359
20
2.281386
11
28.445297
21
2.281386
0
LINE
8
Layer 1
10
28.445297
20
2.281386
11
28.544158
21
2.377645
0
LINE
8
Layer 1
10
28.544158
20
2.377645
11
28.544158
21
2.858942
0
LINE
8
Layer 1
10
28.544158
20
2.858942
11
28.551963
21
3.090484
0
LINE
8
Layer 1
10
28.551963
20
3.090484
11
28.734075
21
3.306417
0
LINE
8
Layer 1
10
28.734075
20
3.306417
11
28.866755
21
3.324628
0
LINE
8
Layer 1
10
28.866755
20
3.324628
11
29.436508
21
3.324628
0
LINE
8
Layer 1
10
29.436508
20
3.324628
11
29.517156
21
3.407880
0
LINE
8
Layer 1
10
29.517156
20
3.407880
11
29.517156
21
3.938607
0
LINE
8
Layer 1
10
29.517156
20
3.938607
11
29.379271
21
4.071289
0
LINE
8
Layer 1
10
29.379271
20
4.071289
11
28.819927
21
4.071289
0
LINE
8
Layer 1
10
28.819927
20
4.071289
11
28.634239
21
4.138280
0
LINE
8
Layer 1
10
28.634239
20
4.138280
11
28.551963
21
4.318441
0
LINE
8
Layer 1
10
28.551963
20
4.318441
11
28.546751
21
4.453724
0
LINE
8
Layer 1
10
28.546751
20
4.453724
11
28.546751
21
4.859574
0
LINE
8
Layer 1
10
28.546751
20
4.859574
11
28.489516
21
4.929817
0
LINE
8
Layer 1
10
28.489516
20
4.929817
11
27.862531
21
4.929817
0
LINE
8
Layer 1
10
27.862531
20
4.929817
11
27.800092
21
4.864777
0
LINE
8
Layer 1
10
27.800092
20
4.864777
11
27.800092
21
4.797135
0
LINE
8
Layer 1
10
27.800092
20
4.797135
11
27.800092
21
3.610805
0
LINE
8
Layer 1
10
27.800092
20
3.610805
11
27.797500
21
3.610810
0
LINE
8
Layer 1
10
22.102600
20
3.608200
11
22.102600
21
2.372440
0
LINE
8
Layer 1
10
22.102600
20
2.372440
11
22.193656
21
2.281384
0
LINE
8
Layer 1
10
22.193656
20
2.281384
11
22.724383
21
2.281384
0
LINE
8
Layer 1
10
22.724383
20
2.281384
11
22.849260
21
2.408862
0
LINE
8
Layer 1
10
22.849260
20
2.408862
11
22.849260
21
3.035848
0
LINE
8
Layer 1
10
22.849260
20
3.035848
11
22.958527
21
3.269992
0
LINE
8
Layer 1
10
22.958527
20
3.269992
11
23.148444
21
3.324626
0
LINE
8
Layer 1
10
23.148444
20
3.324626
11
23.697382
21
3.324626
0
LINE
8
Layer 1
10
23.697382
20
3.324626
11
23.811853
21
3.441698
0
LINE
8
Layer 1
10
23.811853
20
3.441698
11
23.811853
21
3.933401
0
LINE
8
Layer 1
10
23.811853
20
3.933401
11
23.797544
21
4.055676
0
LINE
8
Layer 1
10
23.797544
20
4.055676
11
23.673968
21
4.068684
0
LINE
8
Layer 1
10
23.673968
20
4.068684
11
23.125030
21
4.068684
0
LINE
8
Layer 1
10
23.125030
20
4.068684
11
22.872675
21
4.216975
0
LINE
8
Layer 1
10
22.872675
20
4.216975
11
22.846659
21
4.367868
0
LINE
8
Layer 1
10
22.846659
20
4.367868
11
22.846659
21
4.841360
0
LINE
8
Layer 1
10
22.846659
20
4.841360
11
22.758204
21
4.927213
0
LINE
8
Layer 1
10
22.758204
20
4.927213
11
22.188453
21
4.927213
0
LINE
8
Layer 1
10
22.188453
20
4.927213
11
22.102601
21
4.841360
0
LINE
8
Layer 1
10
22.102601
20
4.841360
11
22.102601
21
4.791929
0
LINE
8
Layer 1
10
22.102601
20
4.791929
11
22.102601
21
3.605599
0
LINE
8
Layer 1
10
22.102601
20
3.605599
11
22.102600
21
3.608200
0
LINE
8
Layer 1
10
19.534800
20
3.701860
11
19.534800
21
3.982833
0
LINE
8
Layer 1
10
19.534800
20
3.982833
11
19.448947
21
4.071288
0
LINE
8
Layer 1
10
19.448947
20
4.071288
11
18.907814
21
4.071288
0
LINE
8
Layer 1
10
18.907814
20
4.071288
11
18.424892
21
3.949337
0
LINE
8
Layer 1
10
18.424892
20
3.949337
11
18.049285
21
3.626414
0
LINE
8
Layer 1
10
18.049285
20
3.626414
11
17.823921
21
3.093410
0
LINE
8
Layer 1
10
17.823921
20
3.093410
11
17.908799
21
2.523334
0
LINE
8
Layer 1
10
17.908799
20
2.523334
11
18.254812
21
2.056671
0
LINE
8
Layer 1
10
18.254812
20
2.056671
11
18.795946
21
1.841714
0
LINE
8
Layer 1
10
18.795946
20
1.841714
11
19.469761
21
1.831308
0
LINE
8
Layer 1
10
19.469761
20
1.831308
11
19.532199
21
1.904153
0
LINE
8
Layer 1
10
19.532199
20
1.904153
11
19.532199
21
2.492115
0
LINE
8
Layer 1
10
19.532199
20
2.492115
11
19.443745
21
2.575366
0
LINE
8
Layer 1
10
19.443745
20
2.575366
11
18.933831
21
2.575366
0
LINE
8
Layer 1
10
18.933831
20
2.575366
11
18.606029
21
2.791299
0
LINE
8
Layer 1
10
18.606029
20
2.791299
11
18.658061
21
3.186743
0
LINE
8
Layer 1
10
18.658061
20
3.186743
11
18.972855
21
3.324628
0
LINE
8
Layer 1
10
18.972855
20
3.324628
11
19.454152
21
3.324628
0
LINE
8
Layer 1
10
19.454152
20
3.324628
11
19.532200
21
3.402676
0
LINE
8
Layer 1
10
19.532200
20
3.402676
11
19.532200
21
3.701860
0
LINE
8
Layer 1
10
19.532200
20
3.701860
11
19.534800
21
3.701860
0
LINE
8
Layer 1
10
37.688800
20
3.925600
11
37.688800
21
3.925600
0
LINE
8
Layer 1
10
37.688800
20
3.925600
11
37.360998
21
3.925600
0
LINE
8
Layer 1
10
37.360998
20
3.925600
11
36.666696
21
3.643651
0
LINE
8
Layer 1
10
36.666696
20
3.643651
11
36.446738
21
3.338410
0
LINE
8
Layer 1
10
36.446738
20
3.338410
11
36.356778
21
2.965608
0
LINE
8
Layer 1
10
36.356778
20
2.965608
11
36.356778
21
2.260574
0
LINE
8
Layer 1
10
36.356778
20
2.260574
11
36.427020
21
2.187729
0
LINE
8
Layer 1
10
36.427020
20
2.187729
11
37.025390
21
2.187729
0
LINE
8
Layer 1
10
37.025390
20
2.187729
11
37.098235
21
2.260574
0
LINE
8
Layer 1
10
37.098235
20
2.260574
11
37.098235
21
2.328216
0
LINE
8
Layer 1
10
37.098235
20
2.328216
11
37.098235
21
2.858943
0
LINE
8
Layer 1
10
37.098235
20
2.858943
11
37.116438
21
3.002031
0
LINE
8
Layer 1
10
37.116438
20
3.002031
11
37.387006
21
3.178940
0
LINE
8
Layer 1
10
37.387006
20
3.178940
11
38.063423
21
3.178940
0
LINE
8
Layer 1
10
38.063423
20
3.178940
11
38.151878
21
3.267394
0
LINE
8
Layer 1
10
38.151878
20
3.267394
11
38.151878
21
3.844950
0
LINE
8
Layer 1
10
38.151878
20
3.844950
11
38.073829
21
3.922998
0
LINE
8
Layer 1
10
38.073829
20
3.922998
11
37.688792
21
3.922998
0
LINE
8
Layer 1
10
37.688792
20
3.922998
11
37.688800
21
3.925600
0
LINE
8
Layer 1
10
31.403300
20
2.747070
11
31.392902
21
3.173733
0
LINE
8
Layer 1
10
31.392902
20
3.173733
11
31.106075
21
3.766573
0
LINE
8
Layer 1
10
31.106075
20
3.766573
11
30.518765
21
4.060880
0
LINE
8
Layer 1
10
30.518765
20
4.060880
11
29.756496
21
4.071286
0
LINE
8
Layer 1
10
29.756496
20
4.071286
11
29.681047
21
3.993238
0
LINE
8
Layer 1
10
29.681047
20
3.993238
11
29.681047
21
3.413081
0
LINE
8
Layer 1
10
29.681047
20
3.413081
11
29.766902
21
3.327228
0
LINE
8
Layer 1
10
29.766902
20
3.327228
11
30.347058
21
3.327228
0
LINE
8
Layer 1
10
30.347058
20
3.327228
11
30.566244
21
3.253407
0
LINE
8
Layer 1
10
30.566244
20
3.253407
11
30.656649
21
3.041052
0
LINE
8
Layer 1
10
30.656649
20
3.041052
11
30.656649
21
2.963004
0
LINE
8
Layer 1
10
30.656649
20
2.963004
11
30.656649
21
2.364636
0
LINE
8
Layer 1
10
30.656649
20
2.364636
11
30.729494
21
2.283986
0
LINE
8
Layer 1
10
30.729494
20
2.283986
11
31.327862
21
2.283986
0
LINE
8
Layer 1
10
31.327862
20
2.283986
11
31.400707
21
2.364636
0
LINE
8
Layer 1
10
31.400707
20
2.364636
11
31.400707
21
2.747071
0
LINE
8
Layer 1
10
31.400707
20
2.747071
11
31.403300
21
2.747070
0
LINE
8
Layer 1
10
15.720800
20
2.741870
11
15.710394
21
3.173736
0
LINE
8
Layer 1
10
15.710394
20
3.173736
11
15.423567
21
3.766251
0
LINE
8
Layer 1
10
15.423567
20
3.766251
11
14.836255
21
4.058281
0
LINE
8
Layer 1
10
14.836255
20
4.058281
11
14.094798
21
4.068687
0
LINE
8
Layer 1
10
14.094798
20
4.068687
11
14.001140
21
3.967224
0
LINE
8
Layer 1
10
14.001140
20
3.967224
11
14.001140
21
3.436497
0
LINE
8
Layer 1
10
14.001140
20
3.436497
11
14.118212
21
3.322026
0
LINE
8
Layer 1
10
14.118212
20
3.322026
11
14.677557
21
3.322026
0
LINE
8
Layer 1
10
14.677557
20
3.322026
11
14.872027
21
3.259913
0
LINE
8
Layer 1
10
14.872027
20
3.259913
11
14.968937
21
3.082679
0
LINE
8
Layer 1
10
14.968937
20
3.082679
11
14.976743
21
2.968208
0
LINE
8
Layer 1
10
14.976743
20
2.968208
11
14.976743
21
2.359433
0
LINE
8
Layer 1
10
14.976743
20
2.359433
11
15.052189
21
2.281385
0
LINE
8
Layer 1
10
15.052189
20
2.281385
11
15.650557
21
2.281385
0
LINE
8
Layer 1
10
15.650557
20
2.281385
11
15.723402
21
2.354230
0
LINE
8
Layer 1
10
15.723402
20
2.354230
11
15.723402
21
2.741869
0
LINE
8
Layer 1
10
15.723402
20
2.741869
11
15.720800
21
2.741870
0
LINE
8
Layer 1
10
25.695400
20
2.744470
11
25.695400
21
2.744470
0
LINE
8
Layer 1
10
25.695400
20
2.744470
11
25.695400
21
3.082678
0
LINE
8
Layer 1
10
25.695400
20
3.082678
11
25.435565
21
3.734380
0
LINE
8
Layer 1
10
25.435565
20
3.734380
11
24.810855
21
4.058279
0
LINE
8
Layer 1
10
24.810855
20
4.058279
11
24.058992
21
4.068685
0
LINE
8
Layer 1
10
24.058992
20
4.068685
11
23.983545
21
3.988035
0
LINE
8
Layer 1
10
23.983545
20
3.988035
11
23.983545
21
3.407878
0
LINE
8
Layer 1
10
23.983545
20
3.407878
11
24.072000
21
3.322025
0
LINE
8
Layer 1
10
24.072000
20
3.322025
11
24.631345
21
3.322025
0
LINE
8
Layer 1
10
24.631345
20
3.322025
11
24.872969
21
3.232921
0
LINE
8
Layer 1
10
24.872969
20
3.232921
11
24.948740
21
3.007231
0
LINE
8
Layer 1
10
24.948740
20
3.007231
11
24.948740
21
2.525934
0
LINE
8
Layer 1
10
24.948740
20
2.525934
11
24.948740
21
2.351626
0
LINE
8
Layer 1
10
24.948740
20
2.351626
11
25.018983
21
2.278782
0
LINE
8
Layer 1
10
25.018983
20
2.278782
11
25.627758
21
2.278782
0
LINE
8
Layer 1
10
25.627758
20
2.278782
11
25.695400
21
2.346423
0
LINE
8
Layer 1
10
25.695400
20
2.346423
11
25.695400
21
2.741867
0
LINE
8
Layer 1
10
25.695400
20
2.741867
11
25.695400
21
2.744470
0
LINE
8
Layer 1
10
12.117600
20
2.749670
11
12.117600
21
2.375039
0
LINE
8
Layer 1
10
12.117600
20
2.375039
11
12.206055
21
2.281381
0
LINE
8
Layer 1
10
12.206055
20
2.281381
11
12.775806
21
2.281381
0
LINE
8
Layer 1
10
12.775806
20
2.281381
11
12.864260
21
2.367234
0
LINE
8
Layer 1
10
12.864260
20
2.367234
11
12.864260
21
2.819913
0
LINE
8
Layer 1
10
12.864260
20
2.819913
11
12.869465
21
3.080073
0
LINE
8
Layer 1
10
12.869465
20
3.080073
11
12.939708
21
3.233568
0
LINE
8
Layer 1
10
12.939708
20
3.233568
11
13.166047
21
3.322022
0
LINE
8
Layer 1
10
13.166047
20
3.322022
11
13.735798
21
3.322022
0
LINE
8
Layer 1
10
13.735798
20
3.322022
11
13.837261
21
3.426086
0
LINE
8
Layer 1
10
13.837261
20
3.426086
11
13.837261
21
3.975024
0
LINE
8
Layer 1
10
13.837261
20
3.975024
11
13.746205
21
4.066080
0
LINE
8
Layer 1
10
13.746205
20
4.066080
11
13.098406
21
4.066080
0
LINE
8
Layer 1
10
13.098406
20
4.066080
11
12.451257
21
3.804619
0
LINE
8
Layer 1
10
12.451257
20
3.804619
11
12.128008
21
3.184137
0
LINE
8
Layer 1
10
12.128008
20
3.184137
11
12.117602
21
2.749669
0
LINE
8
Layer 1
10
12.117602
20
2.749669
11
12.117600
21
2.749670
0
LINE
8
Layer 1
10
32.074500
20
2.630000
11
32.074500
21
2.289190
0
LINE
8
Layer 1
10
32.074500
20
2.289190
11
32.173361
21
2.187727
0
LINE
8
Layer 1
10
32.173361
20
2.187727
11
32.714494
21
2.187727
0
LINE
8
Layer 1
10
32.714494
20
2.187727
11
32.821158
21
2.294393
0
LINE
8
Layer 1
10
32.821158
20
2.294393
11
32.821158
21
2.362035
0
LINE
8
Layer 1
10
32.821158
20
2.362035
11
32.821158
21
2.882355
0
LINE
8
Layer 1
10
32.821158
20
2.882355
11
32.901825
21
3.103166
0
LINE
8
Layer 1
10
32.901825
20
3.103166
11
33.122944
21
3.181539
0
LINE
8
Layer 1
10
33.122944
20
3.181539
11
33.219205
21
3.181539
0
LINE
8
Layer 1
10
33.219205
20
3.181539
11
33.731721
21
3.181539
0
LINE
8
Layer 1
10
33.731721
20
3.181539
11
33.825378
21
3.272595
0
LINE
8
Layer 1
10
33.825378
20
3.272595
11
33.825378
21
3.842346
0
LINE
8
Layer 1
10
33.825378
20
3.842346
11
33.739526
21
3.928199
0
LINE
8
Layer 1
10
33.739526
20
3.928199
11
33.063109
21
3.928199
0
LINE
8
Layer 1
10
33.063109
20
3.928199
11
32.408155
21
3.663164
0
LINE
8
Layer 1
10
32.408155
20
3.663164
11
32.084906
21
3.033248
0
LINE
8
Layer 1
10
32.084906
20
3.033248
11
32.074508
21
2.632601
0
LINE
8
Layer 1
10
32.074508
20
2.632601
11
32.074500
21
2.630000
0
LINE
8
Layer 1
10
46.695500
20
3.925600
11
46.695500
21
3.925600
0
LINE
8
Layer 1
10
46.695500
20
3.925600
11
46.385909
21
3.925600
0
LINE
8
Layer 1
10
46.385909
20
3.925600
11
46.047700
21
3.863161
0
LINE
8
Layer 1
10
46.047700
20
3.863161
11
45.603151
21
3.547717
0
LINE
8
Layer 1
10
45.603151
20
3.547717
11
45.394699
21
3.048859
0
LINE
8
Layer 1
10
45.394699
20
3.048859
11
45.381682
21
2.257972
0
LINE
8
Layer 1
10
45.381682
20
2.257972
11
45.451926
21
2.185128
0
LINE
8
Layer 1
10
45.451926
20
2.185128
11
46.050294
21
2.185128
0
LINE
8
Layer 1
10
46.050294
20
2.185128
11
46.125742
21
2.263176
0
LINE
8
Layer 1
10
46.125742
20
2.263176
11
46.125742
21
2.832927
0
LINE
8
Layer 1
10
46.125742
20
2.832927
11
46.136140
21
2.957804
0
LINE
8
Layer 1
10
46.136140
20
2.957804
11
46.391097
21
3.178940
0
LINE
8
Layer 1
10
46.391097
20
3.178940
11
46.594022
21
3.178940
0
LINE
8
Layer 1
10
46.594022
20
3.178940
11
47.057106
21
3.178940
0
LINE
8
Layer 1
10
47.057106
20
3.178940
11
47.129951
21
3.249183
0
LINE
8
Layer 1
10
47.129951
20
3.249183
11
47.129951
21
3.847551
0
LINE
8
Layer 1
10
47.129951
20
3.847551
11
47.051905
21
3.922997
0
LINE
8
Layer 1
10
47.051905
20
3.922997
11
46.695485
21
3.922997
0
LINE
8
Layer 1
10
46.695485
20
3.922997
11
46.695500
21
3.925600
0
LINE
8
Layer 1
10
35.677700
20
2.627400
11
35.659497
21
3.093087
0
LINE
8
Layer 1
10
35.659497
20
3.093087
11
35.382427
21
3.625115
0
LINE
8
Layer 1
10
35.382427
20
3.625115
11
34.855604
21
3.907389
0
LINE
8
Layer 1
10
34.855604
20
3.907389
11
34.036098
21
3.925600
0
LINE
8
Layer 1
10
34.036098
20
3.925600
11
33.986668
21
3.870967
0
LINE
8
Layer 1
10
33.986668
20
3.870967
11
33.986668
21
3.233574
0
LINE
8
Layer 1
10
33.986668
20
3.233574
11
33.986668
21
3.223168
0
LINE
8
Layer 1
10
33.986668
20
3.223168
11
34.028292
21
3.181542
0
LINE
8
Layer 1
10
34.028292
20
3.181542
11
34.106342
21
3.181542
0
LINE
8
Layer 1
10
34.106342
20
3.181542
11
34.637069
21
3.181542
0
LINE
8
Layer 1
10
34.637069
20
3.181542
11
34.848124
21
3.105120
0
LINE
8
Layer 1
10
34.848124
20
3.105120
11
34.920644
21
2.890163
0
LINE
8
Layer 1
10
34.920644
20
2.890163
11
34.920644
21
2.273583
0
LINE
8
Layer 1
10
34.920644
20
2.273583
11
34.990885
21
2.190332
0
LINE
8
Layer 1
10
34.990885
20
2.190332
11
35.607467
21
2.190332
0
LINE
8
Layer 1
10
35.607467
20
2.190332
11
35.672507
21
2.260575
0
LINE
8
Layer 1
10
35.672507
20
2.260575
11
35.672507
21
2.635206
0
LINE
8
Layer 1
10
35.672507
20
2.635206
11
35.677700
21
2.627400
0
LINE
8
Layer 1
10
27.123600
20
3.176340
11
27.123600
21
3.967227
0
LINE
8
Layer 1
10
27.123600
20
3.967227
11
27.024739
21
4.071291
0
LINE
8
Layer 1
10
27.024739
20
4.071291
11
26.475801
21
4.071291
0
LINE
8
Layer 1
10
26.475801
20
4.071291
11
26.379542
21
3.972430
0
LINE
8
Layer 1
10
26.379542
20
3.972430
11
26.379542
21
3.345444
0
LINE
8
Layer 1
10
26.379542
20
3.345444
11
26.379542
21
2.380249
0
LINE
8
Layer 1
10
26.379542
20
2.380249
11
26.478404
21
2.281388
0
LINE
8
Layer 1
10
26.478404
20
2.281388
11
27.037748
21
2.281388
0
LINE
8
Layer 1
10
27.037748
20
2.281388
11
27.126201
21
2.375046
0
LINE
8
Layer 1
10
27.126201
20
2.375046
11
27.126201
21
3.176340
0
LINE
8
Layer 1
10
27.126201
20
3.176340
11
27.123600
21
3.176340
0
LINE
8
Layer 1
10
38.825700
20
3.186740
11
38.825700
21
2.406259
0
LINE
8
Layer 1
10
38.825700
20
2.406259
11
38.945374
21
2.283984
0
LINE
8
Layer 1
10
38.945374
20
2.283984
11
39.455289
21
2.283984
0
LINE
8
Layer 1
10
39.455289
20
2.283984
11
39.569758
21
2.401056
0
LINE
8
Layer 1
10
39.569758
20
2.401056
11
39.569758
21
3.501536
0
LINE
8
Layer 1
10
39.569758
20
3.501536
11
39.569758
21
3.993239
0
LINE
8
Layer 1
10
39.569758
20
3.993239
11
39.494312
21
4.073889
0
LINE
8
Layer 1
10
39.494312
20
4.073889
11
38.906350
21
4.073889
0
LINE
8
Layer 1
10
38.906350
20
4.073889
11
38.825700
21
3.990637
0
LINE
8
Layer 1
10
38.825700
20
3.990637
11
38.825700
21
3.189343
0
LINE
8
Layer 1
10
38.825700
20
3.189343
11
38.825700
21
3.186740
0
LINE
8
Layer 1
10
17.138700
20
3.176340
11
17.138700
21
3.668043
0
LINE
8
Layer 1
10
17.138700
20
3.668043
11
17.138700
21
4.006252
0
LINE
8
Layer 1
10
17.138700
20
4.006252
11
17.076261
21
4.071292
0
LINE
8
Layer 1
10
17.076261
20
4.071292
11
16.930571
21
4.071292
0
LINE
8
Layer 1
10
16.930571
20
4.071292
11
16.467486
21
4.071292
0
LINE
8
Layer 1
10
16.467486
20
4.071292
11
16.389438
21
3.993244
0
LINE
8
Layer 1
10
16.389438
20
3.993244
11
16.389438
21
3.818936
0
LINE
8
Layer 1
10
16.389438
20
3.818936
11
16.389438
21
2.390656
0
LINE
8
Layer 1
10
16.389438
20
2.390656
11
16.496104
21
2.283990
0
LINE
8
Layer 1
10
16.496104
20
2.283990
11
17.037237
21
2.283990
0
LINE
8
Layer 1
10
17.037237
20
2.283990
11
17.136098
21
2.388054
0
LINE
8
Layer 1
10
17.136098
20
2.388054
11
17.136098
21
3.178941
0
LINE
8
Layer 1
10
17.136098
20
3.178941
11
17.138700
21
3.176340
0
LINE
8
Layer 1
10
20.557200
20
3.324630
11
21.319469
21
3.324630
0
LINE
8
Layer 1
10
21.319469
20
3.324630
11
21.418330
21
3.420889
0
LINE
8
Layer 1
10
21.418330
20
3.420889
11
21.418330
21
3.969827
0
LINE
8
Layer 1
10
21.418330
20
3.969827
11
21.418330
21
4.019258
0
LINE
8
Layer 1
10
21.418330
20
4.019258
11
21.371501
21
4.068688
0
LINE
8
Layer 1
10
21.371501
20
4.068688
11
21.314266
21
4.068688
0
LINE
8
Layer 1
10
21.314266
20
4.068688
11
19.818346
21
4.068688
0
LINE
8
Layer 1
10
19.818346
20
4.068688
11
19.779322
21
4.068688
0
LINE
8
Layer 1
10
19.779322
20
4.068688
11
19.709079
21
3.995843
0
LINE
8
Layer 1
10
19.709079
20
3.995843
11
19.709079
21
3.397475
0
LINE
8
Layer 1
10
19.709079
20
3.397475
11
19.779322
21
3.324630
0
LINE
8
Layer 1
10
19.779322
20
3.324630
11
19.846964
21
3.324630
0
LINE
8
Layer 1
10
19.846964
20
3.324630
11
20.559803
21
3.324630
0
LINE
8
Layer 1
10
20.559803
20
3.324630
11
20.557200
21
3.324630
0
LINE
8
Layer 1
10
38.825700
20
4.849170
11
38.825700
21
4.539579
0
LINE
8
Layer 1
10
38.825700
20
4.539579
11
38.895944
21
4.464133
0
LINE
8
Layer 1
10
38.895944
20
4.464133
11
39.502117
21
4.464133
0
LINE
8
Layer 1
10
39.502117
20
4.464133
11
39.569758
21
4.523969
0
LINE
8
Layer 1
10
39.569758
20
4.523969
11
39.569758
21
5.150955
0
LINE
8
Layer 1
10
39.569758
20
5.150955
11
39.504718
21
5.210792
0
LINE
8
Layer 1
10
39.504718
20
5.210792
11
38.898545
21
5.210792
0
LINE
8
Layer 1
10
38.898545
20
5.210792
11
38.828301
21
5.137948
0
LINE
8
Layer 1
10
38.828301
20
5.137948
11
38.828301
21
4.849170
0
LINE
8
Layer 1
10
38.828301
20
4.849170
11
38.825700
21
4.849170
0
LINE
8
Layer 1
10
26.756800
20
4.464130
11
26.756800
21
4.464130
0
LINE
8
Layer 1
10
26.756800
20
4.464130
11
27.055985
21
4.464130
0
LINE
8
Layer 1
10
27.055985
20
4.464130
11
27.123626
21
4.529170
0
LINE
8
Layer 1
10
27.123626
20
4.529170
11
27.123626
21
5.145750
0
LINE
8
Layer 1
10
27.123626
20
5.145750
11
27.061187
21
5.208189
0
LINE
8
Layer 1
10
27.061187
20
5.208189
11
26.444608
21
5.208189
0
LINE
8
Layer 1
10
26.444608
20
5.208189
11
26.379568
21
5.148352
0
LINE
8
Layer 1
10
26.379568
20
5.148352
11
26.379568
21
4.531772
0
LINE
8
Layer 1
10
26.379568
20
4.531772
11
26.457616
21
4.464130
0
LINE
8
Layer 1
10
26.457616
20
4.464130
11
26.756800
21
4.464130
0
LINE
8
Layer 1
10
26.756800
20
4.464130
11
26.756800
21
4.464130
0
LINE
8
Layer 1
10
17.138700
20
4.830960
11
17.138700
21
5.140551
0
LINE
8
Layer 1
10
17.138700
20
5.140551
11
17.071058
21
5.210794
0
LINE
8
Layer 1
10
17.071058
20
5.210794
11
16.454478
21
5.210794
0
LINE
8
Layer 1
10
16.454478
20
5.210794
11
16.392040
21
5.148356
0
LINE
8
Layer 1
10
16.392040
20
5.148356
11
16.392040
21
4.539581
0
LINE
8
Layer 1
10
16.392040
20
4.539581
11
16.464885
21
4.466736
0
LINE
8
Layer 1
10
16.464885
20
4.466736
11
17.073660
21
4.466736
0
LINE
8
Layer 1
10
17.073660
20
4.466736
11
17.138700
21
4.536979
0
LINE
8
Layer 1
10
17.138700
20
4.536979
11
17.138700
21
4.836163
0
LINE
8
Layer 1
10
17.138700
20
4.836163
11
17.138700
21
4.830960
0
LINE
8
Layer 1
10
19.706500
20
0.332786
11
19.706500
21
0.988390
0
LINE
8
Layer 1
10
19.706500
20
0.988390
11
19.792353
21
1.074243
0
LINE
8
Layer 1
10
19.792353
20
1.074243
11
20.216414
21
1.074243
0
LINE
8
Layer 1
10
20.216414
20
1.074243
11
20.351697
21
1.082048
0
LINE
8
Layer 1
10
20.351697
20
1.082048
11
20.580964
21
1.203673
0
LINE
8
Layer 1
10
20.580964
20
1.203673
11
20.671694
21
1.446272
0
LINE
8
Layer 1
10
20.671694
20
1.446272
11
20.586817
21
1.685620
0
LINE
8
Layer 1
10
20.586817
20
1.685620
11
20.367306
21
1.815699
0
LINE
8
Layer 1
10
20.367306
20
1.815699
11
20.195600
21
1.826105
0
LINE
8
Layer 1
10
20.195600
20
1.826105
11
19.781945
21
1.826105
0
LINE
8
Layer 1
10
19.781945
20
1.826105
11
19.709100
21
1.896348
0
LINE
8
Layer 1
10
19.709100
20
1.896348
11
19.709100
21
2.505123
0
LINE
8
Layer 1
10
19.709100
20
2.505123
11
19.776742
21
2.572765
0
LINE
8
Layer 1
10
19.776742
20
2.572765
11
20.364704
21
2.570172
0
LINE
8
Layer 1
10
20.364704
20
2.570172
11
20.966000
21
2.363995
0
LINE
8
Layer 1
10
20.966000
20
2.363995
11
21.342907
21
1.857333
0
LINE
8
Layer 1
10
21.342907
20
1.857333
11
21.406646
21
1.224494
0
LINE
8
Layer 1
10
21.406646
20
1.224494
11
21.095755
21
0.665803
0
LINE
8
Layer 1
10
21.095755
20
0.665803
11
20.473972
21
0.348407
0
LINE
8
Layer 1
10
20.473972
20
0.348407
11
20.463566
21
0.335400
0
LINE
8
Layer 1
10
20.463566
20
0.335400
11
19.711700
21
0.335397
0
LINE
8
Layer 1
10
19.711700
20
0.335397
11
19.706500
21
0.332786
0
LINE
8
Layer 1
10
46.222000
20
0.332786
11
46.154359
21
0.358802
0
LINE
8
Layer 1
10
46.154359
20
0.358802
11
45.660379
21
0.646605
0
LINE
8
Layer 1
10
45.660379
20
0.646605
11
45.402496
21
1.154892
0
LINE
8
Layer 1
10
45.402496
20
1.154892
11
45.381674
21
1.344809
0
LINE
8
Layer 1
10
45.381674
20
1.344809
11
45.381674
21
1.924966
0
LINE
8
Layer 1
10
45.381674
20
1.924966
11
45.467528
21
2.013421
0
LINE
8
Layer 1
10
45.467528
20
2.013421
11
46.047684
21
2.013421
0
LINE
8
Layer 1
10
46.047684
20
2.013421
11
46.128334
21
1.930170
0
LINE
8
Layer 1
10
46.128334
20
1.930170
11
46.128334
21
1.417654
0
LINE
8
Layer 1
10
46.128334
20
1.417654
11
46.146538
21
1.274566
0
LINE
8
Layer 1
10
46.146538
20
1.274566
11
46.352063
21
1.082047
0
LINE
8
Layer 1
10
46.352063
20
1.082047
11
46.487347
21
1.071641
0
LINE
8
Layer 1
10
46.487347
20
1.071641
11
47.434332
21
1.071641
0
LINE
8
Layer 1
10
47.434332
20
1.071641
11
47.501972
21
1.071641
0
LINE
8
Layer 1
10
47.501972
20
1.071641
11
47.559207
21
1.014406
0
LINE
8
Layer 1
10
47.559207
20
1.014406
11
47.559207
21
0.793270
0
LINE
8
Layer 1
10
47.559207
20
0.793270
11
47.559207
21
0.330185
0
LINE
8
Layer 1
10
47.559207
20
0.330185
11
46.227200
21
0.330185
0
LINE
8
Layer 1
10
46.227200
20
0.330185
11
46.222000
21
0.332786
0
LINE
8
Layer 1
10
32.917400
20
0.332786
11
32.831545
21
0.364005
0
LINE
8
Layer 1
10
32.831545
20
0.364005
11
32.321958
21
0.685303
0
LINE
8
Layer 1
10
32.321958
20
0.685303
11
32.087487
21
1.240745
0
LINE
8
Layer 1
10
32.087487
20
1.240745
11
32.077089
21
1.945779
0
LINE
8
Layer 1
10
32.077089
20
1.945779
11
32.152535
21
2.013421
0
LINE
8
Layer 1
10
32.152535
20
2.013421
11
32.740499
21
2.013421
0
LINE
8
Layer 1
10
32.740499
20
2.013421
11
32.821147
21
1.930170
0
LINE
8
Layer 1
10
32.821147
20
1.930170
11
32.821147
21
1.399443
0
LINE
8
Layer 1
10
32.821147
20
1.399443
11
32.849764
21
1.238144
0
LINE
8
Layer 1
10
32.849764
20
1.238144
11
33.044886
21
1.084650
0
LINE
8
Layer 1
10
33.044886
20
1.084650
11
33.180170
21
1.074244
0
LINE
8
Layer 1
10
33.180170
20
1.074244
11
34.127152
21
1.074244
0
LINE
8
Layer 1
10
34.127152
20
1.074244
11
34.194793
21
1.074244
0
LINE
8
Layer 1
10
34.194793
20
1.074244
11
34.252030
21
1.017008
0
LINE
8
Layer 1
10
34.252030
20
1.017008
11
34.252030
21
0.795872
0
LINE
8
Layer 1
10
34.252030
20
0.795872
11
34.252030
21
0.332787
0
LINE
8
Layer 1
10
34.252030
20
0.332787
11
32.920000
21
0.332787
0
LINE
8
Layer 1
10
32.920000
20
0.332787
11
32.917400
21
0.332786
0
LINE
8
Layer 1
10
24.959100
20
0.332786
11
24.946093
21
0.457663
0
LINE
8
Layer 1
10
24.946093
20
0.457663
11
24.946093
21
1.990003
0
LINE
8
Layer 1
10
24.946093
20
1.990003
11
24.962678
21
2.108701
0
LINE
8
Layer 1
10
24.962678
20
2.108701
11
25.078775
21
2.120083
0
LINE
8
Layer 1
10
25.078775
20
2.120083
11
25.580884
21
2.120083
0
LINE
8
Layer 1
10
25.580884
20
2.120083
11
25.695355
21
2.008214
0
LINE
8
Layer 1
10
25.695355
20
2.008214
11
25.695355
21
0.330184
0
LINE
8
Layer 1
10
25.695355
20
0.330184
11
24.961700
21
0.330184
0
LINE
8
Layer 1
10
24.961700
20
0.330184
11
24.959100
21
0.332786
0
LINE
8
Layer 1
10
27.800100
20
0.332786
11
27.800100
21
2.021226
0
LINE
8
Layer 1
10
27.800100
20
2.021226
11
27.904163
21
2.122688
0
LINE
8
Layer 1
10
27.904163
20
2.122688
11
28.434890
21
2.122688
0
LINE
8
Layer 1
10
28.434890
20
2.122688
11
28.546758
21
2.008217
0
LINE
8
Layer 1
10
28.546758
20
2.008217
11
28.541546
21
0.348397
0
LINE
8
Layer 1
10
28.541546
20
0.348397
11
28.554563
21
0.335390
0
LINE
8
Layer 1
10
28.554563
20
0.335390
11
27.802700
21
0.335389
0
LINE
8
Layer 1
10
27.802700
20
0.335389
11
27.800100
21
0.332786
0
LINE
8
Layer 1
10
43.963800
20
0.332786
11
43.963800
21
2.013426
0
LINE
8
Layer 1
10
43.963800
20
2.013426
11
43.963800
21
2.070661
0
LINE
8
Layer 1
10
43.963800
20
2.070661
11
44.008028
21
2.120092
0
LINE
8
Layer 1
10
44.008028
20
2.120092
11
44.047054
21
2.120092
0
LINE
8
Layer 1
10
44.047054
20
2.120092
11
44.606398
21
2.120092
0
LINE
8
Layer 1
10
44.606398
20
2.120092
11
44.707860
21
2.021231
0
LINE
8
Layer 1
10
44.707860
20
2.021231
11
44.707860
21
0.418641
0
LINE
8
Layer 1
10
44.707860
20
0.418641
11
44.697462
21
0.332788
0
LINE
8
Layer 1
10
44.697462
20
0.332788
11
43.963800
21
0.332786
0
LINE
8
Layer 1
10
40.253900
20
0.332786
11
40.253900
21
2.010816
0
LINE
8
Layer 1
10
40.253900
20
2.010816
11
40.253900
21
2.060247
0
LINE
8
Layer 1
10
40.253900
20
2.060247
11
40.316339
21
2.122685
0
LINE
8
Layer 1
10
40.316339
20
2.122685
11
40.586907
21
2.122685
0
LINE
8
Layer 1
10
40.586907
20
2.122685
11
40.925116
21
2.122685
0
LINE
8
Layer 1
10
40.925116
20
2.122685
11
41.000562
21
2.049840
0
LINE
8
Layer 1
10
41.000562
20
2.049840
11
41.000562
21
1.992605
0
LINE
8
Layer 1
10
41.000562
20
1.992605
11
41.000562
21
0.460265
0
LINE
8
Layer 1
10
41.000562
20
0.460265
11
40.987544
21
0.335388
0
LINE
8
Layer 1
10
40.987544
20
0.335388
11
40.253900
21
0.335388
0
LINE
8
Layer 1
10
40.253900
20
0.335388
11
40.253900
21
0.332786
0
LINE
8
Layer 1
10
38.825700
20
0.332786
11
38.825700
21
2.010816
0
LINE
8
Layer 1
10
38.825700
20
2.010816
11
38.934967
21
2.122685
0
LINE
8
Layer 1
10
38.934967
20
2.122685
11
39.455288
21
2.122685
0
LINE
8
Layer 1
10
39.455288
20
2.122685
11
39.569757
21
2.010816
0
LINE
8
Layer 1
10
39.569757
20
2.010816
11
39.569757
21
0.756846
0
LINE
8
Layer 1
10
39.569757
20
0.756846
11
39.569757
21
0.447255
0
LINE
8
Layer 1
10
39.569757
20
0.447255
11
39.556740
21
0.332784
0
LINE
8
Layer 1
10
39.556740
20
0.332784
11
38.823000
21
0.332786
0
LINE
8
Layer 1
10
38.823000
20
0.332786
11
38.825700
21
0.332786
0
LINE
8
Layer 1
10
30.656600
20
0.332786
11
30.656600
21
2.013426
0
LINE
8
Layer 1
10
30.656600
20
2.013426
11
30.656600
21
2.070661
0
LINE
8
Layer 1
10
30.656600
20
2.070661
11
30.700828
21
2.120092
0
LINE
8
Layer 1
10
30.700828
20
2.120092
11
30.739851
21
2.120092
0
LINE
8
Layer 1
10
30.739851
20
2.120092
11
31.299195
21
2.120092
0
LINE
8
Layer 1
10
31.299195
20
2.120092
11
31.400657
21
2.021231
0
LINE
8
Layer 1
10
31.400657
20
2.021231
11
31.400657
21
0.418641
0
LINE
8
Layer 1
10
31.400657
20
0.418641
11
31.390259
21
0.332788
0
LINE
8
Layer 1
10
31.390259
20
0.332788
11
30.656600
21
0.332786
0
LINE
8
Layer 1
10
22.102600
20
0.332786
11
22.102600
21
2.010816
0
LINE
8
Layer 1
10
22.102600
20
2.010816
11
22.102600
21
2.060247
0
LINE
8
Layer 1
10
22.102600
20
2.060247
11
22.165038
21
2.122685
0
LINE
8
Layer 1
10
22.165038
20
2.122685
11
22.435605
21
2.122685
0
LINE
8
Layer 1
10
22.435605
20
2.122685
11
22.773814
21
2.122685
0
LINE
8
Layer 1
10
22.773814
20
2.122685
11
22.849261
21
2.049840
0
LINE
8
Layer 1
10
22.849261
20
2.049840
11
22.849261
21
1.992605
0
LINE
8
Layer 1
10
22.849261
20
1.992605
11
22.849261
21
0.460265
0
LINE
8
Layer 1
10
22.849261
20
0.460265
11
22.836254
21
0.335388
0
LINE
8
Layer 1
10
22.836254
20
0.335388
11
22.102600
21
0.335388
0
LINE
8
Layer 1
10
22.102600
20
0.335388
11
22.102600
21
0.332786
0
LINE
8
Layer 1
10
16.405000
20
0.332786
11
16.391993
21
0.447257
0
LINE
8
Layer 1
10
16.391993
20
0.447257
11
16.391993
21
1.997817
0
LINE
8
Layer 1
10
16.391993
20
1.997817
11
16.391993
21
2.047248
0
LINE
8
Layer 1
10
16.391993
20
2.047248
11
16.464838
21
2.120093
0
LINE
8
Layer 1
10
16.464838
20
2.120093
11
17.063206
21
2.120093
0
LINE
8
Layer 1
10
17.063206
20
2.120093
11
17.136051
21
2.047248
0
LINE
8
Layer 1
10
17.136051
20
2.047248
11
17.136051
21
2.008223
0
LINE
8
Layer 1
10
17.136051
20
2.008223
11
17.136051
21
0.332793
0
LINE
8
Layer 1
10
17.136051
20
0.332793
11
16.402400
21
0.332786
0
LINE
8
Layer 1
10
16.402400
20
0.332786
11
16.405000
21
0.332786
0
LINE
8
Layer 1
10
14.976800
20
0.332786
11
14.976800
21
2.013426
0
LINE
8
Layer 1
10
14.976800
20
2.013426
11
14.976800
21
2.070661
0
LINE
8
Layer 1
10
14.976800
20
2.070661
11
15.021027
21
2.120092
0
LINE
8
Layer 1
10
15.021027
20
2.120092
11
15.060051
21
2.120092
0
LINE
8
Layer 1
10
15.060051
20
2.120092
11
15.619396
21
2.120092
0
LINE
8
Layer 1
10
15.619396
20
2.120092
11
15.720859
21
2.021231
0
LINE
8
Layer 1
10
15.720859
20
2.021231
11
15.720859
21
0.418641
0
LINE
8
Layer 1
10
15.720859
20
0.418641
11
15.710453
21
0.332788
0
LINE
8
Layer 1
10
15.710453
20
0.332788
11
14.976800
21
0.332786
0
LINE
8
Layer 1
10
26.390000
20
0.332786
11
26.376993
21
0.457663
0
LINE
8
Layer 1
10
26.376993
20
0.457663
11
26.376993
21
1.992613
0
LINE
8
Layer 1
10
26.376993
20
1.992613
11
26.501869
21
2.122693
0
LINE
8
Layer 1
10
26.501869
20
2.122693
11
27.014385
21
2.122693
0
LINE
8
Layer 1
10
27.014385
20
2.122693
11
27.123652
21
2.013426
0
LINE
8
Layer 1
10
27.123652
20
2.013426
11
27.123652
21
0.332786
0
LINE
8
Layer 1
10
27.123652
20
0.332786
11
26.390000
21
0.332786
0
LINE
8
Layer 1
10
12.117600
20
0.332786
11
12.117600
21
2.010816
0
LINE
8
Layer 1
10
12.117600
20
2.010816
11
12.226867
21
2.120083
0
LINE
8
Layer 1
10
12.226867
20
2.120083
11
12.757594
21
2.120083
0
LINE
8
Layer 1
10
12.757594
20
2.120083
11
12.861658
21
2.010816
0
LINE
8
Layer 1
10
12.861658
20
2.010816
11
12.861658
21
1.558137
0
LINE
8
Layer 1
10
12.861658
20
1.558137
11
12.861658
21
0.468067
0
LINE
8
Layer 1
10
12.861658
20
0.468067
11
12.848651
21
0.332784
0
LINE
8
Layer 1
10
12.848651
20
0.332784
11
12.115000
21
0.332786
0
LINE
8
Layer 1
10
12.115000
20
0.332786
11
12.117600
21
0.332786
0
LINE
8
Layer 1
10
42.108900
20
0.332786
11
42.108900
21
2.003016
0
LINE
8
Layer 1
10
42.108900
20
2.003016
11
42.108900
21
2.070658
0
LINE
8
Layer 1
10
42.108900
20
2.070658
11
42.153128
21
2.120088
0
LINE
8
Layer 1
10
42.153128
20
2.120088
11
42.181745
21
2.120088
0
LINE
8
Layer 1
10
42.181745
20
2.120088
11
42.761901
21
2.120088
0
LINE
8
Layer 1
10
42.761901
20
2.120088
11
42.850356
21
2.031634
0
LINE
8
Layer 1
10
42.850356
20
2.031634
11
42.850356
21
0.400434
0
LINE
8
Layer 1
10
42.850356
20
0.400434
11
42.842551
21
0.332792
0
LINE
8
Layer 1
10
42.842551
20
0.332792
11
42.108900
21
0.332786
0
LINE
8
Layer 1
10
34.925900
20
0.332786
11
34.925900
21
1.914556
0
LINE
8
Layer 1
10
34.925900
20
1.914556
11
34.925900
21
1.971791
0
LINE
8
Layer 1
10
34.925900
20
1.971791
11
34.967527
21
2.013417
0
LINE
8
Layer 1
10
34.967527
20
2.013417
11
35.035167
21
2.013417
0
LINE
8
Layer 1
10
35.035167
20
2.013417
11
35.565894
21
2.013417
0
LINE
8
Layer 1
10
35.565894
20
2.013417
11
35.680366
21
1.904150
0
LINE
8
Layer 1
10
35.680366
20
1.904150
11
35.680366
21
0.332780
0
LINE
8
Layer 1
10
35.680366
20
0.332780
11
34.928500
21
0.332786
0
LINE
8
Layer 1
10
34.928500
20
0.332786
11
34.925900
21
0.332786
0
LINE
8
Layer 1
10
36.354100
20
0.332786
11
36.354100
21
1.872936
0
LINE
8
Layer 1
10
36.354100
20
1.872936
11
36.354100
21
1.950984
0
LINE
8
Layer 1
10
36.354100
20
1.950984
11
36.416539
21
2.016024
0
LINE
8
Layer 1
10
36.416539
20
2.016024
11
37.033118
21
2.016024
0
LINE
8
Layer 1
10
37.033118
20
2.016024
11
37.098160
21
1.950984
0
LINE
8
Layer 1
10
37.098160
20
1.950984
11
37.098160
21
1.883342
0
LINE
8
Layer 1
10
37.098160
20
1.883342
11
37.098160
21
0.468072
0
LINE
8
Layer 1
10
37.098160
20
0.468072
11
37.085143
21
0.335390
0
LINE
8
Layer 1
10
37.085143
20
0.335390
11
37.046200
21
0.335388
0
LINE
8
Layer 1
10
37.046200
20
0.335388
11
36.986362
21
0.353599
0
LINE
8
Layer 1
10
36.986362
20
0.353599
11
36.450433
21
0.353599
0
LINE
8
Layer 1
10
36.450433
20
0.353599
11
36.390595
21
0.335388
0
LINE
8
Layer 1
10
36.390595
20
0.335388
11
36.351500
21
0.335388
0
LINE
8
Layer 1
10
36.351500
20
0.335388
11
36.354100
21
0.332786
0
LINE
8
Layer 1
10
17.835900
20
0.350997
11
17.822893
21
0.426444
0
LINE
8
Layer 1
10
17.822893
20
0.426444
11
17.822893
21
0.975382
0
LINE
8
Layer 1
10
17.822893
20
0.975382
11
17.919152
21
1.074242
0
LINE
8
Layer 1
10
17.919152
20
1.074242
11
19.441092
21
1.074242
0
LINE
8
Layer 1
10
19.441092
20
1.074242
11
19.534750
21
0.977983
0
LINE
8
Layer 1
10
19.534750
20
0.977983
11
19.534750
21
0.335387
0
LINE
8
Layer 1
10
19.534750
20
0.335387
11
19.495700
21
0.335388
0
LINE
8
Layer 1
10
19.495700
20
0.335388
11
19.396839
21
0.353599
0
LINE
8
Layer 1
10
19.396839
20
0.353599
11
17.838479
21
0.353599
0
LINE
8
Layer 1
10
17.838479
20
0.353599
11
17.835900
21
0.350997
0
LINE
8
Layer 1
10
17.835900
20
0.350997
11
19.394260
21
0.350997
0
LINE
8
Layer 1
10
19.394260
20
0.350997
11
19.493121
21
0.332786
0
LINE
8
Layer 1
10
19.493121
20
0.332786
11
17.833300
21
0.332786
0
LINE
8
Layer 1
10
17.833300
20
0.332786
11
17.833300
21
0.350997
0
LINE
8
Layer 1
10
17.833300
20
0.350997
11
17.835900
21
0.350997
0
LINE
8
Layer 1
10
48.966700
20
1.995210
11
48.984903
21
1.995210
0
LINE
8
Layer 1
10
48.984903
20
1.995210
11
48.984903
21
0.382220
0
LINE
8
Layer 1
10
48.984903
20
0.382220
11
48.966700
21
0.332790
0
LINE
8
Layer 1
10
48.966700
20
0.332790
11
48.964054
21
0.353602
0
LINE
8
Layer 1
10
48.964054
20
0.353602
11
48.966700
21
0.468073
0
LINE
8
Layer 1
10
48.966700
20
0.468073
11
48.966700
21
1.992613
0
LINE
8
Layer 1
10
48.966700
20
1.992613
11
48.966700
21
1.995210
0
LINE
8
Layer 1
10
48.984900
20
2.205940
11
48.977095
21
2.200736
0
LINE
8
Layer 1
10
48.977095
20
2.200736
11
48.966700
21
2.200740
0
LINE
8
Layer 1
10
48.966700
20
2.200740
11
48.966700
21
2.978619
0
LINE
8
Layer 1
10
48.966700
20
2.978619
11
48.974500
21
2.978610
0
LINE
8
Layer 1
10
48.974500
20
2.978610
11
48.984898
21
2.978610
0
LINE
8
Layer 1
10
48.984898
20
2.978610
11
48.984900
21
2.205940
0
LINE
8
Layer 1
10
48.961500
20
0.353599
11
48.964146
21
0.332787
0
LINE
8
Layer 1
10
48.964146
20
0.332787
11
48.248700
21
0.332787
0
LINE
8
Layer 1
10
48.248700
20
0.332787
11
48.248700
21
0.350998
0
LINE
8
Layer 1
10
48.248700
20
0.350998
11
48.958939
21
0.350998
0
LINE
8
Layer 1
10
48.958939
20
0.350998
11
48.961500
21
0.353599
0
LINE
8
Layer 1
10
36.393200
20
0.332786
11
36.453035
21
0.350997
0
LINE
8
Layer 1
10
36.453035
20
0.350997
11
36.988966
21
0.350997
0
LINE
8
Layer 1
10
36.988966
20
0.350997
11
37.048802
21
0.332786
0
LINE
8
Layer 1
10
37.048802
20
0.332786
11
36.393200
21
0.332786
0
LINE
8
Layer 1
10
48.984900
20
2.978620
11
48.974500
21
2.978620
0
LINE
8
Layer 1
10
48.974500
20
2.978620
11
48.966695
21
2.978620
0
LINE
8
Layer 1
10
48.966695
20
2.978620
11
48.966695
21
3.074879
0
LINE
8
Layer 1
10
48.966695
20
3.074879
11
48.984898
21
3.074879
0
LINE
8
Layer 1
10
48.984898
20
3.074879
11
48.984900
21
2.978620
0
LINE
8
Layer 1
10
42.480900
20
3.553570
11
42.543339
21
3.623813
0
LINE
8
Layer 1
10
42.543339
20
3.623813
11
42.805126
21
3.847551
0
LINE
8
Layer 1
10
42.805126
20
3.847551
11
43.139106
21
3.922997
0
LINE
8
Layer 1
10
43.139106
20
3.922997
11
43.698450
21
3.922997
0
LINE
8
Layer 1
10
43.698450
20
3.922997
11
44.367063
21
3.665764
0
LINE
8
Layer 1
10
44.367063
20
3.665764
11
44.700070
21
3.012436
0
LINE
8
Layer 1
10
44.700070
20
3.012436
11
44.710468
21
2.346426
0
LINE
8
Layer 1
10
44.710468
20
2.346426
11
44.642827
21
2.278785
0
LINE
8
Layer 1
10
44.642827
20
2.278785
11
44.034051
21
2.278785
0
LINE
8
Layer 1
10
44.034051
20
2.278785
11
43.963807
21
2.351629
0
LINE
8
Layer 1
10
43.963807
20
2.351629
11
43.963807
21
2.843332
0
LINE
8
Layer 1
10
43.963807
20
2.843332
11
43.937799
21
3.004631
0
LINE
8
Layer 1
10
43.937799
20
3.004631
11
43.711459
21
3.171134
0
LINE
8
Layer 1
10
43.711459
20
3.171134
11
43.102683
21
3.171134
0
LINE
8
Layer 1
10
43.102683
20
3.171134
11
42.855531
21
2.913575
0
LINE
8
Layer 1
10
42.855531
20
2.913575
11
42.850319
21
2.468701
0
LINE
8
Layer 1
10
42.850319
20
2.468701
11
42.850319
21
2.333418
0
LINE
8
Layer 1
10
42.850319
20
2.333418
11
42.793084
21
2.276183
0
LINE
8
Layer 1
10
42.793084
20
2.276183
11
42.369021
21
2.276183
0
LINE
8
Layer 1
10
42.369021
20
2.276183
11
42.186909
21
2.276183
0
LINE
8
Layer 1
10
42.186909
20
2.276183
11
42.108862
21
2.351629
0
LINE
8
Layer 1
10
42.108862
20
2.351629
11
42.108862
21
2.853738
0
LINE
8
Layer 1
10
42.108862
20
2.853738
11
42.095845
21
2.968209
0
LINE
8
Layer 1
10
42.095845
20
2.968209
11
41.853897
21
3.171134
0
LINE
8
Layer 1
10
41.853897
20
3.171134
11
41.255529
21
3.171134
0
LINE
8
Layer 1
10
41.255529
20
3.171134
11
41.072440
21
3.091135
0
LINE
8
Layer 1
10
41.072440
20
3.091135
11
41.000572
21
2.897966
0
LINE
8
Layer 1
10
41.000572
20
2.897966
11
41.000572
21
2.416669
0
LINE
8
Layer 1
10
41.000572
20
2.416669
11
40.983011
21
2.282037
0
LINE
8
Layer 1
10
40.983011
20
2.282037
11
40.860084
21
2.276183
0
LINE
8
Layer 1
10
40.860084
20
2.276183
11
40.339766
21
2.276183
0
LINE
8
Layer 1
10
40.339766
20
2.276183
11
40.256512
21
2.354231
0
LINE
8
Layer 1
10
40.256512
20
2.354231
11
40.256512
21
2.981217
0
LINE
8
Layer 1
10
40.256512
20
2.981217
11
40.378135
21
3.402677
0
LINE
8
Layer 1
10
40.378135
20
3.402677
11
40.675371
21
3.730479
0
LINE
8
Layer 1
10
40.675371
20
3.730479
11
41.260732
21
3.920396
0
LINE
8
Layer 1
10
41.260732
20
3.920396
11
41.809670
21
3.920396
0
LINE
8
Layer 1
10
41.809670
20
3.920396
11
42.158936
21
3.840722
0
LINE
8
Layer 1
10
42.158936
20
3.840722
11
42.426249
21
3.603000
0
LINE
8
Layer 1
10
42.426249
20
3.603000
11
42.478282
21
3.548367
0
LINE
8
Layer 1
10
42.478282
20
3.548367
11
42.480900
21
3.553570
0
LINE
8
Layer 1
10
27.797500
20
3.610810
11
27.797500
21
4.797140
0
LINE
8
Layer 1
10
27.797500
20
4.797140
11
27.797500
21
4.864782
0
LINE
8
Layer 1
10
27.797500
20
4.864782
11
27.859936
21
4.929822
0
LINE
8
Layer 1
10
27.859936
20
4.929822
11
28.486924
21
4.929822
0
LINE
8
Layer 1
10
28.486924
20
4.929822
11
28.544159
21
4.859579
0
LINE
8
Layer 1
10
28.544159
20
4.859579
11
28.544159
21
4.453729
0
LINE
8
Layer 1
10
28.544159
20
4.453729
11
28.549371
21
4.318446
0
LINE
8
Layer 1
10
28.549371
20
4.318446
11
28.632623
21
4.138285
0
LINE
8
Layer 1
10
28.632623
20
4.138285
11
28.817335
21
4.071294
0
LINE
8
Layer 1
10
28.817335
20
4.071294
11
29.376679
21
4.071294
0
LINE
8
Layer 1
10
29.376679
20
4.071294
11
29.514564
21
3.938612
0
LINE
8
Layer 1
10
29.514564
20
3.938612
11
29.514564
21
3.407885
0
LINE
8
Layer 1
10
29.514564
20
3.407885
11
29.433914
21
3.324633
0
LINE
8
Layer 1
10
29.433914
20
3.324633
11
28.864164
21
3.324633
0
LINE
8
Layer 1
10
28.864164
20
3.324633
11
28.731484
21
3.306422
0
LINE
8
Layer 1
10
28.731484
20
3.306422
11
28.549372
21
3.090489
0
LINE
8
Layer 1
10
28.549372
20
3.090489
11
28.541567
21
2.858947
0
LINE
8
Layer 1
10
28.541567
20
2.858947
11
28.541567
21
2.377650
0
LINE
8
Layer 1
10
28.541567
20
2.377650
11
28.442705
21
2.281391
0
LINE
8
Layer 1
10
28.442705
20
2.281391
11
27.893767
21
2.281391
0
LINE
8
Layer 1
10
27.893767
20
2.281391
11
27.794906
21
2.385455
0
LINE
8
Layer 1
10
27.794906
20
2.385455
11
27.794906
21
3.610815
0
LINE
8
Layer 1
10
27.794906
20
3.610815
11
27.797500
21
3.610810
0
LINE
8
Layer 1
10
22.102600
20
3.608200
11
22.102600
21
4.794530
0
LINE
8
Layer 1
10
22.102600
20
4.794530
11
22.102600
21
4.843960
0
LINE
8
Layer 1
10
22.102600
20
4.843960
11
22.188453
21
4.929813
0
LINE
8
Layer 1
10
22.188453
20
4.929813
11
22.758204
21
4.929813
0
LINE
8
Layer 1
10
22.758204
20
4.929813
11
22.846658
21
4.843960
0
LINE
8
Layer 1
10
22.846658
20
4.843960
11
22.846658
21
4.370468
0
LINE
8
Layer 1
10
22.846658
20
4.370468
11
22.872674
21
4.219575
0
LINE
8
Layer 1
10
22.872674
20
4.219575
11
23.125029
21
4.071284
0
LINE
8
Layer 1
10
23.125029
20
4.071284
11
23.673967
21
4.071284
0
LINE
8
Layer 1
10
23.673967
20
4.071284
11
23.796568
21
4.057301
0
LINE
8
Layer 1
10
23.796568
20
4.057301
11
23.811852
21
3.936001
0
LINE
8
Layer 1
10
23.811852
20
3.936001
11
23.811852
21
3.444298
0
LINE
8
Layer 1
10
23.811852
20
3.444298
11
23.697381
21
3.327226
0
LINE
8
Layer 1
10
23.697381
20
3.327226
11
23.148443
21
3.327226
0
LINE
8
Layer 1
10
23.148443
20
3.327226
11
22.958526
21
3.272593
0
LINE
8
Layer 1
10
22.958526
20
3.272593
11
22.849259
21
3.038449
0
LINE
8
Layer 1
10
22.849259
20
3.038449
11
22.849259
21
2.411463
0
LINE
8
Layer 1
10
22.849259
20
2.411463
11
22.724382
21
2.283985
0
LINE
8
Layer 1
10
22.724382
20
2.283985
11
22.193655
21
2.283985
0
LINE
8
Layer 1
10
22.193655
20
2.283985
11
22.102599
21
2.375041
0
LINE
8
Layer 1
10
22.102599
20
2.375041
11
22.102599
21
3.610801
0
LINE
8
Layer 1
10
22.102599
20
3.610801
11
22.102600
21
3.608200
0
LINE
8
Layer 1
10
19.534800
20
3.701860
11
19.534800
21
3.402676
0
LINE
8
Layer 1
10
19.534800
20
3.402676
11
19.456752
21
3.324628
0
LINE
8
Layer 1
10
19.456752
20
3.324628
11
18.975455
21
3.324628
0
LINE
8
Layer 1
10
18.975455
20
3.324628
11
18.660661
21
3.186743
0
LINE
8
Layer 1
10
18.660661
20
3.186743
11
18.608629
21
2.791299
0
LINE
8
Layer 1
10
18.608629
20
2.791299
11
18.936431
21
2.575366
0
LINE
8
Layer 1
10
18.936431
20
2.575366
11
19.446345
21
2.575366
0
LINE
8
Layer 1
10
19.446345
20
2.575366
11
19.534799
21
2.492115
0
LINE
8
Layer 1
10
19.534799
20
2.492115
11
19.534799
21
1.904153
0
LINE
8
Layer 1
10
19.534799
20
1.904153
11
19.472361
21
1.831308
0
LINE
8
Layer 1
10
19.472361
20
1.831308
11
18.798546
21
1.841714
0
LINE
8
Layer 1
10
18.798546
20
1.841714
11
18.257413
21
2.057647
0
LINE
8
Layer 1
10
18.257413
20
2.057647
11
17.911399
21
2.523334
0
LINE
8
Layer 1
10
17.911399
20
2.523334
11
17.826521
21
3.093410
0
LINE
8
Layer 1
10
17.826521
20
3.093410
11
18.051885
21
3.626414
0
LINE
8
Layer 1
10
18.051885
20
3.626414
11
18.427492
21
3.951289
0
LINE
8
Layer 1
10
18.427492
20
3.951289
11
18.910414
21
4.071288
0
LINE
8
Layer 1
10
18.910414
20
4.071288
11
19.451547
21
4.071288
0
LINE
8
Layer 1
10
19.451547
20
4.071288
11
19.537400
21
3.982833
0
LINE
8
Layer 1
10
19.537400
20
3.982833
11
19.537400
21
3.701860
0
LINE
8
Layer 1
10
19.537400
20
3.701860
11
19.534800
21
3.701860
0
LINE
8
Layer 1
10
37.688800
20
3.925600
11
38.073837
21
3.925600
0
LINE
8
Layer 1
10
38.073837
20
3.925600
11
38.151886
21
3.847552
0
LINE
8
Layer 1
10
38.151886
20
3.847552
11
38.151886
21
3.269996
0
LINE
8
Layer 1
10
38.151886
20
3.269996
11
38.063431
21
3.181541
0
LINE
8
Layer 1
10
38.063431
20
3.181541
11
37.387014
21
3.181541
0
LINE
8
Layer 1
10
37.387014
20
3.181541
11
37.116446
21
3.004632
0
LINE
8
Layer 1
10
37.116446
20
3.004632
11
37.098243
21
2.861544
0
LINE
8
Layer 1
10
37.098243
20
2.861544
11
37.098243
21
2.330817
0
LINE
8
Layer 1
10
37.098243
20
2.330817
11
37.098243
21
2.263175
0
LINE
8
Layer 1
10
37.098243
20
2.263175
11
37.025398
21
2.190330
0
LINE
8
Layer 1
10
37.025398
20
2.190330
11
36.427028
21
2.190330
0
LINE
8
Layer 1
10
36.427028
20
2.190330
11
36.356786
21
2.263175
0
LINE
8
Layer 1
10
36.356786
20
2.263175
11
36.356786
21
2.968209
0
LINE
8
Layer 1
10
36.356786
20
2.968209
11
36.446741
21
3.342109
0
LINE
8
Layer 1
10
36.446741
20
3.342109
11
36.666699
21
3.647228
0
LINE
8
Layer 1
10
36.666699
20
3.647228
11
37.361006
21
3.928201
0
LINE
8
Layer 1
10
37.361006
20
3.928201
11
37.688808
21
3.928201
0
LINE
8
Layer 1
10
37.688808
20
3.928201
11
37.688800
21
3.928200
0
LINE
8
Layer 1
10
37.688800
20
3.928200
11
37.688800
21
3.925600
0
LINE
8
Layer 1
10
31.403300
20
2.747070
11
31.403300
21
2.364635
0
LINE
8
Layer 1
10
31.403300
20
2.364635
11
31.330458
21
2.283985
0
LINE
8
Layer 1
10
31.330458
20
2.283985
11
30.732088
21
2.283985
0
LINE
8
Layer 1
10
30.732088
20
2.283985
11
30.659243
21
2.364635
0
LINE
8
Layer 1
10
30.659243
20
2.364635
11
30.659243
21
2.963003
0
LINE
8
Layer 1
10
30.659243
20
2.963003
11
30.659243
21
3.041051
0
LINE
8
Layer 1
10
30.659243
20
3.041051
11
30.568837
21
3.253407
0
LINE
8
Layer 1
10
30.568837
20
3.253407
11
30.349652
21
3.327227
0
LINE
8
Layer 1
10
30.349652
20
3.327227
11
29.769496
21
3.327227
0
LINE
8
Layer 1
10
29.769496
20
3.327227
11
29.683644
21
3.413080
0
LINE
8
Layer 1
10
29.683644
20
3.413080
11
29.683644
21
3.993237
0
LINE
8
Layer 1
10
29.683644
20
3.993237
11
29.759090
21
4.071285
0
LINE
8
Layer 1
10
29.759090
20
4.071285
11
30.521359
21
4.060879
0
LINE
8
Layer 1
10
30.521359
20
4.060879
11
31.108671
21
3.768524
0
LINE
8
Layer 1
10
31.108671
20
3.768524
11
31.395499
21
3.173732
0
LINE
8
Layer 1
10
31.395499
20
3.173732
11
31.405897
21
2.747069
0
LINE
8
Layer 1
10
31.405897
20
2.747069
11
31.403300
21
2.747070
0
LINE
8
Layer 1
10
15.720800
20
2.741870
11
15.720800
21
2.354231
0
LINE
8
Layer 1
10
15.720800
20
2.354231
11
15.647955
21
2.281386
0
LINE
8
Layer 1
10
15.647955
20
2.281386
11
15.049587
21
2.281386
0
LINE
8
Layer 1
10
15.049587
20
2.281386
11
14.974140
21
2.359434
0
LINE
8
Layer 1
10
14.974140
20
2.359434
11
14.974140
21
2.968209
0
LINE
8
Layer 1
10
14.974140
20
2.968209
11
14.966335
21
3.082680
0
LINE
8
Layer 1
10
14.966335
20
3.082680
11
14.869426
21
3.259914
0
LINE
8
Layer 1
10
14.869426
20
3.259914
11
14.674956
21
3.322027
0
LINE
8
Layer 1
10
14.674956
20
3.322027
11
14.115611
21
3.322027
0
LINE
8
Layer 1
10
14.115611
20
3.322027
11
13.998539
21
3.436498
0
LINE
8
Layer 1
10
13.998539
20
3.436498
11
13.998539
21
3.967225
0
LINE
8
Layer 1
10
13.998539
20
3.967225
11
14.092197
21
4.068688
0
LINE
8
Layer 1
10
14.092197
20
4.068688
11
14.833654
21
4.058282
0
LINE
8
Layer 1
10
14.833654
20
4.058282
11
15.421941
21
3.765277
0
LINE
8
Layer 1
10
15.421941
20
3.765277
11
15.707793
21
3.173737
0
LINE
8
Layer 1
10
15.707793
20
3.173737
11
15.718199
21
2.741871
0
LINE
8
Layer 1
10
15.718199
20
2.741871
11
15.720800
21
2.741870
0
LINE
8
Layer 1
10
25.695400
20
2.744470
11
25.695400
21
2.349026
0
LINE
8
Layer 1
10
25.695400
20
2.349026
11
25.627758
21
2.281384
0
LINE
8
Layer 1
10
25.627758
20
2.281384
11
25.018983
21
2.281384
0
LINE
8
Layer 1
10
25.018983
20
2.281384
11
24.948740
21
2.354229
0
LINE
8
Layer 1
10
24.948740
20
2.354229
11
24.948740
21
2.528537
0
LINE
8
Layer 1
10
24.948740
20
2.528537
11
24.948740
21
3.009833
0
LINE
8
Layer 1
10
24.948740
20
3.009833
11
24.872968
21
3.235522
0
LINE
8
Layer 1
10
24.872968
20
3.235522
11
24.631345
21
3.324627
0
LINE
8
Layer 1
10
24.631345
20
3.324627
11
24.072000
21
3.324627
0
LINE
8
Layer 1
10
24.072000
20
3.324627
11
23.983545
21
3.410480
0
LINE
8
Layer 1
10
23.983545
20
3.410480
11
23.983545
21
3.990637
0
LINE
8
Layer 1
10
23.983545
20
3.990637
11
24.058992
21
4.071287
0
LINE
8
Layer 1
10
24.058992
20
4.071287
11
24.810855
21
4.060881
0
LINE
8
Layer 1
10
24.810855
20
4.060881
11
25.434589
21
3.736006
0
LINE
8
Layer 1
10
25.434589
20
3.736006
11
25.695400
21
3.085280
0
LINE
8
Layer 1
10
25.695400
20
3.085280
11
25.695400
21
2.747071
0
LINE
8
Layer 1
10
25.695400
20
2.747071
11
25.695400
21
2.747070
0
LINE
8
Layer 1
10
25.695400
20
2.747070
11
25.695400
21
2.744470
0
LINE
8
Layer 1
10
12.117600
20
2.749670
11
12.128006
21
3.184138
0
LINE
8
Layer 1
10
12.128006
20
3.184138
11
12.451255
21
3.804620
0
LINE
8
Layer 1
10
12.451255
20
3.804620
11
13.098404
21
4.066081
0
LINE
8
Layer 1
10
13.098404
20
4.066081
11
13.746203
21
4.066081
0
LINE
8
Layer 1
10
13.746203
20
4.066081
11
13.837259
21
3.975025
0
LINE
8
Layer 1
10
13.837259
20
3.975025
11
13.837259
21
3.426087
0
LINE
8
Layer 1
10
13.837259
20
3.426087
11
13.735796
21
3.322023
0
LINE
8
Layer 1
10
13.735796
20
3.322023
11
13.166045
21
3.322023
0
LINE
8
Layer 1
10
13.166045
20
3.322023
11
12.939706
21
3.233569
0
LINE
8
Layer 1
10
12.939706
20
3.233569
11
12.869463
21
3.080074
0
LINE
8
Layer 1
10
12.869463
20
3.080074
11
12.864259
21
2.819914
0
LINE
8
Layer 1
10
12.864259
20
2.819914
11
12.864259
21
2.367235
0
LINE
8
Layer 1
10
12.864259
20
2.367235
11
12.775804
21
2.281382
0
LINE
8
Layer 1
10
12.775804
20
2.281382
11
12.206053
21
2.281382
0
LINE
8
Layer 1
10
12.206053
20
2.281382
11
12.117598
21
2.375040
0
LINE
8
Layer 1
10
12.117598
20
2.375040
11
12.117598
21
2.749671
0
LINE
8
Layer 1
10
12.117598
20
2.749671
11
12.117600
21
2.749670
0
LINE
8
Layer 1
10
32.074500
20
2.630000
11
32.084898
21
3.030647
0
LINE
8
Layer 1
10
32.084898
20
3.030647
11
32.408147
21
3.660560
0
LINE
8
Layer 1
10
32.408147
20
3.660560
11
33.063101
21
3.925598
0
LINE
8
Layer 1
10
33.063101
20
3.925598
11
33.739518
21
3.925598
0
LINE
8
Layer 1
10
33.739518
20
3.925598
11
33.825370
21
3.839745
0
LINE
8
Layer 1
10
33.825370
20
3.839745
11
33.825370
21
3.269994
0
LINE
8
Layer 1
10
33.825370
20
3.269994
11
33.731713
21
3.178938
0
LINE
8
Layer 1
10
33.731713
20
3.178938
11
33.219197
21
3.178938
0
LINE
8
Layer 1
10
33.219197
20
3.178938
11
33.122936
21
3.178938
0
LINE
8
Layer 1
10
33.122936
20
3.178938
11
32.901801
21
3.100568
0
LINE
8
Layer 1
10
32.901801
20
3.100568
11
32.821150
21
2.879754
0
LINE
8
Layer 1
10
32.821150
20
2.879754
11
32.821150
21
2.359434
0
LINE
8
Layer 1
10
32.821150
20
2.359434
11
32.821150
21
2.291792
0
LINE
8
Layer 1
10
32.821150
20
2.291792
11
32.714486
21
2.185126
0
LINE
8
Layer 1
10
32.714486
20
2.185126
11
32.173353
21
2.185126
0
LINE
8
Layer 1
10
32.173353
20
2.185126
11
32.074492
21
2.286588
0
LINE
8
Layer 1
10
32.074492
20
2.286588
11
32.074492
21
2.627398
0
LINE
8
Layer 1
10
32.074492
20
2.627398
11
32.074500
21
2.630000
0
LINE
8
Layer 1
10
46.695500
20
3.925600
11
47.051920
21
3.925600
0
LINE
8
Layer 1
10
47.051920
20
3.925600
11
47.129967
21
3.850153
0
LINE
8
Layer 1
10
47.129967
20
3.850153
11
47.129967
21
3.251785
0
LINE
8
Layer 1
10
47.129967
20
3.251785
11
47.057122
21
3.181542
0
LINE
8
Layer 1
10
47.057122
20
3.181542
11
46.594038
21
3.181542
0
LINE
8
Layer 1
10
46.594038
20
3.181542
11
46.391113
21
3.181542
0
LINE
8
Layer 1
10
46.391113
20
3.181542
11
46.136156
21
2.960406
0
LINE
8
Layer 1
10
46.136156
20
2.960406
11
46.125758
21
2.835529
0
LINE
8
Layer 1
10
46.125758
20
2.835529
11
46.125758
21
2.265778
0
LINE
8
Layer 1
10
46.125758
20
2.265778
11
46.050309
21
2.187730
0
LINE
8
Layer 1
10
46.050309
20
2.187730
11
45.451941
21
2.187730
0
LINE
8
Layer 1
10
45.451941
20
2.187730
11
45.381697
21
2.260575
0
LINE
8
Layer 1
10
45.381697
20
2.260575
11
45.394714
21
3.051462
0
LINE
8
Layer 1
10
45.394714
20
3.051462
11
45.603167
21
3.551295
0
LINE
8
Layer 1
10
45.603167
20
3.551295
11
46.047716
21
3.865764
0
LINE
8
Layer 1
10
46.047716
20
3.865764
11
46.385925
21
3.928203
0
LINE
8
Layer 1
10
46.385925
20
3.928203
11
46.695515
21
3.928203
0
LINE
8
Layer 1
10
46.695515
20
3.928203
11
46.695500
21
3.928200
0
LINE
8
Layer 1
10
46.695500
20
3.928200
11
46.695500
21
3.925600
0
LINE
8
Layer 1
10
35.677700
20
2.627400
11
35.677700
21
2.252769
0
LINE
8
Layer 1
10
35.677700
20
2.252769
11
35.612660
21
2.182526
0
LINE
8
Layer 1
10
35.612660
20
2.182526
11
34.996081
21
2.182526
0
LINE
8
Layer 1
10
34.996081
20
2.182526
11
34.925837
21
2.265777
0
LINE
8
Layer 1
10
34.925837
20
2.265777
11
34.925837
21
2.882357
0
LINE
8
Layer 1
10
34.925837
20
2.882357
11
34.852342
21
3.096339
0
LINE
8
Layer 1
10
34.852342
20
3.096339
11
34.642262
21
3.173736
0
LINE
8
Layer 1
10
34.642262
20
3.173736
11
34.111535
21
3.173736
0
LINE
8
Layer 1
10
34.111535
20
3.173736
11
34.033488
21
3.173736
0
LINE
8
Layer 1
10
34.033488
20
3.173736
11
33.991862
21
3.215362
0
LINE
8
Layer 1
10
33.991862
20
3.215362
11
33.991862
21
3.225768
0
LINE
8
Layer 1
10
33.991862
20
3.225768
11
33.991862
21
3.863161
0
LINE
8
Layer 1
10
33.991862
20
3.863161
11
34.041294
21
3.917795
0
LINE
8
Layer 1
10
34.041294
20
3.917795
11
34.860798
21
3.899584
0
LINE
8
Layer 1
10
34.860798
20
3.899584
11
35.386648
21
3.618285
0
LINE
8
Layer 1
10
35.386648
20
3.618285
11
35.664694
21
3.085282
0
LINE
8
Layer 1
10
35.664694
20
3.085282
11
35.682897
21
2.619595
0
LINE
8
Layer 1
10
35.682897
20
2.619595
11
35.677700
21
2.627400
0
LINE
8
Layer 1
10
48.966700
20
3.074880
11
48.966700
21
2.978621
0
LINE
8
Layer 1
10
48.966700
20
2.978621
11
48.966700
21
2.200742
0
LINE
8
Layer 1
10
48.966700
20
2.200742
11
48.896456
21
2.185131
0
LINE
8
Layer 1
10
48.896456
20
2.185131
11
48.337112
21
2.185131
0
LINE
8
Layer 1
10
48.337112
20
2.185131
11
48.238251
21
2.289195
0
LINE
8
Layer 1
10
48.238251
20
2.289195
11
48.238251
21
2.809516
0
LINE
8
Layer 1
10
48.238251
20
2.809516
11
48.230445
21
2.934393
0
LINE
8
Layer 1
10
48.230445
20
2.934393
11
47.972887
21
3.176342
0
LINE
8
Layer 1
10
47.972887
20
3.176342
11
47.751751
21
3.176342
0
LINE
8
Layer 1
10
47.751751
20
3.176342
11
47.366714
21
3.176342
0
LINE
8
Layer 1
10
47.366714
20
3.176342
11
47.293869
21
3.249187
0
LINE
8
Layer 1
10
47.293869
20
3.249187
11
47.293869
21
3.847555
0
LINE
8
Layer 1
10
47.293869
20
3.847555
11
47.371919
21
3.923002
0
LINE
8
Layer 1
10
47.371919
20
3.923002
11
48.037927
21
3.923002
0
LINE
8
Layer 1
10
48.037927
20
3.923002
11
48.667190
21
3.648207
0
LINE
8
Layer 1
10
48.667190
20
3.648207
11
48.966701
21
3.074879
0
LINE
8
Layer 1
10
48.966701
20
3.074879
11
48.966700
21
3.074880
0
LINE
8
Layer 1
10
27.123600
20
3.176340
11
27.123600
21
2.375046
0
LINE
8
Layer 1
10
27.123600
20
2.375046
11
27.035145
21
2.281388
0
LINE
8
Layer 1
10
27.035145
20
2.281388
11
26.475801
21
2.281388
0
LINE
8
Layer 1
10
26.475801
20
2.281388
11
26.376940
21
2.380249
0
LINE
8
Layer 1
10
26.376940
20
2.380249
11
26.376940
21
3.345444
0
LINE
8
Layer 1
10
26.376940
20
3.345444
11
26.376940
21
3.972430
0
LINE
8
Layer 1
10
26.376940
20
3.972430
11
26.473200
21
4.071291
0
LINE
8
Layer 1
10
26.473200
20
4.071291
11
27.022138
21
4.071291
0
LINE
8
Layer 1
10
27.022138
20
4.071291
11
27.120999
21
3.967227
0
LINE
8
Layer 1
10
27.120999
20
3.967227
11
27.120999
21
3.176340
0
LINE
8
Layer 1
10
27.120999
20
3.176340
11
27.123600
21
3.176340
0
LINE
8
Layer 1
10
38.825700
20
3.186740
11
38.825700
21
3.988034
0
LINE
8
Layer 1
10
38.825700
20
3.988034
11
38.906350
21
4.071285
0
LINE
8
Layer 1
10
38.906350
20
4.071285
11
39.494312
21
4.071285
0
LINE
8
Layer 1
10
39.494312
20
4.071285
11
39.569758
21
3.990636
0
LINE
8
Layer 1
10
39.569758
20
3.990636
11
39.569758
21
3.498933
0
LINE
8
Layer 1
10
39.569758
20
3.498933
11
39.569758
21
2.398453
0
LINE
8
Layer 1
10
39.569758
20
2.398453
11
39.455289
21
2.281381
0
LINE
8
Layer 1
10
39.455289
20
2.281381
11
38.945374
21
2.281381
0
LINE
8
Layer 1
10
38.945374
20
2.281381
11
38.825700
21
2.403656
0
LINE
8
Layer 1
10
38.825700
20
2.403656
11
38.825700
21
3.184137
0
LINE
8
Layer 1
10
38.825700
20
3.184137
11
38.825700
21
3.186740
0
LINE
8
Layer 1
10
17.138700
20
3.176340
11
17.138700
21
2.385453
0
LINE
8
Layer 1
10
17.138700
20
2.385453
11
17.039839
21
2.281389
0
LINE
8
Layer 1
10
17.039839
20
2.281389
11
16.498706
21
2.281389
0
LINE
8
Layer 1
10
16.498706
20
2.281389
11
16.392040
21
2.388055
0
LINE
8
Layer 1
10
16.392040
20
2.388055
11
16.392040
21
3.816335
0
LINE
8
Layer 1
10
16.392040
20
3.816335
11
16.392040
21
3.990643
0
LINE
8
Layer 1
10
16.392040
20
3.990643
11
16.470088
21
4.068691
0
LINE
8
Layer 1
10
16.470088
20
4.068691
11
16.933173
21
4.068691
0
LINE
8
Layer 1
10
16.933173
20
4.068691
11
17.078863
21
4.068691
0
LINE
8
Layer 1
10
17.078863
20
4.068691
11
17.141302
21
4.003651
0
LINE
8
Layer 1
10
17.141302
20
4.003651
11
17.141302
21
3.665442
0
LINE
8
Layer 1
10
17.141302
20
3.665442
11
17.141302
21
3.173739
0
LINE
8
Layer 1
10
17.141302
20
3.173739
11
17.138700
21
3.176340
0
LINE
8
Layer 1
10
20.557200
20
3.324630
11
19.844361
21
3.324630
0
LINE
8
Layer 1
10
19.844361
20
3.324630
11
19.776719
21
3.324630
0
LINE
8
Layer 1
10
19.776719
20
3.324630
11
19.706476
21
3.397475
0
LINE
8
Layer 1
10
19.706476
20
3.397475
11
19.706476
21
3.995843
0
LINE
8
Layer 1
10
19.706476
20
3.995843
11
19.776719
21
4.068688
0
LINE
8
Layer 1
10
19.776719
20
4.068688
11
19.815743
21
4.068688
0
LINE
8
Layer 1
10
19.815743
20
4.068688
11
21.311663
21
4.068688
0
LINE
8
Layer 1
10
21.311663
20
4.068688
11
21.368899
21
4.068688
0
LINE
8
Layer 1
10
21.368899
20
4.068688
11
21.415727
21
4.019258
0
LINE
8
Layer 1
10
21.415727
20
4.019258
11
21.415727
21
3.969827
0
LINE
8
Layer 1
10
21.415727
20
3.969827
11
21.415727
21
3.420889
0
LINE
8
Layer 1
10
21.415727
20
3.420889
11
21.316866
21
3.324630
0
LINE
8
Layer 1
10
21.316866
20
3.324630
11
20.554597
21
3.324630
0
LINE
8
Layer 1
10
20.554597
20
3.324630
11
20.557200
21
3.324630
0
LINE
8
Layer 1
10
48.961500
20
0.353599
11
48.251264
21
0.353599
0
LINE
8
Layer 1
10
48.251264
20
0.353599
11
48.246052
21
0.449858
0
LINE
8
Layer 1
10
48.246052
20
0.449858
11
48.246052
21
1.906758
0
LINE
8
Layer 1
10
48.246052
20
1.906758
11
48.246052
21
1.956189
0
LINE
8
Layer 1
10
48.246052
20
1.956189
11
48.308491
21
2.013424
0
LINE
8
Layer 1
10
48.308491
20
2.013424
11
48.818406
21
2.013424
0
LINE
8
Layer 1
10
48.818406
20
2.013424
11
48.966697
21
2.000417
0
LINE
8
Layer 1
10
48.966697
20
2.000417
11
48.966697
21
0.475877
0
LINE
8
Layer 1
10
48.966697
20
0.475877
11
48.964051
21
0.361406
0
LINE
8
Layer 1
10
48.964051
20
0.361406
11
48.961500
21
0.353599
0
LINE
8
Layer 1
10
38.825700
20
4.849170
11
38.825700
21
5.137948
0
LINE
8
Layer 1
10
38.825700
20
5.137948
11
38.895944
21
5.210793
0
LINE
8
Layer 1
10
38.895944
20
5.210793
11
39.502117
21
5.210793
0
LINE
8
Layer 1
10
39.502117
20
5.210793
11
39.567157
21
5.150956
0
LINE
8
Layer 1
10
39.567157
20
5.150956
11
39.567157
21
4.523970
0
LINE
8
Layer 1
10
39.567157
20
4.523970
11
39.499516
21
4.464133
0
LINE
8
Layer 1
10
39.499516
20
4.464133
11
38.893343
21
4.464133
0
LINE
8
Layer 1
10
38.893343
20
4.464133
11
38.823099
21
4.539579
0
LINE
8
Layer 1
10
38.823099
20
4.539579
11
38.823099
21
4.849170
0
LINE
8
Layer 1
10
38.823099
20
4.849170
11
38.825700
21
4.849170
0
LINE
8
Layer 1
10
26.756800
20
4.464130
11
26.457616
21
4.464130
0
LINE
8
Layer 1
10
26.457616
20
4.464130
11
26.379568
21
4.531772
0
LINE
8
Layer 1
10
26.379568
20
4.531772
11
26.379568
21
5.148352
0
LINE
8
Layer 1
10
26.379568
20
5.148352
11
26.444608
21
5.208189
0
LINE
8
Layer 1
10
26.444608
20
5.208189
11
27.061187
21
5.208189
0
LINE
8
Layer 1
10
27.061187
20
5.208189
11
27.123626
21
5.145750
0
LINE
8
Layer 1
10
27.123626
20
5.145750
11
27.123626
21
4.529170
0
LINE
8
Layer 1
10
27.123626
20
4.529170
11
27.055985
21
4.464130
0
LINE
8
Layer 1
10
27.055985
20
4.464130
11
26.756800
21
4.464130
0
LINE
8
Layer 1
10
26.756800
20
4.464130
11
26.756800
21
4.464130
0
LINE
8
Layer 1
10
17.138700
20
4.830960
11
17.138700
21
4.531776
0
LINE
8
Layer 1
10
17.138700
20
4.531776
11
17.073660
21
4.461533
0
LINE
8
Layer 1
10
17.073660
20
4.461533
11
16.464885
21
4.461533
0
LINE
8
Layer 1
10
16.464885
20
4.461533
11
16.392040
21
4.534378
0
LINE
8
Layer 1
10
16.392040
20
4.534378
11
16.392040
21
5.143153
0
LINE
8
Layer 1
10
16.392040
20
5.143153
11
16.454478
21
5.205591
0
LINE
8
Layer 1
10
16.454478
20
5.205591
11
17.071058
21
5.205591
0
LINE
8
Layer 1
10
17.071058
20
5.205591
11
17.138700
21
5.135348
0
LINE
8
Layer 1
10
17.138700
20
5.135348
11
17.138700
21
4.825757
0
LINE
8
Layer 1
10
17.138700
20
4.825757
11
17.138700
21
4.830960
0
LINE
8
Layer 1
10
5.970010
20
0.236527
11
5.678631
21
0.194901
0
LINE
8
Layer 1
10
5.678631
20
0.194901
11
5.540746
21
0.179291
0
LINE
8
Layer 1
10
5.540746
20
0.179291
11
5.387260
21
0.179291
0
LINE
8
Layer 1
10
5.387260
20
0.179291
11
5.387260
21
0.775058
0
LINE
8
Layer 1
10
5.387260
20
0.775058
11
5.460105
21
0.889529
0
LINE
8
Layer 1
10
5.460105
20
0.889529
11
5.402870
21
0.772457
0
LINE
8
Layer 1
10
5.402870
20
0.772457
11
5.402870
21
0.280754
0
LINE
8
Layer 1
10
5.402870
20
0.280754
11
5.488723
21
0.205308
0
LINE
8
Layer 1
10
5.488723
20
0.205308
11
5.970019
21
0.236527
0
LINE
8
Layer 1
10
5.970019
20
0.236527
11
5.970010
21
0.236527
0
LINE
8
Layer 1
10
0.035759
20
5.057300
11
0.020149
21
5.067706
0
LINE
8
Layer 1
10
0.020149
20
5.067706
11
0.025353
21
5.205591
0
LINE
8
Layer 1
10
0.025353
20
5.205591
11
-0.000663
21
5.257623
0
LINE
8
Layer 1
10
-0.000663
20
5.257623
11
-0.000663
21
5.606230
0
LINE
8
Layer 1
10
-0.000663
20
5.606230
11
0.025353
21
5.640051
0
LINE
8
Layer 1
10
0.025353
20
5.640051
11
0.020149
21
5.780538
0
LINE
8
Layer 1
10
0.020149
20
5.780538
11
0.035759
21
5.790944
0
LINE
8
Layer 1
10
0.035759
20
5.790944
11
0.035759
21
5.057292
0
LINE
8
Layer 1
10
0.035759
20
5.057292
11
0.035759
21
5.057300
0
LINE
8
Layer 1
10
5.124490
20
0.840098
11
5.137497
21
0.749042
0
LINE
8
Layer 1
10
5.137497
20
0.749042
11
5.137497
21
0.179291
0
LINE
8
Layer 1
10
5.137497
20
0.179291
11
4.984010
21
0.179292
0
LINE
8
Layer 1
10
4.984010
20
0.179292
11
4.978808
21
0.197503
0
LINE
8
Layer 1
10
4.978808
20
0.197503
11
5.119294
21
0.343193
0
LINE
8
Layer 1
10
5.119294
20
0.343193
11
5.119294
21
0.468070
0
LINE
8
Layer 1
10
5.119294
20
0.468070
11
5.127099
21
0.840099
0
LINE
8
Layer 1
10
5.127099
20
0.840099
11
5.124490
21
0.840098
0
LINE
8
Layer 1
10
5.098480
20
10.666400
11
5.098480
21
10.684611
0
LINE
8
Layer 1
10
5.098480
20
10.684611
11
5.408070
21
10.684600
0
LINE
8
Layer 1
10
5.408070
20
10.684600
11
5.415875
21
10.668990
0
LINE
8
Layer 1
10
5.415875
20
10.668990
11
5.101081
21
10.668990
0
LINE
8
Layer 1
10
5.101081
20
10.668990
11
5.098480
21
10.666400
0
LINE
8
Layer 1
10
-0.000663
20
5.257620
11
0.025353
21
5.205588
0
LINE
8
Layer 1
10
0.025353
20
5.205588
11
0.020149
21
5.067703
0
LINE
8
Layer 1
10
0.020149
20
5.067703
11
-0.000663
21
5.067703
0
LINE
8
Layer 1
10
-0.000663
20
5.067703
11
-0.000663
21
5.260222
0
LINE
8
Layer 1
10
-0.000663
20
5.260222
11
-0.000663
21
5.257620
0
LINE
8
Layer 1
10
0.020149
20
5.777940
11
0.025353
21
5.637453
0
LINE
8
Layer 1
10
0.025353
20
5.637453
11
-0.000663
21
5.603632
0
LINE
8
Layer 1
10
-0.000663
20
5.603632
11
-0.000663
21
5.777940
0
LINE
8
Layer 1
10
-0.000663
20
5.777940
11
0.020149
21
5.777940
0
LINE
8
Layer 1
10
0.020149
20
5.777940
11
0.020149
21
5.777940
0
LINE
8
Layer 1
10
4.976200
20
0.197503
11
4.981402
21
0.179292
0
LINE
8
Layer 1
10
4.981402
20
0.179292
11
4.827910
21
0.179292
0
LINE
8
Layer 1
10
4.827910
20
0.179292
11
4.822706
21
0.197503
0
LINE
8
Layer 1
10
4.822706
20
0.197503
11
4.976201
21
0.197503
0
LINE
8
Layer 1
10
4.976201
20
0.197503
11
4.976200
21
0.197503
0
LINE
8
Layer 1
10
5.540750
20
0.179292
11
5.678635
21
0.194902
0
LINE
8
Layer 1
10
5.678635
20
0.194902
11
5.678635
21
0.179292
0
LINE
8
Layer 1
10
5.678635
20
0.179292
11
5.543350
21
0.179292
0
LINE
8
Layer 1
10
5.543350
20
0.179292
11
5.540750
21
0.179292
0
LINE
8
Layer 1
10
5.098480
20
10.666400
11
5.413274
21
10.666400
0
LINE
8
Layer 1
10
5.413274
20
10.666400
11
5.873758
21
10.629978
0
LINE
8
Layer 1
10
5.873758
20
10.629978
11
7.434718
21
10.195510
0
LINE
8
Layer 1
10
7.434718
20
10.195510
11
8.326416
21
9.678766
0
LINE
8
Layer 1
10
8.326416
20
9.678766
11
9.097138
21
8.996170
0
LINE
8
Layer 1
10
9.097138
20
8.996170
11
9.698108
21
8.207884
0
LINE
8
Layer 1
10
9.698108
20
8.207884
11
9.685101
21
8.132437
0
LINE
8
Layer 1
10
9.685101
20
8.132437
11
9.685101
21
8.132437
0
LINE
8
Layer 1
10
9.685101
20
8.132437
11
9.666890
21
8.116828
0
LINE
8
Layer 1
10
9.666890
20
8.116828
11
9.250634
21
7.874879
0
LINE
8
Layer 1
10
9.250634
20
7.874879
11
9.063318
21
7.874879
0
LINE
8
Layer 1
10
9.063318
20
7.874879
11
6.935210
21
9.102790
0
LINE
8
Layer 1
10
6.935210
20
9.102790
11
5.366440
21
10.010700
0
LINE
8
Layer 1
10
5.366440
20
10.010700
11
5.153109
21
10.010700
0
LINE
8
Layer 1
10
5.153109
20
10.010700
11
4.226938
21
9.474770
0
LINE
8
Layer 1
10
4.226938
20
9.474770
11
4.141085
21
9.401600
0
LINE
8
Layer 1
10
4.141085
20
9.401600
11
4.226938
21
9.326479
0
LINE
8
Layer 1
10
4.226938
20
9.326479
11
4.562545
21
9.133960
0
LINE
8
Layer 1
10
4.562545
20
9.133960
11
4.718641
21
9.107944
0
LINE
8
Layer 1
10
4.718641
20
9.107944
11
5.551806
21
9.091684
0
LINE
8
Layer 1
10
5.551806
20
9.091684
11
6.334241
21
8.806158
0
LINE
8
Layer 1
10
6.334241
20
8.806158
11
6.823342
21
8.324861
0
LINE
8
Layer 1
10
6.823342
20
8.324861
11
6.936512
21
7.848117
0
LINE
8
Layer 1
10
6.936512
20
7.848117
11
6.760904
21
7.390886
0
LINE
8
Layer 1
10
6.760904
20
7.390886
11
6.076683
21
6.875769
0
LINE
8
Layer 1
10
6.076683
20
6.875769
11
5.322218
21
6.696258
0
LINE
8
Layer 1
10
5.322218
20
6.696258
11
4.636370
21
6.715770
0
LINE
8
Layer 1
10
4.636370
20
6.715770
11
3.979788
21
6.914793
0
LINE
8
Layer 1
10
3.979788
20
6.914793
11
3.601254
21
7.151214
0
LINE
8
Layer 1
10
3.601254
20
7.151214
11
3.316379
21
7.494950
0
LINE
8
Layer 1
10
3.316379
20
7.494950
11
3.212315
21
7.965840
0
LINE
8
Layer 1
10
3.212315
20
7.965840
11
3.129063
21
8.121936
0
LINE
8
Layer 1
10
3.129063
20
8.121936
11
2.603540
21
8.426370
0
LINE
8
Layer 1
10
2.603540
20
8.426370
11
2.416230
21
8.423770
0
LINE
8
Layer 1
10
2.416230
20
8.423770
11
1.482250
21
7.882640
0
LINE
8
Layer 1
10
1.482250
20
7.882640
11
1.261114
21
7.882640
0
LINE
8
Layer 1
10
1.261114
20
7.882640
11
0.847459
21
8.127190
0
LINE
8
Layer 1
10
0.847459
20
8.127190
11
0.834451
21
8.210440
0
LINE
8
Layer 1
10
0.834451
20
8.210440
11
1.370380
21
8.925880
0
LINE
8
Layer 1
10
1.370380
20
8.925880
11
2.736220
21
10.010700
0
LINE
8
Layer 1
10
2.736220
20
10.010700
11
3.533940
21
10.368438
0
LINE
8
Layer 1
10
3.533940
20
10.368438
11
4.380440
21
10.585700
0
LINE
8
Layer 1
10
4.380440
20
10.585700
11
5.106280
21
10.661100
0
LINE
8
Layer 1
10
5.106280
20
10.661100
11
5.098480
21
10.666400
0
LINE
8
Layer 1
10
4.976200
20
0.197503
11
4.822705
21
0.197503
0
LINE
8
Layer 1
10
4.822705
20
0.197503
11
3.732640
21
0.405631
0
LINE
8
Layer 1
10
3.732640
20
0.405631
11
2.715083
21
0.835546
0
LINE
8
Layer 1
10
2.715083
20
0.835546
11
1.812650
21
1.472290
0
LINE
8
Layer 1
10
1.812650
20
1.472290
11
1.185016
21
2.122361
0
LINE
8
Layer 1
10
1.185016
20
2.122361
11
0.678355
21
2.871950
0
LINE
8
Layer 1
10
0.678355
20
2.871950
11
0.106002
21
4.456330
0
LINE
8
Layer 1
10
0.106002
20
4.456330
11
0.038361
21
5.057300
0
LINE
8
Layer 1
10
0.038361
20
5.057300
11
0.038361
21
5.790952
0
LINE
8
Layer 1
10
0.038361
20
5.790952
11
0.085189
21
6.267045
0
LINE
8
Layer 1
10
0.085189
20
6.267045
11
0.483234
21
7.588655
0
LINE
8
Layer 1
10
0.483234
20
7.588655
11
0.626322
21
7.882636
0
LINE
8
Layer 1
10
0.626322
20
7.882636
11
0.706972
21
7.903448
0
LINE
8
Layer 1
10
0.706972
20
7.903448
11
1.183065
21
7.630280
0
LINE
8
Layer 1
10
1.183065
20
7.630280
11
1.235097
21
7.539224
0
LINE
8
Layer 1
10
1.235097
20
7.539224
11
1.235097
21
7.279064
0
LINE
8
Layer 1
10
1.235097
20
7.279064
11
1.235097
21
3.207554
0
LINE
8
Layer 1
10
1.235097
20
3.207554
11
1.326153
21
3.051458
0
LINE
8
Layer 1
10
1.326153
20
3.051458
11
2.335573
21
2.471301
0
LINE
8
Layer 1
10
2.335573
20
2.471301
11
2.385004
21
2.447888
0
LINE
8
Layer 1
10
2.385004
20
2.447888
11
2.400613
21
2.512928
0
LINE
8
Layer 1
10
2.400613
20
2.512928
11
2.400613
21
2.965607
0
LINE
8
Layer 1
10
2.400613
20
2.965607
11
2.353784
21
3.095687
0
LINE
8
Layer 1
10
2.353784
20
3.095687
11
1.906308
21
3.941208
0
LINE
8
Layer 1
10
1.906308
20
3.941208
11
1.893300
21
3.995842
0
LINE
8
Layer 1
10
1.893300
20
3.995842
11
1.875089
21
4.060882
0
LINE
8
Layer 1
10
1.875089
20
4.060882
11
1.875089
21
4.060882
0
LINE
8
Layer 1
10
1.875089
20
4.060882
11
1.854276
21
4.141532
0
LINE
8
Layer 1
10
1.854276
20
4.141532
11
1.854276
21
4.149337
0
LINE
8
Layer 1
10
1.854276
20
4.149337
11
1.836065
21
4.235190
0
LINE
8
Layer 1
10
1.836065
20
4.235190
11
1.836065
21
4.235190
0
LINE
8
Layer 1
10
1.836065
20
4.235190
11
1.815252
21
4.373075
0
LINE
8
Layer 1
10
1.815252
20
4.373075
11
1.815252
21
4.373075
0
LINE
8
Layer 1
10
1.815252
20
4.373075
11
1.815252
21
4.864778
0
LINE
8
Layer 1
10
1.815252
20
4.864778
11
2.009072
21
5.394529
0
LINE
8
Layer 1
10
2.009072
20
5.394529
11
2.452645
21
5.707697
0
LINE
8
Layer 1
10
2.452645
20
5.707697
11
2.905324
21
5.725908
0
LINE
8
Layer 1
10
2.905324
20
5.725908
11
3.532310
21
5.450138
0
LINE
8
Layer 1
10
3.532310
20
5.450138
11
4.237669
21
4.683641
0
LINE
8
Layer 1
10
4.237669
20
4.683641
11
4.593760
21
3.704458
0
LINE
8
Layer 1
10
4.593760
20
3.704458
11
4.533924
21
2.908368
0
LINE
8
Layer 1
10
4.533924
20
2.908368
11
4.342706
21
2.572111
0
LINE
8
Layer 1
10
4.342706
20
2.572111
11
4.026611
21
2.349023
0
LINE
8
Layer 1
10
4.026611
20
2.349023
11
3.995391
21
2.328211
0
LINE
8
Layer 1
10
3.995391
20
2.328211
11
3.979781
21
2.255366
0
LINE
8
Layer 1
10
3.979781
20
2.255366
11
3.979781
21
1.589356
0
LINE
8
Layer 1
10
3.979781
20
1.589356
11
3.997992
21
1.516511
0
LINE
8
Layer 1
10
3.997992
20
1.516511
11
4.559938
21
1.186107
0
LINE
8
Layer 1
10
4.559938
20
1.186107
11
5.080258
21
0.884321
0
LINE
8
Layer 1
10
5.080258
20
0.884321
11
5.106274
21
0.863509
0
LINE
8
Layer 1
10
5.106274
20
0.863509
11
5.106274
21
0.863509
0
LINE
8
Layer 1
10
5.106274
20
0.863509
11
5.127087
21
0.840093
0
LINE
8
Layer 1
10
5.127087
20
0.840093
11
5.127087
21
0.840093
0
LINE
8
Layer 1
10
5.127087
20
0.840093
11
5.119281
21
0.468064
0
LINE
8
Layer 1
10
5.119281
20
0.468064
11
5.119281
21
0.343187
0
LINE
8
Layer 1
10
5.119281
20
0.343187
11
4.978795
21
0.197497
0
LINE
8
Layer 1
10
4.978795
20
0.197497
11
4.976200
21
0.197503
0
LINE
8
Layer 1
10
5.970010
20
0.236527
11
5.488714
21
0.205308
0
LINE
8
Layer 1
10
5.488714
20
0.205308
11
5.402861
21
0.280754
0
LINE
8
Layer 1
10
5.402861
20
0.280754
11
5.402861
21
0.772457
0
LINE
8
Layer 1
10
5.402861
20
0.772457
11
5.460096
21
0.889529
0
LINE
8
Layer 1
10
5.460096
20
0.889529
11
6.568376
21
1.529523
0
LINE
8
Layer 1
10
6.568376
20
1.529523
11
7.942026
21
2.323012
0
LINE
8
Layer 1
10
7.942026
20
2.323012
11
8.948846
21
2.905771
0
LINE
8
Layer 1
10
8.948846
20
2.905771
11
9.232421
21
3.069672
0
LINE
8
Layer 1
10
9.232421
20
3.069672
11
9.292258
21
3.116501
0
LINE
8
Layer 1
10
9.292258
20
3.116501
11
9.307868
21
3.197151
0
LINE
8
Layer 1
10
9.307868
20
3.197151
11
9.307868
21
4.341861
0
LINE
8
Layer 1
10
9.307868
20
4.341861
11
9.292258
21
4.422510
0
LINE
8
Layer 1
10
9.292258
20
4.422510
11
9.237624
21
4.419917
0
LINE
8
Layer 1
10
9.237624
20
4.419917
11
8.816164
21
4.170163
0
LINE
8
Layer 1
10
8.816164
20
4.170163
11
8.743320
21
4.086912
0
LINE
8
Layer 1
10
8.743320
20
4.086912
11
8.264625
21
3.303830
0
LINE
8
Layer 1
10
8.264625
20
3.303830
11
7.556989
21
2.752290
0
LINE
8
Layer 1
10
7.556989
20
2.752290
11
7.270812
21
2.653429
0
LINE
8
Layer 1
10
7.270812
20
2.653429
11
6.888376
21
2.632617
0
LINE
8
Layer 1
10
6.888376
20
2.632617
11
6.888376
21
2.632617
0
LINE
8
Layer 1
10
6.888376
20
2.632617
11
6.771304
21
2.653429
0
LINE
8
Layer 1
10
6.771304
20
2.653429
11
6.438950
21
2.834566
0
LINE
8
Layer 1
10
6.438950
20
2.834566
11
6.219764
21
3.142530
0
LINE
8
Layer 1
10
6.219764
20
3.142530
11
6.198952
21
3.191961
0
LINE
8
Layer 1
10
6.198952
20
3.191961
11
6.198952
21
3.191961
0
LINE
8
Layer 1
10
6.198952
20
3.191961
11
6.178140
21
3.251798
0
LINE
8
Layer 1
10
6.178140
20
3.251798
11
6.178140
21
3.251798
0
LINE
8
Layer 1
10
6.178140
20
3.251798
11
6.157328
21
3.311635
0
LINE
8
Layer 1
10
6.157328
20
3.311635
11
6.157330
21
3.311630
0
LINE
8
Layer 1
10
6.157330
20
3.311630
11
6.136518
21
3.394881
0
LINE
8
Layer 1
10
6.136518
20
3.394881
11
6.136518
21
3.394881
0
LINE
8
Layer 1
10
6.136518
20
3.394881
11
6.115706
21
3.522359
0
LINE
8
Layer 1
10
6.115706
20
3.522359
11
6.115706
21
3.517158
0
LINE
8
Layer 1
10
6.115706
20
3.517158
11
6.115706
21
3.985446
0
LINE
8
Layer 1
10
6.115706
20
3.985446
11
6.115706
21
3.982853
0
LINE
8
Layer 1
10
6.115706
20
3.982853
11
6.136518
21
4.120738
0
LINE
8
Layer 1
10
6.136518
20
4.120738
11
6.136518
21
4.118145
0
LINE
8
Layer 1
10
6.136518
20
4.118145
11
6.157330
21
4.217006
0
LINE
8
Layer 1
10
6.157330
20
4.217006
11
6.157330
21
4.217006
0
LINE
8
Layer 1
10
6.157330
20
4.217006
11
6.178142
21
4.308062
0
LINE
8
Layer 1
10
6.178142
20
4.308062
11
6.378465
21
4.833586
0
LINE
8
Layer 1
10
6.378465
20
4.833586
11
6.945615
21
5.588051
0
LINE
8
Layer 1
10
6.945615
20
5.588051
11
6.971631
21
5.611464
0
LINE
8
Layer 1
10
6.971631
20
5.611464
11
6.971631
21
5.611464
0
LINE
8
Layer 1
10
6.971631
20
5.611464
11
6.992444
21
5.632276
0
LINE
8
Layer 1
10
6.992444
20
5.632276
11
6.992450
21
5.632280
0
LINE
8
Layer 1
10
6.992450
20
5.632280
11
7.023669
21
5.653092
0
LINE
8
Layer 1
10
7.023669
20
5.653092
11
7.562201
21
5.991300
0
LINE
8
Layer 1
10
7.562201
20
5.991300
11
7.668867
21
6.022519
0
LINE
8
Layer 1
10
7.668867
20
6.022519
11
7.705290
21
6.022519
0
LINE
8
Layer 1
10
7.705290
20
6.022519
11
8.269838
21
6.035526
0
LINE
8
Layer 1
10
8.269838
20
6.035526
11
8.269838
21
6.038119
0
LINE
8
Layer 1
10
8.269838
20
6.038119
11
8.275042
21
6.025112
0
LINE
8
Layer 1
10
8.275042
20
6.025112
11
8.329676
21
6.017307
0
LINE
8
Layer 1
10
8.329676
20
6.017307
11
8.371301
21
6.001697
0
LINE
8
Layer 1
10
8.371301
20
6.001697
11
8.368708
21
6.001697
0
LINE
8
Layer 1
10
8.368708
20
6.001697
11
8.410334
21
5.983485
0
LINE
8
Layer 1
10
8.410334
20
5.983485
11
8.407741
21
5.983485
0
LINE
8
Layer 1
10
8.407741
20
5.983485
11
8.449367
21
5.962673
0
LINE
8
Layer 1
10
8.449367
20
5.962673
11
8.446774
21
5.962673
0
LINE
8
Layer 1
10
8.446774
20
5.962673
11
8.493603
21
5.939258
0
LINE
8
Layer 1
10
8.493603
20
5.939258
11
8.548236
21
5.900234
0
LINE
8
Layer 1
10
8.548236
20
5.900234
11
8.615878
21
5.897641
0
LINE
8
Layer 1
10
8.615878
20
5.897641
11
9.279287
21
6.280076
0
LINE
8
Layer 1
10
9.279287
20
6.280076
11
9.297498
21
6.300888
0
LINE
8
Layer 1
10
9.297498
20
6.300888
11
9.313108
21
6.402351
0
LINE
8
Layer 1
10
9.313108
20
6.402351
11
9.313108
21
7.497621
0
LINE
8
Layer 1
10
9.313108
20
7.497621
11
9.339125
21
7.625100
0
LINE
8
Layer 1
10
9.339125
20
7.625100
11
9.690341
21
7.830626
0
LINE
8
Layer 1
10
9.690341
20
7.830626
11
9.739771
21
7.854042
0
LINE
8
Layer 1
10
9.739771
20
7.854042
11
9.734567
21
7.854042
0
LINE
8
Layer 1
10
9.734567
20
7.854042
11
9.797005
21
7.893065
0
LINE
8
Layer 1
10
9.797005
20
7.893065
11
9.797000
21
7.893070
0
LINE
8
Layer 1
10
9.797000
20
7.893070
11
9.895861
21
7.882664
0
LINE
8
Layer 1
10
9.895861
20
7.882664
11
9.895861
21
7.882664
0
LINE
8
Layer 1
10
9.895861
20
7.882664
11
9.914072
21
7.851445
0
LINE
8
Layer 1
10
9.914072
20
7.851445
11
9.914072
21
7.851445
0
LINE
8
Layer 1
10
9.914072
20
7.851445
11
9.934884
21
7.809819
0
LINE
8
Layer 1
10
9.934884
20
7.809819
11
9.934884
21
7.809819
0
LINE
8
Layer 1
10
9.934884
20
7.809819
11
9.955696
21
7.768193
0
LINE
8
Layer 1
10
9.955696
20
7.768193
11
9.955696
21
7.768193
0
LINE
8
Layer 1
10
9.955696
20
7.768193
11
9.976508
21
7.726568
0
LINE
8
Layer 1
10
9.976508
20
7.726568
11
9.976508
21
7.726568
0
LINE
8
Layer 1
10
9.976508
20
7.726568
11
9.997321
21
7.684942
0
LINE
8
Layer 1
10
9.997321
20
7.684942
11
9.997321
21
7.684942
0
LINE
8
Layer 1
10
9.997321
20
7.684942
11
10.018133
21
7.643316
0
LINE
8
Layer 1
10
10.018133
20
7.643316
11
10.018133
21
7.643316
0
LINE
8
Layer 1
10
10.018133
20
7.643316
11
10.041548
21
7.583480
0
LINE
8
Layer 1
10
10.041548
20
7.583480
11
10.041548
21
7.588684
0
LINE
8
Layer 1
10
10.041548
20
7.588684
11
10.067565
21
7.544457
0
LINE
8
Layer 1
10
10.067565
20
7.544457
11
10.309514
21
6.849829
0
LINE
8
Layer 1
10
10.309514
20
6.849829
11
10.332929
21
6.792593
0
LINE
8
Layer 1
10
10.332929
20
6.792593
11
10.332900
21
6.792590
0
LINE
8
Layer 1
10
10.332900
20
6.792590
11
10.353712
21
6.714542
0
LINE
8
Layer 1
10
10.353712
20
6.714542
11
10.353700
21
6.714540
0
LINE
8
Layer 1
10
10.353700
20
6.714540
11
10.374512
21
6.636492
0
LINE
8
Layer 1
10
10.374512
20
6.636492
11
10.374512
21
6.639085
0
LINE
8
Layer 1
10
10.374512
20
6.639085
11
10.395324
21
6.558435
0
LINE
8
Layer 1
10
10.395324
20
6.558435
11
10.395400
21
6.558440
0
LINE
8
Layer 1
10
10.395400
20
6.558440
11
10.416212
21
6.462181
0
LINE
8
Layer 1
10
10.416212
20
6.462181
11
10.416200
21
6.462180
0
LINE
8
Layer 1
10
10.416200
20
6.462180
11
10.437012
21
6.365921
0
LINE
8
Layer 1
10
10.437012
20
6.365921
11
10.437000
21
6.365920
0
LINE
8
Layer 1
10
10.437000
20
6.365920
11
10.457812
21
6.248848
0
LINE
8
Layer 1
10
10.457812
20
6.248848
11
10.457800
21
6.248850
0
LINE
8
Layer 1
10
10.457800
20
6.248850
11
10.463004
21
6.155192
0
LINE
8
Layer 1
10
10.463004
20
6.155192
11
10.517638
21
5.369508
0
LINE
8
Layer 1
10
10.517638
20
5.369508
11
10.496826
21
4.870000
0
LINE
8
Layer 1
10
10.496826
20
4.870000
11
10.496826
21
4.862195
0
LINE
8
Layer 1
10
10.496826
20
4.862195
11
10.478615
21
4.703497
0
LINE
8
Layer 1
10
10.478615
20
4.703497
11
10.478615
21
4.706090
0
LINE
8
Layer 1
10
10.478615
20
4.706090
11
10.457803
21
4.568205
0
LINE
8
Layer 1
10
10.457803
20
4.568205
11
10.457803
21
4.570798
0
LINE
8
Layer 1
10
10.457803
20
4.570798
11
10.436991
21
4.451124
0
LINE
8
Layer 1
10
10.436991
20
4.451124
11
10.436991
21
4.451124
0
LINE
8
Layer 1
10
10.436991
20
4.451124
11
10.416178
21
4.352263
0
LINE
8
Layer 1
10
10.416178
20
4.352263
11
10.416178
21
4.354856
0
LINE
8
Layer 1
10
10.416178
20
4.354856
11
10.395366
21
4.255995
0
LINE
8
Layer 1
10
10.395366
20
4.255995
11
10.395366
21
4.255995
0
LINE
8
Layer 1
10
10.395366
20
4.255995
11
10.374554
21
4.175345
0
LINE
8
Layer 1
10
10.374554
20
4.175345
11
10.374554
21
4.175345
0
LINE
8
Layer 1
10
10.374554
20
4.175345
11
10.353742
21
4.094696
0
LINE
8
Layer 1
10
10.353742
20
4.094696
11
10.353742
21
4.097288
0
LINE
8
Layer 1
10
10.353742
20
4.097288
11
10.332930
21
4.016639
0
LINE
8
Layer 1
10
10.332930
20
4.016639
11
10.332930
21
4.016639
0
LINE
8
Layer 1
10
10.332930
20
4.016639
11
10.309514
21
3.959404
0
LINE
8
Layer 1
10
10.309514
20
3.959404
11
10.132605
21
3.420872
0
LINE
8
Layer 1
10
10.132605
20
3.420872
11
9.846429
21
2.827707
0
LINE
8
Layer 1
10
9.846429
20
2.827707
11
9.183020
21
1.904138
0
LINE
8
Layer 1
10
9.183020
20
1.904138
11
8.398639
21
1.189998
0
LINE
8
Layer 1
10
8.398639
20
1.189998
11
7.489380
21
0.647568
0
LINE
8
Layer 1
10
7.489380
20
0.647568
11
6.854589
21
0.408221
0
LINE
8
Layer 1
10
6.854589
20
0.408221
11
6.518982
21
0.311961
0
LINE
8
Layer 1
10
6.518982
20
0.311961
11
6.503372
21
0.311961
0
LINE
8
Layer 1
10
6.503372
20
0.311961
11
6.503372
21
0.311961
0
LINE
8
Layer 1
10
6.503372
20
0.311961
11
6.422722
21
0.291149
0
LINE
8
Layer 1
10
6.422722
20
0.291149
11
6.422720
21
0.291142
0
LINE
8
Layer 1
10
6.422720
20
0.291142
11
6.323859
21
0.272931
0
LINE
8
Layer 1
10
6.323859
20
0.272931
11
6.326450
21
0.272930
0
LINE
8
Layer 1
10
6.326450
20
0.272930
11
6.227589
21
0.254719
0
LINE
8
Layer 1
10
6.227589
20
0.254719
11
6.230190
21
0.254719
0
LINE
8
Layer 1
10
6.230190
20
0.254719
11
6.110516
21
0.236508
0
LINE
8
Layer 1
10
6.110516
20
0.236508
11
6.113109
21
0.236508
0
LINE
8
Layer 1
10
6.113109
20
0.236508
11
5.975224
21
0.215696
0
LINE
8
Layer 1
10
5.975224
20
0.215696
11
5.980420
21
0.215696
0
LINE
8
Layer 1
10
5.980420
20
0.215696
11
5.970010
21
0.236527
0
LINE
8
Layer 1
10
10.468200
20
4.880390
11
10.489012
21
5.379898
0
LINE
8
Layer 1
10
10.489012
20
5.379898
11
10.434379
21
6.165582
0
LINE
8
Layer 1
10
10.434379
20
6.165582
11
10.429174
21
6.261842
0
LINE
8
Layer 1
10
10.429174
20
6.261842
11
10.465597
21
6.077128
0
LINE
8
Layer 1
10
10.465597
20
6.077128
11
10.504621
21
5.208193
0
LINE
8
Layer 1
10
10.504621
20
5.208193
11
10.483809
21
4.903805
0
LINE
8
Layer 1
10
10.483809
20
4.903805
11
10.468198
21
4.880392
0
LINE
8
Layer 1
10
10.468198
20
4.880392
11
10.468200
21
4.880390
0
LINE
8
Layer 1
10
9.331290
20
7.619880
11
9.305274
21
7.492402
0
LINE
8
Layer 1
10
9.305274
20
7.492402
11
9.305274
21
6.397132
0
LINE
8
Layer 1
10
9.305274
20
6.397132
11
9.289663
21
6.295669
0
LINE
8
Layer 1
10
9.289663
20
6.295669
11
9.287070
21
7.055337
0
LINE
8
Layer 1
10
9.287070
20
7.055337
11
9.287070
21
7.536634
0
LINE
8
Layer 1
10
9.287070
20
7.536634
11
9.333899
21
7.617284
0
LINE
8
Layer 1
10
9.333899
20
7.617284
11
9.331290
21
7.619880
0
LINE
8
Layer 1
10
9.287060
20
4.422510
11
9.302670
21
4.341860
0
LINE
8
Layer 1
10
9.302670
20
4.341860
11
9.302670
21
3.197150
0
LINE
8
Layer 1
10
9.302670
20
3.197150
11
9.287060
21
3.116501
0
LINE
8
Layer 1
10
9.287060
20
3.116501
11
9.287060
21
4.425111
0
LINE
8
Layer 1
10
9.287060
20
4.425111
11
9.287060
21
4.422510
0
LINE
8
Layer 1
10
8.264630
20
6.027690
11
7.700082
21
6.014683
0
LINE
8
Layer 1
10
7.700082
20
6.014683
11
7.663660
21
6.014683
0
LINE
8
Layer 1
10
7.663660
20
6.014683
11
8.254224
21
6.043301
0
LINE
8
Layer 1
10
8.254224
20
6.043301
11
8.264629
21
6.027690
0
LINE
8
Layer 1
10
8.264629
20
6.027690
11
8.264630
21
6.027690
0
LINE
8
Layer 1
10
3.995400
20
1.513910
11
3.977189
21
1.586755
0
LINE
8
Layer 1
10
3.977189
20
1.586755
11
3.977189
21
2.252765
0
LINE
8
Layer 1
10
3.977189
20
2.252765
11
3.992799
21
2.325610
0
LINE
8
Layer 1
10
3.992799
20
2.325610
11
3.992799
21
1.513910
0
LINE
8
Layer 1
10
3.992799
20
1.513910
11
3.995400
21
1.513910
0
LINE
8
Layer 1
10
2.900120
20
5.720710
11
2.447441
21
5.702499
0
LINE
8
Layer 1
10
2.447441
20
5.702499
11
2.900120
21
5.720710
0
LINE
8
Layer 1
10
2.900120
20
5.720710
11
2.900120
21
5.720710
0
LINE
8
Layer 1
10
1.812650
20
4.859570
11
1.812650
21
4.367867
0
LINE
8
Layer 1
10
1.812650
20
4.367867
11
1.794439
21
4.479736
0
LINE
8
Layer 1
10
1.794439
20
4.479736
11
1.799642
21
4.836155
0
LINE
8
Layer 1
10
1.799642
20
4.836155
11
1.812650
21
4.859571
0
LINE
8
Layer 1
10
1.812650
20
4.859571
11
1.812650
21
4.859570
0
LINE
8
Layer 1
10
6.120910
20
3.985440
11
6.120910
21
3.517152
0
LINE
8
Layer 1
10
6.120910
20
3.517152
11
6.100098
21
3.636826
0
LINE
8
Layer 1
10
6.100098
20
3.636826
11
6.105302
21
3.954222
0
LINE
8
Layer 1
10
6.105302
20
3.954222
11
6.120913
21
3.988043
0
LINE
8
Layer 1
10
6.120913
20
3.988043
11
6.120910
21
3.985440
0
LINE
8
Layer 1
10
6.883180
20
2.632600
11
7.265615
21
2.653412
0
LINE
8
Layer 1
10
7.265615
20
2.653412
11
6.883180
21
2.632600
0
LINE
8
Layer 1
10
6.883180
20
2.632600
11
6.883180
21
2.632600
0
LINE
8
Layer 1
10
10.447400
20
4.713890
11
10.465611
21
4.872588
0
LINE
8
Layer 1
10
10.465611
20
4.872588
11
10.447400
21
4.713890
0
LINE
8
Layer 1
10
10.447400
20
4.713890
11
10.447400
21
4.713890
0
LINE
8
Layer 1
10
9.888030
20
7.874830
11
9.789169
21
7.885236
0
LINE
8
Layer 1
10
9.789169
20
7.885236
11
9.888030
21
7.874830
0
LINE
8
Layer 1
10
9.888030
20
7.874830
11
9.888030
21
7.874830
0
LINE
8
Layer 1
10
6.139120
20
4.120720
11
6.118308
21
3.982835
0
LINE
8
Layer 1
10
6.118308
20
3.982835
11
6.139120
21
4.120720
0
LINE
8
Layer 1
10
6.139120
20
4.120720
11
6.139120
21
4.120720
0
LINE
8
Layer 1
10
5.964810
20
0.236527
11
6.102695
21
0.257339
0
LINE
8
Layer 1
10
6.102695
20
0.257339
11
5.964810
21
0.236527
0
LINE
8
Layer 1
10
5.964810
20
0.236527
11
5.964810
21
0.236527
0
LINE
8
Layer 1
10
10.429200
20
4.581200
11
10.450012
21
4.719085
0
LINE
8
Layer 1
10
10.450012
20
4.719085
11
10.429200
21
4.581200
0
LINE
8
Layer 1
10
10.429200
20
4.581200
11
10.429200
21
4.581200
0
LINE
8
Layer 1
10
0.824045
20
8.218240
11
0.837053
21
8.134989
0
LINE
8
Layer 1
10
0.837053
20
8.134989
11
0.824045
21
8.218240
0
LINE
8
Layer 1
10
0.824045
20
8.218240
11
0.824045
21
8.218240
0
LINE
8
Layer 1
10
1.812650
20
4.367870
11
1.833463
21
4.229985
0
LINE
8
Layer 1
10
1.833463
20
4.229985
11
1.812650
21
4.367870
0
LINE
8
Layer 1
10
1.812650
20
4.367870
11
1.812650
21
4.367870
0
LINE
8
Layer 1
10
6.118310
20
3.519750
11
6.139122
21
3.392272
0
LINE
8
Layer 1
10
6.139122
20
3.392272
11
6.118310
21
3.519750
0
LINE
8
Layer 1
10
6.118310
20
3.519750
11
6.118310
21
3.519750
0
LINE
8
Layer 1
10
10.429200
20
6.261840
11
10.408388
21
6.381514
0
LINE
8
Layer 1
10
10.408388
20
6.381514
11
10.429200
21
6.261840
0
LINE
8
Layer 1
10
10.429200
20
6.261840
11
10.429200
21
6.261840
0
LINE
8
Layer 1
10
6.100090
20
0.254738
11
6.219764
21
0.275550
0
LINE
8
Layer 1
10
6.219764
20
0.275550
11
6.100090
21
0.254738
0
LINE
8
Layer 1
10
6.100090
20
0.254738
11
6.100090
21
0.254738
0
LINE
8
Layer 1
10
9.685100
20
8.134990
11
9.698107
21
8.210437
0
LINE
8
Layer 1
10
9.698107
20
8.210437
11
9.685100
21
8.134990
0
LINE
8
Layer 1
10
9.685100
20
8.134990
11
9.685100
21
8.134990
0
LINE
8
Layer 1
10
6.178140
20
4.305430
11
6.157328
21
4.214374
0
LINE
8
Layer 1
10
6.157328
20
4.214374
11
6.178140
21
4.305430
0
LINE
8
Layer 1
10
6.178140
20
4.305430
11
6.178140
21
4.305430
0
LINE
8
Layer 1
10
10.408300
20
4.464130
11
10.429112
21
4.583804
0
LINE
8
Layer 1
10
10.429112
20
4.583804
11
10.408300
21
4.464130
0
LINE
8
Layer 1
10
10.408300
20
4.464130
11
10.408300
21
4.464130
0
LINE
8
Layer 1
10
6.768710
20
2.653420
11
6.885782
21
2.632608
0
LINE
8
Layer 1
10
6.885782
20
2.632608
11
6.768710
21
2.653420
0
LINE
8
Layer 1
10
6.768710
20
2.653420
11
6.768710
21
2.653420
0
LINE
8
Layer 1
10
10.411000
20
6.376310
11
10.390188
21
6.475171
0
LINE
8
Layer 1
10
10.390188
20
6.475171
11
10.411000
21
6.376310
0
LINE
8
Layer 1
10
10.411000
20
6.376310
11
10.411000
21
6.376310
0
LINE
8
Layer 1
10
10.390100
20
6.472570
11
10.369288
21
6.571431
0
LINE
8
Layer 1
10
10.369288
20
6.571431
11
10.390100
21
6.472570
0
LINE
8
Layer 1
10
10.390100
20
6.472570
11
10.390100
21
6.472570
0
LINE
8
Layer 1
10
6.313430
20
0.293762
11
6.412291
21
0.314574
0
LINE
8
Layer 1
10
6.412291
20
0.314574
11
6.313430
21
0.293762
0
LINE
8
Layer 1
10
6.313430
20
0.293762
11
6.313430
21
0.293762
0
LINE
8
Layer 1
10
6.217170
20
0.272949
11
6.316031
21
0.293761
0
LINE
8
Layer 1
10
6.316031
20
0.293761
11
6.217170
21
0.272949
0
LINE
8
Layer 1
10
6.217170
20
0.272949
11
6.217170
21
0.272949
0
LINE
8
Layer 1
10
10.390100
20
4.367870
11
10.410912
21
4.466731
0
LINE
8
Layer 1
10
10.410912
20
4.466731
11
10.390100
21
4.367870
0
LINE
8
Layer 1
10
10.390100
20
4.367870
11
10.390100
21
4.367870
0
LINE
8
Layer 1
10
10.369300
20
4.271610
11
10.390112
21
4.370471
0
LINE
8
Layer 1
10
10.390112
20
4.370471
11
10.369300
21
4.271610
0
LINE
8
Layer 1
10
10.369300
20
4.271610
11
10.369300
21
4.271610
0
LINE
8
Layer 1
10
6.159930
20
4.216980
11
6.139118
21
4.118119
0
LINE
8
Layer 1
10
6.139118
20
4.118119
11
6.159930
21
4.216980
0
LINE
8
Layer 1
10
6.159930
20
4.216980
11
6.159930
21
4.216980
0
LINE
8
Layer 1
10
9.791770
20
7.885240
11
9.729332
21
7.846216
0
LINE
8
Layer 1
10
9.729332
20
7.846216
11
9.791770
21
7.885240
0
LINE
8
Layer 1
10
9.791770
20
7.885240
11
9.791770
21
7.885240
0
LINE
8
Layer 1
10
6.409690
20
0.311973
11
6.490340
21
0.332785
0
LINE
8
Layer 1
10
6.490340
20
0.332785
11
6.409690
21
0.311973
0
LINE
8
Layer 1
10
6.409690
20
0.311973
11
6.409690
21
0.311973
0
LINE
8
Layer 1
10
10.312100
20
4.040070
11
10.332912
21
4.120720
0
LINE
8
Layer 1
10
10.332912
20
4.120720
11
10.312100
21
4.040070
0
LINE
8
Layer 1
10
10.312100
20
4.040070
11
10.312100
21
4.040070
0
LINE
8
Layer 1
10
10.332900
20
6.724920
11
10.312088
21
6.805570
0
LINE
8
Layer 1
10
10.312088
20
6.805570
11
10.332900
21
6.724920
0
LINE
8
Layer 1
10
10.332900
20
6.724920
11
10.332900
21
6.724920
0
LINE
8
Layer 1
10
10.351100
20
6.646880
11
10.330288
21
6.727530
0
LINE
8
Layer 1
10
10.330288
20
6.727530
11
10.351100
21
6.646880
0
LINE
8
Layer 1
10
10.351100
20
6.646880
11
10.351100
21
6.646880
0
LINE
8
Layer 1
10
10.371900
20
6.571430
11
10.351088
21
6.652080
0
LINE
8
Layer 1
10
10.351088
20
6.652080
11
10.371900
21
6.571430
0
LINE
8
Layer 1
10
10.371900
20
6.571430
11
10.371900
21
6.571430
0
LINE
8
Layer 1
10
1.851680
20
4.138930
11
1.872493
21
4.058280
0
LINE
8
Layer 1
10
1.872493
20
4.058280
11
1.851680
21
4.138930
0
LINE
8
Layer 1
10
1.851680
20
4.138930
11
1.851680
21
4.138930
0
LINE
8
Layer 1
10
10.332900
20
4.115520
11
10.353712
21
4.196170
0
LINE
8
Layer 1
10
10.353712
20
4.196170
11
10.332900
21
4.115520
0
LINE
8
Layer 1
10
10.332900
20
4.115520
11
10.332900
21
4.115520
0
LINE
8
Layer 1
10
1.830860
20
4.235190
11
1.849071
21
4.149337
0
LINE
8
Layer 1
10
1.849071
20
4.149337
11
1.830860
21
4.235190
0
LINE
8
Layer 1
10
1.830860
20
4.235190
11
1.830860
21
4.235190
0
LINE
8
Layer 1
10
10.351100
20
4.193560
11
10.371912
21
4.274210
0
LINE
8
Layer 1
10
10.371912
20
4.274210
11
10.351100
21
4.193560
0
LINE
8
Layer 1
10
10.351100
20
4.193560
11
10.351100
21
4.193560
0
LINE
8
Layer 1
10
6.139120
20
3.392270
11
6.159932
21
3.306417
0
LINE
8
Layer 1
10
6.159932
20
3.306417
11
6.139120
21
3.392270
0
LINE
8
Layer 1
10
6.139120
20
3.392270
11
6.139120
21
3.392270
0
LINE
8
Layer 1
10
10.312100
20
6.802970
11
10.288684
21
6.860205
0
LINE
8
Layer 1
10
10.288684
20
6.860205
11
10.312100
21
6.802970
0
LINE
8
Layer 1
10
10.312100
20
6.802970
11
10.312100
21
6.802970
0
LINE
8
Layer 1
10
10.025900
20
7.593860
11
10.002484
21
7.653697
0
LINE
8
Layer 1
10
10.002484
20
7.653697
11
10.025900
21
7.593860
0
LINE
8
Layer 1
10
10.025900
20
7.593860
11
10.025900
21
7.593860
0
LINE
8
Layer 1
10
1.869890
20
4.060880
11
1.888101
21
3.995840
0
LINE
8
Layer 1
10
1.888101
20
3.995840
11
1.869890
21
4.060880
0
LINE
8
Layer 1
10
1.869890
20
4.060880
11
1.869890
21
4.060880
0
LINE
8
Layer 1
10
10.291300
20
3.982830
11
10.314716
21
4.040065
0
LINE
8
Layer 1
10
10.314716
20
4.040065
11
10.291300
21
3.982830
0
LINE
8
Layer 1
10
10.291300
20
3.982830
11
10.291300
21
3.982830
0
LINE
8
Layer 1
10
6.157330
20
3.309020
11
6.178142
21
3.249183
0
LINE
8
Layer 1
10
6.178142
20
3.249183
11
6.157330
21
3.309020
0
LINE
8
Layer 1
10
6.157330
20
3.309020
11
6.157330
21
3.309020
0
LINE
8
Layer 1
10
6.178140
20
3.249180
11
6.198952
21
3.189343
0
LINE
8
Layer 1
10
6.198952
20
3.189343
11
6.178140
21
3.249180
0
LINE
8
Layer 1
10
6.178140
20
3.249180
11
6.178140
21
3.249180
0
LINE
8
Layer 1
10
9.731930
20
7.848820
11
9.682500
21
7.825404
0
LINE
8
Layer 1
10
9.682500
20
7.825404
11
9.731930
21
7.848820
0
LINE
8
Layer 1
10
9.731930
20
7.848820
11
9.731930
21
7.848820
0
LINE
8
Layer 1
10
6.198960
20
3.191950
11
6.219772
21
3.142519
0
LINE
8
Layer 1
10
6.219772
20
3.142519
11
6.198960
21
3.191950
0
LINE
8
Layer 1
10
6.198960
20
3.191950
11
6.198960
21
3.191950
0
LINE
8
Layer 1
10
8.405120
20
5.975660
11
8.363494
21
5.993871
0
LINE
8
Layer 1
10
8.363494
20
5.993871
11
8.405120
21
5.975660
0
LINE
8
Layer 1
10
8.405120
20
5.975660
11
8.405120
21
5.975660
0
LINE
8
Layer 1
10
8.366090
20
5.993870
11
8.324464
21
6.009480
0
LINE
8
Layer 1
10
8.324464
20
6.009480
11
8.366090
21
5.993870
0
LINE
8
Layer 1
10
8.366090
20
5.993870
11
8.366090
21
5.993870
0
LINE
8
Layer 1
10
8.441540
20
5.954850
11
8.399914
21
5.975662
0
LINE
8
Layer 1
10
8.399914
20
5.975662
11
8.441540
21
5.954850
0
LINE
8
Layer 1
10
8.441540
20
5.954850
11
8.441540
21
5.954850
0
LINE
8
Layer 1
10
8.485760
20
5.931440
11
8.438931
21
5.954856
0
LINE
8
Layer 1
10
8.438931
20
5.954856
11
8.485760
21
5.931440
0
LINE
8
Layer 1
10
8.485760
20
5.931440
11
8.485760
21
5.931440
0
LINE
8
Layer 1
10
10.049300
20
7.554840
11
10.023284
21
7.599067
0
LINE
8
Layer 1
10
10.023284
20
7.599067
11
10.049300
21
7.554840
0
LINE
8
Layer 1
10
10.049300
20
7.554840
11
10.049300
21
7.554840
0
LINE
8
Layer 1
10
10.002500
20
7.651090
11
9.981688
21
7.692716
0
LINE
8
Layer 1
10
9.981688
20
7.692716
11
10.002500
21
7.651090
0
LINE
8
Layer 1
10
10.002500
20
7.651090
11
10.002500
21
7.651090
0
LINE
8
Layer 1
10
9.984290
20
7.690120
11
9.963478
21
7.731746
0
LINE
8
Layer 1
10
9.963478
20
7.731746
11
9.984290
21
7.690120
0
LINE
8
Layer 1
10
9.984290
20
7.690120
11
9.984290
21
7.690120
0
LINE
8
Layer 1
10
9.963480
20
7.729140
11
9.942668
21
7.770766
0
LINE
8
Layer 1
10
9.942668
20
7.770766
11
9.963480
21
7.729140
0
LINE
8
Layer 1
10
9.963480
20
7.729140
11
9.963480
21
7.729140
0
LINE
8
Layer 1
10
9.945260
20
7.768170
11
9.924448
21
7.809795
0
LINE
8
Layer 1
10
9.924448
20
7.809795
11
9.945260
21
7.768170
0
LINE
8
Layer 1
10
9.945260
20
7.768170
11
9.945260
21
7.768170
0
LINE
8
Layer 1
10
9.924450
20
7.807190
11
9.903638
21
7.848816
0
LINE
8
Layer 1
10
9.903638
20
7.848816
11
9.924450
21
7.807190
0
LINE
8
Layer 1
10
9.924450
20
7.807190
11
9.924450
21
7.807190
0
LINE
8
Layer 1
10
6.487730
20
0.332786
11
6.503340
21
0.332786
0
LINE
8
Layer 1
10
6.503340
20
0.332786
11
6.495535
21
0.330193
0
LINE
8
Layer 1
10
6.495535
20
0.330193
11
6.487730
21
0.330193
0
LINE
8
Layer 1
10
6.487730
20
0.330193
11
6.487730
21
0.332786
0
LINE
8
Layer 1
10
9.666890
20
8.119380
11
9.685101
21
8.134990
0
LINE
8
Layer 1
10
9.685101
20
8.134990
11
9.666890
21
8.119380
0
LINE
8
Layer 1
10
9.666890
20
8.119380
11
9.666890
21
8.119380
0
LINE
8
Layer 1
10
5.121890
20
0.837497
11
5.101078
21
0.860913
0
LINE
8
Layer 1
10
5.101078
20
0.860913
11
5.121890
21
0.837497
0
LINE
8
Layer 1
10
5.121890
20
0.837497
11
5.121890
21
0.837497
0
LINE
8
Layer 1
10
5.103680
20
0.858310
11
5.077664
21
0.879122
0
LINE
8
Layer 1
10
5.077664
20
0.879122
11
5.103680
21
0.858310
0
LINE
8
Layer 1
10
5.103680
20
0.858310
11
5.103680
21
0.858310
0
LINE
8
Layer 1
10
7.018460
20
5.645260
11
6.987241
21
5.624448
0
LINE
8
Layer 1
10
6.987241
20
5.624448
11
7.018460
21
5.645260
0
LINE
8
Layer 1
10
7.018460
20
5.645260
11
7.018460
21
5.645260
0
LINE
8
Layer 1
10
6.971630
20
5.606230
11
6.945614
21
5.582814
0
LINE
8
Layer 1
10
6.945614
20
5.582814
11
6.971630
21
5.606230
0
LINE
8
Layer 1
10
6.971630
20
5.606230
11
6.971630
21
5.606230
0
LINE
8
Layer 1
10
8.267230
20
6.017290
11
8.262026
21
6.030297
0
LINE
8
Layer 1
10
8.262026
20
6.030297
11
8.267230
21
6.017290
0
LINE
8
Layer 1
10
8.267230
20
6.017290
11
8.267230
21
6.017290
0
LINE
8
Layer 1
10
6.989840
20
5.624450
11
6.969028
21
5.603638
0
LINE
8
Layer 1
10
6.969028
20
5.603638
11
6.989840
21
5.624450
0
LINE
8
Layer 1
10
6.989840
20
5.624450
11
6.989840
21
5.624450
0
LINE
8
Layer 1
10
9.906240
20
7.843610
11
9.888029
21
7.874829
0
LINE
8
Layer 1
10
9.888029
20
7.874829
11
9.906240
21
7.843610
0
LINE
8
Layer 1
10
9.906240
20
7.843610
11
9.906240
21
7.843610
 0 
ENDSEC
 0 
EOF