0
SECTION
2
HEADER
9
$INSUNITS
70
4
9
$ACADVER
1
AC1014
9
$HANDSEED
5
FFFF
0
ENDSEC
0
SECTION
2
TABLES
0
TABLE
2
VPORT
5
8
100
AcDbSymbolTable
0
ENDTAB
0
TABLE
2
LTYPE
5
5
100
AcDbSymbolTable
0
LTYPE
5
14
100
AcDbSymbolTableRecord
100
AcDbLinetypeTableRecord
2
BYBLOCK
70
0
0
LTYPE
5
15
100
AcDbSymbolTableRecord
100
AcDbLinetypeTableRecord
2
BYLAYER
70
0
0
ENDTAB
0
TABLE
2
LAYER
5
2
100
AcDbSymbolTable
70
2
0
LAYER
5
50
100
AcDbSymbolTableRecord
100
AcDbLayerTableRecord
2
0
70
0
6
CONTINUOUS
0
ENDTAB
0
TABLE
2
STYLE
5
3
100
AcDbSymbolTable
70
1
0
STYLE
5
11
100
AcDbSymbolTableRecord
100
AcDbTextStyleTableRecord
2
STANDARD
70
0
0
ENDTAB
0
TABLE
2
VIEW
5
6
100
AcDbSymbolTable
70
0
0
ENDTAB
0
TABLE
2
UCS
5
7
100
AcDbSymbolTable
70
0
0
ENDTAB
0
TABLE
2
APPID
5
9
100
AcDbSymbolTable
70
2
0
APPID
5
12
100
AcDbSymbolTableRecord
100
AcDbRegAppTableRecord
2
ACAD
70
0
0
ENDTAB
0
TABLE
2
DIMSTYLE
5
A
100
AcDbSymbolTable
70
1
0
ENDTAB
0
TABLE
2
BLOCK_RECORD
5
1
100
AcDbSymbolTable
70
1
0
BLOCK_RECORD
5
1F
100
AcDbSymbolTableRecord
100
AcDbBlockTableRecord
2
*MODEL_SPACE
0
BLOCK_RECORD
5
1B
100
AcDbSymbolTableRecord
100
AcDbBlockTableRecord
2
*PAPER_SPACE
0
ENDTAB
0
ENDSEC
0
SECTION
2
BLOCKS
0
BLOCK
5
20
100
AcDbEntity
100
AcDbBlockBegin
2
*MODEL_SPACE
0
ENDBLK
5
21
100
AcDbEntity
100
AcDbBlockEnd
0
BLOCK
5
1C
100
AcDbEntity
100
AcDbBlockBegin
2
*PAPER_SPACE
0
ENDBLK
5
1D
100
AcDbEntity
100
AcDbBlockEnd
0
ENDSEC
0
SECTION
2
ENTITIES
0
LWPOLYLINE
5
100
100
AcDbEntity
8
0
100
AcDbPolyline
90
4
70
1
43
0.0
10
42.804268809900833
20
28.017186969059118
10
52.804268809900833
20
28.017186969059118
10
52.804268809900833
20
25.017186969059118
10
42.804268809900833
20
25.017186969059118
0
LINE
5
101
100
AcDbEntity
8
0
100
AcDbLine
10
-42.46410161513397
20
32.908965343805235
30
0
11
-30.732050807566456
21
32.908965343805065
31
0
0
LINE
5
102
100
AcDbEntity
8
0
100
AcDbLine
10
-30.732050807566456
20
32.908965343805065
30
0
11
-30.732050807566438
21
35.908965343805065
31
0
0
LINE
5
103
100
AcDbEntity
8
0
100
AcDbLine
10
-30.732050807566438
20
35.908965343805065
30
0
11
-40.732050807566438
21
35.90896534380488
31
0
0
LINE
5
104
100
AcDbEntity
8
0
100
AcDbLine
10
-40.732050807566438
20
35.90896534380488
30
0
11
-30.73205080757138
21
53.229473419496514
31
0
0
LINE
5
105
100
AcDbEntity
8
0
100
AcDbLine
10
0
20
0
30
0
11
-10.000000000000743
21
17.320508075688348
31
0
0
LINE
5
106
100
AcDbEntity
8
0
100
AcDbLine
10
-61.464101615139029
20
-5.1118481884014734e-13
30
0
11
-41.464101615139029
21
-3.4687181119562417e-13
31
0
0
LINE
5
107
100
AcDbEntity
8
0
100
AcDbLine
10
-41.464101615139029
20
-3.4687181119562417e-13
30
0
11
-46.464101615139064
21
8.660254037844016
31
0
0
LINE
5
108
100
AcDbEntity
8
0
100
AcDbLine
10
-46.464101615139064
20
8.660254037844016
30
0
11
-43.866025403785827
21
10.160254037844137
31
0
0
LINE
5
109
100
AcDbEntity
8
0
100
AcDbLine
10
-43.866025403785827
20
10.160254037844137
30
0
11
-38.000000000000007
21
-3.219646771412954e-13
31
0
0
LINE
5
110
100
AcDbEntity
8
0
100
AcDbLine
10
-11.732050807569973
20
20.320508075688668
30
0
11
-17.598076211356414
21
10.160254037846453
31
0
0
LINE
5
111
100
AcDbEntity
8
0
100
AcDbLine
10
-17.598076211356414
20
10.160254037846453
30
0
11
-15.000000000003588
21
8.6602540378456041
31
0
0
LINE
5
112
100
AcDbEntity
8
0
100
AcDbLine
10
-15.000000000003588
20
8.6602540378456041
30
0
11
-10.000000000000743
21
17.320508075688348
31
0
0
LINE
5
113
100
AcDbEntity
8
0
100
AcDbLine
10
-30.73205080757138
20
53.229473419496514
30
0
11
-16.732050807570339
21
28.980762113532844
31
0
0
LINE
5
114
100
AcDbEntity
8
0
100
AcDbLine
10
-16.732050807570339
20
28.980762113532844
30
0
11
-11.732050807569973
21
20.320508075688668
31
0
0
LINE
5
115
100
AcDbEntity
8
0
100
AcDbLine
10
-61.464101615139029
20
-5.1118481884014734e-13
30
0
11
-47.464101615131504
21
24.248711305959425
31
0
0
LINE
5
116
100
AcDbEntity
8
0
100
AcDbLine
10
-47.464101615131504
20
24.248711305959425
30
0
11
-42.46410161513397
21
32.908965343805235
31
0
0
LINE
5
117
100
AcDbEntity
8
0
100
AcDbLine
10
0
20
0
30
0
11
-28.519754308761801
21
-2.4424906541753444e-13
31
0
0
LINE
5
118
100
AcDbEntity
8
0
100
AcDbLine
10
-28.000000000000007
20
-2.375877272697835e-13
30
0
11
-38.000000000000007
21
-3.219646771412954e-13
31
0
0
LINE
5
119
100
AcDbEntity
8
0
100
AcDbLine
10
-33.919843799043072
20
26.000000163912578
30
0
11
-33.919843799042823
21
11.000000163912775
31
0
0
LINE
5
120
100
AcDbEntity
8
0
100
AcDbLine
10
-33.919843799041949
20
7.0000001043081284
30
0
11
-33.919843799041843
21
-2.8753756361767682e-13
31
0
0
LINE
5
121
100
AcDbEntity
8
0
100
AcDbLine
10
-32.550205305628381
20
18.35113727689459
30
0
11
-32.550205305628126
21
3.3511372768947858
31
0
0
LINE
5
122
100
AcDbEntity
8
0
100
AcDbLine
10
-35.215014547946687
20
18.363310281914217
30
0
11
-35.064092139271892
21
3.3640695535789011
31
0
0
LINE
5
123
100
AcDbEntity
8
0
100
AcDbLine
10
-36.555836790211657
20
25.862930646081885
30
0
11
-36.404914381536869
21
10.863689917746591
31
0
0
LINE
5
124
100
AcDbEntity
8
0
100
AcDbLine
10
-36.366086822078827
20
7.0048599645365615
30
0
11
-36.295603898481211
21
-3.0758350269939022e-13
31
0
0
LINE
5
125
100
AcDbEntity
8
0
100
AcDbLine
10
-31.741959292847874
20
25.862930646081882
30
0
11
-31.591036884173086
21
10.863689917746587
31
0
0
LINE
5
126
100
AcDbEntity
8
0
100
AcDbLine
10
-30.401137050582903
20
18.363310281914213
30
0
11
-30.250214641908105
21
3.3640695535788967
31
0
0
LINE
5
127
100
AcDbEntity
8
0
100
AcDbLine
10
-29.105966301679288
20
26.000000163912574
30
0
11
-29.10596630167904
21
11.000000163912771
31
0
0
LINE
5
128
100
AcDbEntity
8
0
100
AcDbLine
10
-27.736327808264598
20
18.351137276894587
30
0
11
-27.736327808264342
21
3.3511372768947814
31
0
0
LINE
5
129
100
AcDbEntity
8
0
100
AcDbLine
10
-29.105966301678166
20
7.0000001043081239
30
0
11
-29.105966301678055
21
-2.4691953358941051e-13
31
0
0
LINE
5
130
100
AcDbEntity
8
0
100
AcDbLine
10
-31.552209324715044
20
7.004859964536557
30
0
11
-31.481726401117427
21
-2.6696547267112391e-13
31
0
0
LINE
5
131
100
AcDbEntity
8
0
100
AcDbLine
10
-26.92808179548409
20
25.862930646081885
30
0
11
-26.777159386809299
21
10.863689917746591
31
0
0
LINE
5
132
100
AcDbEntity
8
0
100
AcDbLine
10
-25.587259553219116
20
18.363310281914217
30
0
11
-25.436337144544318
21
3.3640695535789011
31
0
0
LINE
5
133
100
AcDbEntity
8
0
100
AcDbLine
10
-24.292088804315505
20
26.000000163912578
30
0
11
-24.292088804315256
21
11.000000163912775
31
0
0
LINE
5
134
100
AcDbEntity
8
0
100
AcDbLine
10
-22.92245031090081
20
18.35113727689459
30
0
11
-22.922450310900558
21
3.3511372768947858
31
0
0
LINE
5
135
100
AcDbEntity
8
0
100
AcDbLine
10
-24.292088804314382
20
7.0000001043081284
30
0
11
-24.292088804314268
21
-2.0804246499664571e-13
31
0
0
LINE
5
136
100
AcDbEntity
8
0
100
AcDbLine
10
-26.73833182735126
20
7.0048599645365615
30
0
11
-26.667848903753647
21
-2.2838896509836869e-13
31
0
0
LINE
5
137
100
AcDbEntity
8
0
100
AcDbLine
10
-22.295860052737808
20
25.862930646081885
30
0
11
-22.14493764406302
21
10.863689917746591
31
0
0
LINE
5
138
100
AcDbEntity
8
0
100
AcDbLine
10
-20.955037810472838
20
18.363310281914217
30
0
11
-20.804115401798036
21
3.3640695535789011
31
0
0
LINE
5
139
100
AcDbEntity
8
0
100
AcDbLine
10
-19.659867061569223
20
26.000000163912578
30
0
11
-19.659867061568974
21
11.000000163912775
31
0
0
LINE
5
140
100
AcDbEntity
8
0
100
AcDbLine
10
-18.290228568154529
20
18.35113727689459
30
0
11
-18.290228568154276
21
3.3511372768947858
31
0
0
LINE
5
141
100
AcDbEntity
8
0
100
AcDbLine
10
-19.6598670615681
20
7.0000001043081284
30
0
11
-19.65986706156799
21
-1.6837116140743598e-13
31
0
0
LINE
5
142
100
AcDbEntity
8
0
100
AcDbLine
10
-22.106110084604978
20
7.0048599645365615
30
0
11
-22.035627161007362
21
-1.8871766150915891e-13
31
0
0
LINE
5
143
100
AcDbEntity
8
0
100
AcDbLine
10
-14.599167426674043
20
7.0000001043081284
30
0
11
-14.599167426673933
21
-1.2503028466636297e-13
31
0
0
LINE
5
144
100
AcDbEntity
8
0
100
AcDbLine
10
-14.599167426675152
20
25.286499731203463
30
0
11
-14.599167426674988
21
15.354516420176431
31
0
0
LINE
5
145
100
AcDbEntity
8
0
100
AcDbLine
10
-17.235160417843751
20
25.862930646081885
30
0
11
-17.084238009168963
21
10.863689917746591
31
0
0
LINE
5
146
100
AcDbEntity
8
0
100
AcDbLine
10
-17.045410449710921
20
7.0048599645365615
30
0
11
-16.974927526113305
21
-1.453767847680859e-13
31
0
0
LINE
5
147
100
AcDbEntity
8
0
100
AcDbLine
10
-8.485123025547221
20
14.696664188718888
30
0
11
-8.4851230255470345
21
3.5619997616820411
31
0
0
LINE
5
148
100
AcDbEntity
8
0
100
AcDbLine
10
-9.8547615189608564
20
7.2108625890953837
30
0
11
-9.8547615189607463
21
-8.4398212721606934e-14
31
0
0
LINE
5
149
100
AcDbEntity
8
0
100
AcDbLine
10
-9.8547615189618281
20
17.068947647314843
30
0
11
-9.8547615189617321
21
11.210862648700031
31
0
0
LINE
5
150
100
AcDbEntity
8
0
100
AcDbLine
10
-11.11783634867334
20
15.384358725241597
30
0
11
-10.999009859190796
21
3.5749320383661565
31
0
0
LINE
5
151
100
AcDbEntity
8
0
100
AcDbLine
10
-12.301004541997735
20
7.2157224493238168
30
0
11
-12.228399919396843
21
-1.0472654215492099e-13
31
0
0
LINE
5
152
100
AcDbEntity
8
0
100
AcDbLine
10
-3.5298546330466509
20
6.1138875677685895
30
0
11
-3.5298546330466074
21
3.5619997616820367
31
0
0
LINE
5
153
100
AcDbEntity
8
0
100
AcDbLine
10
-4.8994931264604302
20
7.2108625890953792
30
0
11
-4.8994931264603174
21
-4.1960270912639625e-14
31
0
0
LINE
5
154
100
AcDbEntity
8
0
100
AcDbLine
10
-6.114330433357031
20
10.590330964837966
30
0
11
-6.0437414666903688
21
3.574932038366152
31
0
0
LINE
5
155
100
AcDbEntity
8
0
100
AcDbLine
10
-7.4021352051256661
20
12.820874259770662
30
0
11
-7.3845637089553495
21
11.074552402533842
31
0
0
LINE
5
156
100
AcDbEntity
8
0
100
AcDbLine
10
-7.3457361494973084
20
7.2157224493238123
30
0
11
-7.2731315268964174
21
-6.2288600345953705e-14
31
0
0
LINE
5
157
100
AcDbEntity
8
0
100
AcDbLine
10
-0.049655976353503509
20
0.086006673943698334
30
0
11
-0.049655976353502149
21
-4.2526403577789628e-16
31
0
0
LINE
5
158
100
AcDbEntity
8
0
100
AcDbLine
10
-2.4662763972414594
20
4.2717160255297095
30
0
11
-2.4232943767896011
21
-2.0753593469091975e-14
31
0
0
LINE
5
159
100
AcDbEntity
8
0
100
AcDbLine
10
-37.36003476525967
20
18.35113727689459
30
0
11
-37.360034765259428
21
3.3511372768947858
31
0
0
LINE
5
160
100
AcDbEntity
8
0
100
AcDbLine
10
-38.729673258673245
20
7.0000001043081284
30
0
11
-38.729673258673152
21
1.2638311569456295
31
0
0
LINE
5
161
100
AcDbEntity
8
0
100
AcDbLine
10
-38.729673258674367
20
26.000000163912578
30
0
11
-38.729673258674126
21
11.000000163912775
31
0
0
LINE
5
162
100
AcDbEntity
8
0
100
AcDbLine
10
-40.024844007577983
20
18.363310281914217
30
0
11
-39.873921598903188
21
3.3640695535789011
31
0
0
LINE
5
163
100
AcDbEntity
8
0
100
AcDbLine
10
-41.36566624984296
20
25.862930646081885
30
0
11
-41.214743841168165
21
10.863689917746591
31
0
0
LINE
5
164
100
AcDbEntity
8
0
100
AcDbLine
10
-41.175916281710123
20
7.0048599645365615
30
0
11
-41.160514491213256
21
5.4741716768374786
31
0
0
LINE
5
165
100
AcDbEntity
8
0
100
AcDbLine
10
-42.531507632271257
20
18.286493866056947
30
0
11
-42.531507632271079
21
7.8488014539775257
31
0
0
LINE
5
166
100
AcDbEntity
8
0
100
AcDbLine
10
-43.901146125684775
20
4.2210849125716692
30
0
11
-43.901146125684711
21
-3.6689371686019097e-13
31
0
0
LINE
5
167
100
AcDbEntity
8
0
100
AcDbLine
10
-43.901146125685948
20
25.935356753074934
30
0
11
-43.901146125685699
21
10.935356753075132
31
0
0
LINE
5
168
100
AcDbEntity
8
0
100
AcDbLine
10
-46.537139116854533
20
25.798287235244246
30
0
11
-46.386216708179745
21
10.799046506908947
31
0
0
LINE
5
169
100
AcDbEntity
8
0
100
AcDbLine
10
-46.347389148721696
20
6.9402165536989182
30
0
11
-46.277556667332803
21
-3.864174750350084e-13
31
0
0
LINE
5
170
100
AcDbEntity
8
0
100
AcDbLine
10
-47.638337088445155
20
18.2218504552193
30
0
11
-47.638337088444906
21
3.2218504552194958
31
0
0
LINE
5
171
100
AcDbEntity
8
0
100
AcDbLine
10
-49.00797558185873
20
6.8707132826328383
30
0
11
-49.007975581858631
21
-4.0884964223376998e-13
31
0
0
LINE
5
172
100
AcDbEntity
8
0
100
AcDbLine
10
-49.007975581859782
20
21.574643155105061
30
0
11
-49.007975581859604
21
10.870713342237487
31
0
0
LINE
5
173
100
AcDbEntity
8
0
100
AcDbLine
10
-50.303146330763468
20
18.23402346023893
30
0
11
-50.152223922088666
21
3.2347827319036115
31
0
0
LINE
5
174
100
AcDbEntity
8
0
100
AcDbLine
10
-51.557684618636159
20
17.158417558894037
30
0
11
-51.49304616435365
21
10.734403096071301
31
0
0
LINE
5
175
100
AcDbEntity
8
0
100
AcDbLine
10
-51.454218604895615
20
6.8755731428612723
30
0
11
-51.385036565715446
21
-4.2837874421436823e-13
31
0
0
LINE
5
176
100
AcDbEntity
8
0
100
AcDbLine
10
-52.809809955456686
20
14.989672858078151
30
0
11
-52.80980995545648
21
3.1572070443818525
31
0
0
LINE
5
177
100
AcDbEntity
8
0
100
AcDbLine
10
-54.179448448870303
20
6.8060698717951951
30
0
11
-54.17944844887019
21
-4.513366552703058e-13
31
0
0
LINE
5
178
100
AcDbEntity
8
0
100
AcDbLine
10
-54.179448448871206
20
12.6173893994838
30
0
11
-54.179448448871177
21
10.806069931399842
31
0
0
LINE
5
179
100
AcDbEntity
8
0
100
AcDbLine
10
-55.397526506336227
20
10.507616316371111
30
0
11
-55.323696789100239
21
3.1701393210659679
31
0
0
LINE
5
180
100
AcDbEntity
8
0
100
AcDbLine
10
-56.625691471907174
20
6.8109297320236282
30
0
11
-56.557159874935749
21
-4.7087110105668478e-13
31
0
0
LINE
5
181
100
AcDbEntity
8
0
100
AcDbLine
10
-57.851996000792809
20
6.2563504463474526
30
0
11
-57.851996000792752
21
3.0279202227065625
31
0
0
LINE
5
182
100
AcDbEntity
8
0
100
AcDbLine
10
-59.22163449420654
20
3.8840669877544824
30
0
11
-59.221634494206477
21
-4.9276149298092829e-13
31
0
0
LINE
5
183
100
AcDbEntity
8
0
100
AcDbLine
10
-18.475162097012589
20
31.999919430093421
30
0
11
-18.475162097012401
21
19.925188554544008
31
0
0
LINE
5
184
100
AcDbEntity
8
0
100
AcDbLine
10
-19.646983502038527
20
34.02957364099489
30
0
11
-19.619410437242575
21
31.28925800381478
31
0
0
LINE
5
185
100
AcDbEntity
8
0
100
AcDbLine
10
-20.921405120049513
20
34.930048414772436
30
0
11
-20.770482711374719
21
19.930807686436928
31
0
0
LINE
5
186
100
AcDbEntity
8
0
100
AcDbLine
10
-13.567098672425548
20
23.498904211938999
30
0
11
-13.567098672425493
21
19.925188554544
31
0
0
LINE
5
187
100
AcDbEntity
8
0
100
AcDbLine
10
-15.939670430856896
20
27.608319042144728
30
0
11
-15.862419286787812
21
19.930807686436921
31
0
0
LINE
5
188
100
AcDbEntity
8
0
100
AcDbLine
10
-21.844343461820763
20
37.835512733854856
30
0
11
-21.844343461820657
21
31.191703943948134
31
0
0
LINE
5
189
100
AcDbEntity
8
0
100
AcDbLine
10
-23.213981955234473
20
34.840566771361473
30
0
11
-23.213981955234246
21
19.840566771361473
31
0
0
LINE
5
190
100
AcDbEntity
8
0
100
AcDbLine
10
-23.213981955235376
20
40.207796192450822
30
0
11
-23.213981955235354
21
38.840566830966125
31
0
0
LINE
5
191
100
AcDbEntity
8
0
100
AcDbLine
10
-24.470722469229756
20
42.384534614619085
30
0
11
-24.358230295464416
21
31.204636220632249
31
0
0
LINE
5
192
100
AcDbEntity
8
0
100
AcDbLine
10
-25.758527240998387
20
44.615077909551779
30
0
11
-25.699052537729401
21
38.704256584799936
31
0
0
LINE
5
193
100
AcDbEntity
8
0
100
AcDbLine
10
-25.660224978271351
20
34.845426631589909
30
0
11
-25.509302569596564
21
19.846185903254394
31
0
0
LINE
5
194
100
AcDbEntity
8
0
100
AcDbLine
10
-26.558719184627655
20
46.0366451837372
30
0
11
-26.558719184627407
21
31.036645183737399
31
0
0
LINE
5
195
100
AcDbEntity
8
0
100
AcDbLine
10
-27.928357678041227
20
34.685508011150738
30
0
11
-27.928357678040996
21
19.685508011150738
31
0
0
LINE
5
196
100
AcDbEntity
8
0
100
AcDbLine
10
-27.928357678042268
20
48.373334470320792
30
0
11
-27.928357678042104
21
38.68550807075539
31
0
0
LINE
5
197
100
AcDbEntity
8
0
100
AcDbLine
10
-29.223528426945968
20
46.048818188756826
30
0
11
-29.07260601827117
21
31.049577460421514
31
0
0
LINE
5
198
100
AcDbEntity
8
0
100
AcDbLine
10
-30.558109814633859
20
52.928198782209783
30
0
11
-30.413428260536151
21
38.5491978245892
31
0
0
LINE
5
199
100
AcDbEntity
8
0
100
AcDbLine
10
-30.374600701078105
20
34.690367871379173
30
0
11
-30.223678292403314
21
19.691127143043659
31
0
0
LINE
5
200
100
AcDbEntity
8
0
100
AcDbLine
10
-32.666481514447149
20
32.908965343805093
30
0
11
-32.66648151444695
21
19.964221177998148
31
0
0
LINE
5
201
100
AcDbEntity
8
0
100
AcDbLine
10
-32.666481514448243
20
49.8789411514622
30
0
11
-32.666481514448058
21
38.9642212376028
31
0
0
LINE
5
202
100
AcDbEntity
8
0
100
AcDbLine
10
-35.218275191006484
20
45.459104853227437
30
0
11
-35.151552096942105
21
38.82791099143661
31
0
0
LINE
5
203
100
AcDbEntity
8
0
100
AcDbLine
10
-35.091995646710046
20
32.908965343805129
30
0
11
-34.961802128809268
21
19.969840309891069
31
0
0
LINE
5
204
100
AcDbEntity
8
0
100
AcDbLine
10
-37.683318517700506
20
32.908965343805164
30
0
11
-37.6833185177003
21
19.778412400099874
31
0
0
LINE
5
205
100
AcDbEntity
8
0
100
AcDbLine
10
-37.683318517701451
20
41.189524568530317
30
0
11
-37.683318517701416
21
38.778412459704519
31
0
0
LINE
5
206
100
AcDbEntity
8
0
100
AcDbLine
10
-40.110702258487009
20
32.908965343805207
30
0
11
-39.978639132062625
21
19.784031531992795
31
0
0
LINE
5
207
100
AcDbEntity
8
0
100
AcDbLine
10
-41.330517027540097
20
32.908965343805221
30
0
11
-41.330517027540068
21
31.501167128483075
31
0
0
LINE
5
208
100
AcDbEntity
8
0
100
AcDbLine
10
-42.700155520953842
20
32.500107985599868
30
0
11
-42.700155520953658
21
20.150029955896418
31
0
0
LINE
5
209
100
AcDbEntity
8
0
100
AcDbLine
10
-45.078241081340032
20
28.381142970262371
30
0
11
-44.995476135315975
21
20.155649087789339
31
0
0
LINE
5
210
100
AcDbEntity
8
0
100
AcDbLine
10
-38.907328312918409
20
39.069477414251189
30
0
11
-38.875527230253169
21
35.908965343804915
31
0
0
LINE
5
211
100
AcDbEntity
8
0
100
AcDbLine
10
-38.845341220559426
20
32.908965343805185
30
0
11
-38.827566857930478
21
31.142481849370647
31
0
0
LINE
5
212
100
AcDbEntity
8
0
100
AcDbLine
10
-36.313680024286924
20
43.561808027127952
30
0
11
-36.313680024286796
21
35.908965343804965
31
0
0
LINE
5
213
100
AcDbEntity
8
0
100
AcDbLine
10
-36.313680024286739
20
32.90896534380515
30
0
11
-36.313680024286718
21
31.129549572686535
31
0
0
LINE
5
214
100
AcDbEntity
8
0
100
AcDbLine
10
-33.961652263351922
20
46.327531355604236
30
0
11
-33.856820618476213
21
35.908965343805008
31
0
0
LINE
5
215
100
AcDbEntity
8
0
100
AcDbLine
10
-33.82663460878247
20
32.908965343805107
30
0
11
-33.81072985467712
21
31.32829062726892
31
0
0
LINE
5
216
100
AcDbEntity
8
0
100
AcDbLine
10
-31.296843021033609
20
46.31535835058461
30
0
11
-31.296843021033439
21
35.908965343805058
31
0
0
LINE
5
217
100
AcDbEntity
8
0
100
AcDbLine
10
-31.296843021033389
20
32.908965343805072
30
0
11
-31.296843021033361
21
31.315358350584805
31
0
0
LINE
5
218
100
AcDbEntity
8
0
100
AcDbLine
10
-12.445295291442125
20
21.555883759973355
30
0
11
-12.420860431503591
21
19.127454810293894
31
0
0
LINE
5
219
100
AcDbEntity
8
0
100
AcDbLine
10
-12.361522546884272
20
13.230231041269725
30
0
11
-12.339832101455777
21
11.074552402533847
31
0
0
LINE
5
220
100
AcDbEntity
8
0
100
AcDbLine
10
-13.229528933260472
20
18.35113727689459
30
0
11
-13.229528933260461
21
17.726799878771168
31
0
0
LINE
5
221
100
AcDbEntity
8
0
100
AcDbLine
10
-13.229528933260362
20
11.726799878773216
30
0
11
-13.22952893326022
21
3.3511372768947858
31
0
0
LINE
5
222
100
AcDbEntity
8
0
100
AcDbLine
10
-15.894338175578779
20
18.363310281914217
30
0
11
-15.842396803736836
21
13.201179973644305
31
0
0
LINE
5
223
100
AcDbEntity
8
0
100
AcDbLine
10
-15.801361340955653
20
9.1229202237627867
30
0
11
-15.743415766903981
21
3.3640695535789011
31
0
0
LINE
5
224
100
AcDbEntity
8
0
100
AcDbLine
10
-45.196316874589556
20
18.298666871076573
30
0
11
-45.107217679735385
21
9.4436513432084936
31
0
0
LINE
5
225
100
AcDbEntity
8
0
100
AcDbLine
10
-45.075128243348878
20
6.2544815875431805
30
0
11
-45.045394465914761
21
3.2994261427412575
31
0
0
ENDSEC
0
SECTION
2
OBJECTS
0
DICTIONARY
5
C
100
AcDbDictionary
3
ACAD_GROUP
350
D
3
ACAD_MLINESTYLE
350
17
0
DICTIONARY
5
D
100
AcDbDictionary
0
DICTIONARY
5
1A
330
C
100
AcDbDictionary
0
DICTIONARY
5
17
100
AcDbDictionary
0
ENDSEC
0
EOF
