0
SECTION
2
HEADER
9
$INSUNITS
70
4
9
$ACADVER
1
AC1014
9
$HANDSEED
5
FFFF
0
ENDSEC
0
SECTION
2
TABLES
0
TABLE
2
VPORT
5
8
100
AcDbSymbolTable
0
ENDTAB
0
TABLE
2
LTYPE
5
5
100
AcDbSymbolTable
0
LTYPE
5
14
100
AcDbSymbolTableRecord
100
AcDbLinetypeTableRecord
2
BYBLOCK
70
0
0
LTYPE
5
15
100
AcDbSymbolTableRecord
100
AcDbLinetypeTableRecord
2
BYLAYER
70
0
0
ENDTAB
0
TABLE
2
LAYER
5
2
100
AcDbSymbolTable
70
2
0
LAYER
5
50
100
AcDbSymbolTableRecord
100
AcDbLayerTableRecord
2
0
70
0
6
CONTINUOUS
0
ENDTAB
0
TABLE
2
STYLE
5
3
100
AcDbSymbolTable
70
1
0
STYLE
5
11
100
AcDbSymbolTableRecord
100
AcDbTextStyleTableRecord
2
STANDARD
70
0
0
ENDTAB
0
TABLE
2
VIEW
5
6
100
AcDbSymbolTable
70
0
0
ENDTAB
0
TABLE
2
UCS
5
7
100
AcDbSymbolTable
70
0
0
ENDTAB
0
TABLE
2
APPID
5
9
100
AcDbSymbolTable
70
2
0
APPID
5
12
100
AcDbSymbolTableRecord
100
AcDbRegAppTableRecord
2
ACAD
70
0
0
ENDTAB
0
TABLE
2
DIMSTYLE
5
A
100
AcDbSymbolTable
70
1
0
ENDTAB
0
TABLE
2
BLOCK_RECORD
5
1
100
AcDbSymbolTable
70
1
0
BLOCK_RECORD
5
1F
100
AcDbSymbolTableRecord
100
AcDbBlockTableRecord
2
*MODEL_SPACE
0
BLOCK_RECORD
5
1B
100
AcDbSymbolTableRecord
100
AcDbBlockTableRecord
2
*PAPER_SPACE
0
ENDTAB
0
ENDSEC
0
SECTION
2
BLOCKS
0
BLOCK
5
20
100
AcDbEntity
100
AcDbBlockBegin
2
*MODEL_SPACE
0
ENDBLK
5
21
100
AcDbEntity
100
AcDbBlockEnd
0
BLOCK
5
1C
100
AcDbEntity
100
AcDbBlockBegin
2
*PAPER_SPACE
0
ENDBLK
5
1D
100
AcDbEntity
100
AcDbBlockEnd
0
ENDSEC
0
SECTION
2
ENTITIES
0
LWPOLYLINE
5
100
100
AcDbEntity
8
0
100
AcDbPolyline
90
4
70
1
43
0.0
10
42.804268809900833
20
28.017186969059118
10
52.804268809900833
20
28.017186969059118
10
52.804268809900833
20
25.017186969059118
10
42.804268809900833
20
25.017186969059118
0
LINE
5
101
100
AcDbEntity
8
0
100
AcDbLine
10
-32.398317673887092
20
36.560418969240658
30
0
11
-20.628780052067484
21
36.560418969240459
31
0
0
LINE
5
102
100
AcDbEntity
8
0
100
AcDbLine
10
-20.628780052067484
20
36.560418969240459
30
0
11
-20.62878005206748
21
39.560418969240473
31
0
0
LINE
5
103
100
AcDbEntity
8
0
100
AcDbLine
10
-20.62878005206748
20
39.560418969240473
30
0
11
-30.628780052067476
21
39.560418969240281
31
0
0
LINE
5
104
100
AcDbEntity
8
0
100
AcDbLine
10
-30.628780052067476
20
39.560418969240281
30
0
11
-20.467772361775069
21
56.786966003333312
31
0
0
LINE
5
105
100
AcDbEntity
8
0
100
AcDbLine
10
0
20
0
30
0
11
-10.204115828057951
21
17.201047066024159
31
0
0
LINE
5
106
100
AcDbEntity
8
0
100
AcDbLine
10
-60.01934045644343
20
10.462926744018993
30
0
11
-40.01934045644343
21
10.462926744019159
31
0
0
LINE
5
107
100
AcDbEntity
8
0
100
AcDbLine
10
-40.01934045644343
20
10.462926744019159
30
0
11
-45.121398370472072
21
19.063450277031439
31
0
0
LINE
5
108
100
AcDbEntity
8
0
100
AcDbLine
10
-45.121398370472072
20
19.063450277031439
30
0
11
-42.54124131056092
21
20.594067651227462
31
0
0
LINE
5
109
100
AcDbEntity
8
0
100
AcDbLine
10
-42.54124131056092
20
20.594067651227462
30
0
11
-36.53118070839335
21
10.462926744019184
31
0
0
LINE
5
110
100
AcDbEntity
8
0
100
AcDbLine
10
-11.746636205397483
20
19.801268982161336
30
0
11
-19.944387112773811
21
13.442441566621525
31
0
0
LINE
5
111
100
AcDbEntity
8
0
100
AcDbLine
10
-19.944387112773811
20
13.442441566621525
30
0
11
-18.105665951814892
21
11.071976529494441
31
0
0
LINE
5
112
100
AcDbEntity
8
0
100
AcDbLine
10
-18.105665951814892
20
11.071976529494441
30
0
11
-10.204115828057954
21
17.201047066024159
31
0
0
LINE
5
113
100
AcDbEntity
8
0
100
AcDbLine
10
-20.467772361775069
20
56.786966003333312
30
0
11
-16.848694119426465
21
28.401792515173412
31
0
0
LINE
5
114
100
AcDbEntity
8
0
100
AcDbLine
10
-16.848694119426465
20
28.401792515173412
30
0
11
-11.746636205397483
21
19.801268982161336
31
0
0
LINE
5
115
100
AcDbEntity
8
0
100
AcDbLine
10
-60.01934045644343
20
10.462926744018993
30
0
11
-37.478821519033289
21
27.947145452194139
31
0
0
LINE
5
116
100
AcDbEntity
8
0
100
AcDbLine
10
-37.478821519033289
20
27.947145452194139
30
0
11
-32.398317673887092
21
36.560418969240658
31
0
0
LINE
5
117
100
AcDbEntity
8
0
100
AcDbLine
10
0
20
0
30
0
11
-26.531180708393354
21
10.462926744019267
31
0
0
LINE
5
118
100
AcDbEntity
8
0
100
AcDbLine
10
-26.531180708393354
20
10.462926744019267
30
0
11
-36.53118070839335
21
10.462926744019184
31
0
0
ENDSEC
0
SECTION
2
OBJECTS
0
DICTIONARY
5
C
100
AcDbDictionary
3
ACAD_GROUP
350
D
3
ACAD_MLINESTYLE
350
17
0
DICTIONARY
5
D
100
AcDbDictionary
0
DICTIONARY
5
1A
330
C
100
AcDbDictionary
0
DICTIONARY
5
17
100
AcDbDictionary
0
ENDSEC
0
EOF
