0
SECTION
2
HEADER
9
$INSUNITS
70
4
9
$ACADVER
1
AC1014
9
$HANDSEED
5
FFFF
0
ENDSEC
0
SECTION
2
TABLES
0
TABLE
2
VPORT
5
8
100
AcDbSymbolTable
0
ENDTAB
0
TABLE
2
LTYPE
5
5
100
AcDbSymbolTable
0
LTYPE
5
14
100
AcDbSymbolTableRecord
100
AcDbLinetypeTableRecord
2
BYBLOCK
70
0
0
LTYPE
5
15
100
AcDbSymbolTableRecord
100
AcDbLinetypeTableRecord
2
BYLAYER
70
0
0
ENDTAB
0
TABLE
2
LAYER
5
2
100
AcDbSymbolTable
70
2
0
LAYER
5
50
100
AcDbSymbolTableRecord
100
AcDbLayerTableRecord
2
0
70
0
6
CONTINUOUS
0
ENDTAB
0
TABLE
2
STYLE
5
3
100
AcDbSymbolTable
70
1
0
STYLE
5
11
100
AcDbSymbolTableRecord
100
AcDbTextStyleTableRecord
2
STANDARD
70
0
0
ENDTAB
0
TABLE
2
VIEW
5
6
100
AcDbSymbolTable
70
0
0
ENDTAB
0
TABLE
2
UCS
5
7
100
AcDbSymbolTable
70
0
0
ENDTAB
0
TABLE
2
APPID
5
9
100
AcDbSymbolTable
70
2
0
APPID
5
12
100
AcDbSymbolTableRecord
100
AcDbRegAppTableRecord
2
ACAD
70
0
0
ENDTAB
0
TABLE
2
DIMSTYLE
5
A
100
AcDbSymbolTable
70
1
0
ENDTAB
0
TABLE
2
BLOCK_RECORD
5
1
100
AcDbSymbolTable
70
1
0
BLOCK_RECORD
5
1F
100
AcDbSymbolTableRecord
100
AcDbBlockTableRecord
2
*MODEL_SPACE
0
BLOCK_RECORD
5
1B
100
AcDbSymbolTableRecord
100
AcDbBlockTableRecord
2
*PAPER_SPACE
0
ENDTAB
0
ENDSEC
0
SECTION
2
BLOCKS
0
BLOCK
5
20
100
AcDbEntity
100
AcDbBlockBegin
2
*MODEL_SPACE
0
ENDBLK
5
21
100
AcDbEntity
100
AcDbBlockEnd
0
BLOCK
5
1C
100
AcDbEntity
100
AcDbBlockBegin
2
*PAPER_SPACE
0
ENDBLK
5
1D
100
AcDbEntity
100
AcDbBlockEnd
0
ENDSEC
0
SECTION
2
ENTITIES
0
LWPOLYLINE
5
100
100
AcDbEntity
8
0
100
AcDbPolyline
90
4
70
1
43
0.0
10
42.804268809900833
20
28.017186969059118
10
52.804268809900833
20
28.017186969059118
10
52.804268809900833
20
25.017186969059118
10
42.804268809900833
20
25.017186969059118
0
LINE
5
101
100
AcDbEntity
8
0
100
AcDbLine
10
-61.464101615137579
20
2.6885856645822995e-15
30
0
11
-42.464101615137437
21
32.908965343808596
31
0
0
LINE
5
102
100
AcDbEntity
8
0
100
AcDbLine
10
-42.464101615137437
20
32.908965343808596
30
0
11
-30.73205080756853
21
32.90896534380861
31
0
0
LINE
5
103
100
AcDbEntity
8
0
100
AcDbLine
10
-30.73205080756853
20
32.90896534380861
30
0
11
-30.732050807568527
21
35.90896534380861
31
0
0
LINE
5
104
100
AcDbEntity
8
0
100
AcDbLine
10
-30.732050807568527
20
35.90896534380861
30
0
11
-40.732050807568527
21
35.90896534380861
31
0
0
LINE
5
105
100
AcDbEntity
8
0
100
AcDbLine
10
-40.732050807568527
20
35.90896534380861
30
0
11
-30.732050807568463
21
53.229473419497346
31
0
0
LINE
5
106
100
AcDbEntity
8
0
100
AcDbLine
10
0
20
0
30
0
11
-9.9999999999999005
21
17.320508075688828
31
0
0
LINE
5
107
100
AcDbEntity
8
0
100
AcDbLine
10
-11.732050807568669
20
20.320508075688561
30
0
11
-30.732050807568463
21
53.229473419497346
31
0
0
LINE
5
108
100
AcDbEntity
8
0
100
AcDbLine
10
-61.464101615137579
20
2.6885856645822995e-15
30
0
11
-41.464101615137579
21
9.7736604089758482e-15
31
0
0
LINE
5
109
100
AcDbEntity
8
0
100
AcDbLine
10
-38
20
-1.1657341758564144e-14
30
0
11
0
21
-2.2204460492503131e-14
31
0
0
LINE
5
110
100
AcDbEntity
8
0
100
AcDbLine
10
-41.464101615137579
20
9.7736604089758482e-15
30
0
11
-46.464101615137572
21
8.6602540378444033
31
0
0
LINE
5
111
100
AcDbEntity
8
0
100
AcDbLine
10
-46.464101615137572
20
8.6602540378444033
30
0
11
-43.866025403784391
21
10.160254037844339
31
0
0
LINE
5
112
100
AcDbEntity
8
0
100
AcDbLine
10
-43.866025403784391
20
10.160254037844339
30
0
11
-38
21
-1.1657341758564144e-14
31
0
0
LINE
5
113
100
AcDbEntity
8
0
100
AcDbLine
10
-11.732050807568669
20
20.320508075688561
30
0
11
-17.598076211352907
21
10.160254037844648
31
0
0
LINE
5
114
100
AcDbEntity
8
0
100
AcDbLine
10
-17.598076211352907
20
10.160254037844648
30
0
11
-14.999999999999602
21
8.6602540378446378
31
0
0
LINE
5
115
100
AcDbEntity
8
0
100
AcDbLine
10
-14.999999999999602
20
8.6602540378446378
30
0
11
-9.9999999999995808
21
17.320508075689013
31
0
0
LINE
5
116
100
AcDbEntity
8
0
100
AcDbLine
10
-30.732050807568463
20
53.229473419497346
30
0
11
-30.73205080756853
21
0
31
0
0
ENDSEC
0
SECTION
2
OBJECTS
0
DICTIONARY
5
C
100
AcDbDictionary
3
ACAD_GROUP
350
D
3
ACAD_MLINESTYLE
350
17
0
DICTIONARY
5
D
100
AcDbDictionary
0
DICTIONARY
5
1A
330
C
100
AcDbDictionary
0
DICTIONARY
5
17
100
AcDbDictionary
0
ENDSEC
0
EOF
