0
SECTION
2
HEADER
9
$INSUNITS
70
4
9
$ACADVER
1
AC1014
9
$HANDSEED
5
FFFF
0
ENDSEC
0
SECTION
2
TABLES
0
TABLE
2
VPORT
5
8
100
AcDbSymbolTable
0
ENDTAB
0
TABLE
2
LTYPE
5
5
100
AcDbSymbolTable
0
LTYPE
5
14
100
AcDbSymbolTableRecord
100
AcDbLinetypeTableRecord
2
BYBLOCK
70
0
0
LTYPE
5
15
100
AcDbSymbolTableRecord
100
AcDbLinetypeTableRecord
2
BYLAYER
70
0
0
ENDTAB
0
TABLE
2
LAYER
5
2
100
AcDbSymbolTable
70
2
0
LAYER
5
50
100
AcDbSymbolTableRecord
100
AcDbLayerTableRecord
2
0
70
0
6
CONTINUOUS
0
ENDTAB
0
TABLE
2
STYLE
5
3
100
AcDbSymbolTable
70
1
0
STYLE
5
11
100
AcDbSymbolTableRecord
100
AcDbTextStyleTableRecord
2
STANDARD
70
0
0
ENDTAB
0
TABLE
2
VIEW
5
6
100
AcDbSymbolTable
70
0
0
ENDTAB
0
TABLE
2
UCS
5
7
100
AcDbSymbolTable
70
0
0
ENDTAB
0
TABLE
2
APPID
5
9
100
AcDbSymbolTable
70
2
0
APPID
5
12
100
AcDbSymbolTableRecord
100
AcDbRegAppTableRecord
2
ACAD
70
0
0
ENDTAB
0
TABLE
2
DIMSTYLE
5
A
100
AcDbSymbolTable
70
1
0
ENDTAB
0
TABLE
2
BLOCK_RECORD
5
1
100
AcDbSymbolTable
70
1
0
BLOCK_RECORD
5
1F
100
AcDbSymbolTableRecord
100
AcDbBlockTableRecord
2
*MODEL_SPACE
0
BLOCK_RECORD
5
1B
100
AcDbSymbolTableRecord
100
AcDbBlockTableRecord
2
*PAPER_SPACE
0
ENDTAB
0
ENDSEC
0
SECTION
2
BLOCKS
0
BLOCK
5
20
100
AcDbEntity
100
AcDbBlockBegin
2
*MODEL_SPACE
0
ENDBLK
5
21
100
AcDbEntity
100
AcDbBlockEnd
0
BLOCK
5
1C
100
AcDbEntity
100
AcDbBlockBegin
2
*PAPER_SPACE
0
ENDBLK
5
1D
100
AcDbEntity
100
AcDbBlockEnd
0
ENDSEC
0
SECTION
2
ENTITIES
0
LINE
5
100
100
AcDbEntity
8
0
100
AcDbLine
10
155.09938270591897
20
-127.81509478904574
30
0
11
73.427924096773509
21
-127.81509478904574
31
0
0
LINE
5
101
100
AcDbEntity
8
0
100
AcDbLine
10
950
20
-500
30
0
11
950
21
-580
31
0
0
LWPOLYLINE
5
102
100
AcDbEntity
8
0
100
AcDbPolyline
90
12
70
1
43
0.0
10
650
20
-565
10
650
20
-580
10
950
20
-580
10
950
20
-500
10
650
20
-500
10
650
20
-515
10
660
20
-515
10
660
20
-530
10
650
20
-530
10
650
20
-550
10
660
20
-550
10
660
20
-565
0
CIRCLE
5
103
100
AcDbEntity
8
0
100
AcDbCircle
10
687.5
20
-510
30
0
40
2.5000000000000271
210
0
220
0
230
1
0
CIRCLE
5
104
100
AcDbEntity
8
0
100
AcDbCircle
10
743.75
20
-510
30
0
40
2.5000000000000271
210
0
220
0
230
1
0
CIRCLE
5
105
100
AcDbEntity
8
0
100
AcDbCircle
10
800
20
-510
30
0
40
2.5000000000000271
210
0
220
0
230
1
0
LWPOLYLINE
5
106
100
AcDbEntity
8
0
100
AcDbPolyline
90
13
70
1
43
0.0
10
-265.00000000000006
20
-666.88284572392706
10
350.00000000000006
20
-666.88284572392706
10
350.00000000000023
20
-706.8828457239274
10
330
20
-706.8828457239274
10
330
20
-756.88284572392706
10
350.00000000000023
20
-756.88284572392706
10
370
20
-756.88284572392706
10
370
20
-806.88284572392706
10
350
20
-806.88284572392706
10
350
20
-866.88284572392706
10
-265
20
-866.88284572392706
42
-0.41421356237310125
10
-274.99999999999994
20
-856.88284572392706
10
-274.99999999999994
20
-676.88284572392695
42
-0.41421356237309503
0
LWPOLYLINE
5
107
100
AcDbEntity
8
0
100
AcDbPolyline
90
8
70
1
43
0.0
10
-250
20
-711.88284572392706
10
-210
20
-711.88284572392706
10
-210
20
-726.88284572392706
10
-230
20
-726.88284572392706
10
-230
20
-751.88284572392706
10
-245
20
-751.88284572392706
10
-245
20
-726.88284572392706
10
-250
20
-726.88284572392706
0
LWPOLYLINE
5
108
100
AcDbEntity
8
0
100
AcDbPolyline
90
8
70
1
43
0.0
10
-100
20
-726.88284572392706
10
-100
20
-711.88284572392706
10
-140
20
-711.88284572392706
10
-140
20
-726.88284572392706
10
-120
20
-726.88284572392706
10
-120
20
-751.88284572392706
10
-105
20
-751.88284572392706
10
-105
20
-726.88284572392706
0
LWPOLYLINE
5
109
100
AcDbEntity
8
0
100
AcDbPolyline
90
8
70
1
43
0.0
10
-210.00000000000006
20
-821.88284572392706
10
-210.00000000000006
20
-806.88284572392706
10
-230.00000000000006
20
-806.88284572392706
10
-230.00000000000006
20
-781.88284572392706
10
-245.00000000000006
20
-781.88284572392706
10
-245.00000000000006
20
-806.88284572392706
10
-250.00000000000006
20
-806.88284572392706
10
-250.00000000000006
20
-821.88284572392706
0
LWPOLYLINE
5
110
100
AcDbEntity
8
0
100
AcDbPolyline
90
8
70
1
43
0.0
10
-100.00000000000003
20
-806.88284572392706
10
-105.00000000000003
20
-806.88284572392706
10
-105.00000000000003
20
-781.88284572392706
10
-120.00000000000003
20
-781.88284572392706
10
-120.00000000000003
20
-806.88284572392706
10
-140.00000000000003
20
-806.88284572392706
10
-140.00000000000003
20
-821.88284572392706
10
-100.00000000000003
20
-821.88284572392706
0
LWPOLYLINE
5
111
100
AcDbEntity
8
0
100
AcDbPolyline
90
4
70
1
43
0.0
10
42.5
20
-686.88284579122546
10
42.012189941669646
20
-756.88284571218492
10
57.5
20
-756.88284579097751
10
57.5
20
-686.88284579097763
0
LWPOLYLINE
5
112
100
AcDbEntity
8
0
100
AcDbPolyline
90
4
70
1
43
0.0
10
57.5
20
-776.88284572392706
10
42.5
20
-776.88284572392706
10
42.5
20
-846.88284572392706
10
57.5
20
-846.88284572392706
0
LWPOLYLINE
5
113
100
AcDbEntity
8
0
100
AcDbPolyline
90
4
70
1
43
0.0
10
647.5
20
-930
10
647.5
20
-1000
10
662.5
20
-1000
10
662.5
20
-930
0
LWPOLYLINE
5
114
100
AcDbEntity
8
0
100
AcDbPolyline
90
13
70
1
43
0.0
10
330
20
-1000
10
350.00000000000023
20
-1000
10
370
20
-1000
10
370
20
-1050
10
350
20
-1050
10
350
20
-1110
10
965
20
-1110
42
0.41421356237310336
10
975
20
-1100
10
975
20
-919.99999999999989
42
0.41421356237309503
10
965.00000000000011
20
-910
10
350.00000000000006
20
-910
10
350.00000000000023
20
-950.00000000000045
10
330
20
-950.00000000000045
0
LWPOLYLINE
5
115
100
AcDbEntity
8
0
100
AcDbPolyline
90
4
70
1
43
0.0
10
662.5
20
-1090
10
662.5
20
-1020
10
647.5
20
-1020
10
647.5
20
-1090
0
LWPOLYLINE
5
116
100
AcDbEntity
8
0
100
AcDbPolyline
90
8
70
1
43
0.0
10
800
20
-1050
10
800
20
-1065
10
840
20
-1065
10
840
20
-1050
10
820
20
-1050
10
820
20
-1025
10
805
20
-1025
10
805
20
-1050
0
LWPOLYLINE
5
117
100
AcDbEntity
8
0
100
AcDbPolyline
90
8
70
1
43
0.0
10
945
20
-1025
10
930
20
-1025
10
930
20
-1050
10
910
20
-1050
10
910
20
-1065
10
950
20
-1065
10
950
20
-1050
10
945
20
-1050
0
LWPOLYLINE
5
118
100
AcDbEntity
8
0
100
AcDbPolyline
90
8
70
1
43
0.0
10
950
20
-970
10
945
20
-970
10
945
20
-995
10
930
20
-995
10
930
20
-970
10
910
20
-970
10
910
20
-955
10
950
20
-955
0
LWPOLYLINE
5
119
100
AcDbEntity
8
0
100
AcDbPolyline
90
8
70
1
43
0.0
10
800
20
-970
10
805
20
-970
10
805
20
-995
10
820
20
-995
10
820
20
-970
10
840
20
-970
10
840
20
-955
10
800
20
-955
0
LINE
5
120
100
AcDbEntity
8
0
100
AcDbLine
10
650
20
-565
30
0
11
650
21
-580
31
0
0
CIRCLE
5
121
100
AcDbEntity
8
0
100
AcDbCircle
10
800
20
-510
30
0
40
2.5000000000000271
210
0
220
0
230
1
0
LINE
5
122
100
AcDbEntity
8
0
100
AcDbLine
10
650
20
-550
30
0
11
650
21
-530
31
0
0
LINE
5
123
100
AcDbEntity
8
0
100
AcDbLine
10
650
20
-530
30
0
11
660
21
-530
31
0
0
LINE
5
124
100
AcDbEntity
8
0
100
AcDbLine
10
660
20
-550
30
0
11
650
21
-550
31
0
0
CIRCLE
5
125
100
AcDbEntity
8
0
100
AcDbCircle
10
743.75
20
-510
30
0
40
2.5000000000000271
210
0
220
0
230
1
0
LINE
5
126
100
AcDbEntity
8
0
100
AcDbLine
10
650
20
-565
30
0
11
660
21
-565
31
0
0
LINE
5
127
100
AcDbEntity
8
0
100
AcDbLine
10
660
20
-565
30
0
11
660
21
-550
31
0
0
LINE
5
128
100
AcDbEntity
8
0
100
AcDbLine
10
650
20
-515
30
0
11
660
21
-515
31
0
0
CIRCLE
5
129
100
AcDbEntity
8
0
100
AcDbCircle
10
687.5
20
-510
30
0
40
2.5000000000000271
210
0
220
0
230
1
0
LINE
5
130
100
AcDbEntity
8
0
100
AcDbLine
10
650
20
-500
30
0
11
650
21
-515
31
0
0
LINE
5
131
100
AcDbEntity
8
0
100
AcDbLine
10
660
20
-515
30
0
11
660
21
-530
31
0
0
CIRCLE
5
132
100
AcDbEntity
8
0
100
AcDbCircle
10
125
20
-360
30
0
40
2.5000000000000271
210
0
220
0
230
1
0
LWPOLYLINE
5
133
100
AcDbEntity
8
0
100
AcDbPolyline
90
20
70
1
43
0.0
10
650
20
-400
10
650
20
-380
10
660
20
-380
10
660
20
-365
10
650
20
-365
10
650
20
-350
10
50
20
-350
10
50
20
-365
10
60
20
-365
10
60
20
-380
10
50
20
-380
10
50
20
-400
10
60
20
-400
10
60
20
-415.40637718811115
10
50
20
-415.40637718811115
10
50
20
-430
10
650
20
-430
10
650
20
-415
10
660
20
-415
10
660
20
-400
0
CIRCLE
5
134
100
AcDbEntity
8
0
100
AcDbCircle
10
350
20
-360
30
0
40
2.5000000000000271
210
0
220
0
230
1
0
CIRCLE
5
135
100
AcDbEntity
8
0
100
AcDbCircle
10
462.5
20
-360
30
0
40
2.5000000000000271
210
0
220
0
230
1
0
CIRCLE
5
136
100
AcDbEntity
8
0
100
AcDbCircle
10
518.75
20
-360
30
0
40
2.5000000000000271
210
0
220
0
230
1
0
CIRCLE
5
137
100
AcDbEntity
8
0
100
AcDbCircle
10
575
20
-360
30
0
40
2.5000000000000271
210
0
220
0
230
1
0
CIRCLE
5
138
100
AcDbEntity
8
0
100
AcDbCircle
10
406.25
20
-360
30
0
40
2.5000000000000271
210
0
220
0
230
1
0
CIRCLE
5
139
100
AcDbEntity
8
0
100
AcDbCircle
10
181.25
20
-360
30
0
40
2.5000000000000271
210
0
220
0
230
1
0
LINE
5
140
100
AcDbEntity
8
0
100
AcDbLine
10
650
20
-415
30
0
11
650
21
-430
31
0
0
CIRCLE
5
141
100
AcDbEntity
8
0
100
AcDbCircle
10
631.25
20
-360
30
0
40
2.5000000000000271
210
0
220
0
230
1
0
LINE
5
142
100
AcDbEntity
8
0
100
AcDbLine
10
650
20
-415
30
0
11
660
21
-415
31
0
0
CIRCLE
5
143
100
AcDbEntity
8
0
100
AcDbCircle
10
631.25
20
-360
30
0
40
2.5000000000000271
210
0
220
0
230
1
0
LINE
5
144
100
AcDbEntity
8
0
100
AcDbLine
10
650
20
-380
30
0
11
660
21
-380
31
0
0
LINE
5
145
100
AcDbEntity
8
0
100
AcDbLine
10
650
20
-350
30
0
11
650
21
-365
31
0
0
LINE
5
146
100
AcDbEntity
8
0
100
AcDbLine
10
660
20
-400
30
0
11
650
21
-400
31
0
0
LINE
5
147
100
AcDbEntity
8
0
100
AcDbLine
10
650
20
-400
30
0
11
650
21
-380
31
0
0
LINE
5
148
100
AcDbEntity
8
0
100
AcDbLine
10
660
20
-415
30
0
11
660
21
-400
31
0
0
LINE
5
149
100
AcDbEntity
8
0
100
AcDbLine
10
650
20
-365
30
0
11
660
21
-365
31
0
0
LINE
5
150
100
AcDbEntity
8
0
100
AcDbLine
10
660
20
-365
30
0
11
660
21
-380
31
0
0
CIRCLE
5
151
100
AcDbEntity
8
0
100
AcDbCircle
10
293.75
20
-360
30
0
40
2.5000000000000271
210
0
220
0
230
1
0
CIRCLE
5
152
100
AcDbEntity
8
0
100
AcDbCircle
10
68.75
20
-360
30
0
40
2.5000000000000271
210
0
220
0
230
1
0
CIRCLE
5
153
100
AcDbEntity
8
0
100
AcDbCircle
10
237.5
20
-360
30
0
40
2.5000000000000271
210
0
220
0
230
1
0
CIRCLE
5
154
100
AcDbEntity
8
0
100
AcDbCircle
10
250
20
-570
30
0
40
2.5
210
0
220
0
230
1
0
CIRCLE
5
155
100
AcDbEntity
8
0
100
AcDbCircle
10
250
20
-510
30
0
40
2.5000000000000271
210
0
220
0
230
1
0
CIRCLE
5
156
100
AcDbEntity
8
0
100
AcDbCircle
10
306.25
20
-510
30
0
40
2.5000000000000271
210
0
220
0
230
1
0
LINE
5
157
100
AcDbEntity
8
0
100
AcDbLine
10
400
20
-565.40637718811115
30
0
11
410
21
-565.40637718811115
31
0
0
LINE
5
158
100
AcDbEntity
8
0
100
AcDbLine
10
410
20
-550
30
0
11
400
21
-550
31
0
0
LINE
5
159
100
AcDbEntity
8
0
100
AcDbLine
10
400
20
-580
30
0
11
400
21
-565.40637718811115
31
0
0
LINE
5
160
100
AcDbEntity
8
0
100
AcDbLine
10
400
20
-500
30
0
11
400
21
-515
31
0
0
LINE
5
161
100
AcDbEntity
8
0
100
AcDbLine
10
400
20
-515
30
0
11
410
21
-515
31
0
0
LINE
5
162
100
AcDbEntity
8
0
100
AcDbLine
10
400
20
-580
30
0
11
100
21
-580
31
0
0
LINE
5
163
100
AcDbEntity
8
0
100
AcDbLine
10
100
20
-580
30
0
11
100
21
-500
31
0
0
CIRCLE
5
164
100
AcDbEntity
8
0
100
AcDbCircle
10
362.5
20
-510
30
0
40
2.5000000000000271
210
0
220
0
230
1
0
LINE
5
165
100
AcDbEntity
8
0
100
AcDbLine
10
410
20
-515
30
0
11
410
21
-530
31
0
0
LINE
5
166
100
AcDbEntity
8
0
100
AcDbLine
10
410
20
-565.40637718811115
30
0
11
410
21
-550
31
0
0
LINE
5
167
100
AcDbEntity
8
0
100
AcDbLine
10
410
20
-530
30
0
11
400
21
-530
31
0
0
LINE
5
168
100
AcDbEntity
8
0
100
AcDbLine
10
400
20
-580
30
0
11
100
21
-580
31
0
0
LINE
5
169
100
AcDbEntity
8
0
100
AcDbLine
10
400
20
-550
30
0
11
400
21
-530
31
0
0
LINE
5
170
100
AcDbEntity
8
0
100
AcDbLine
10
100
20
-500
30
0
11
400
21
-500
31
0
0
LINE
5
171
100
AcDbEntity
8
0
100
AcDbLine
10
950
20
-580
30
0
11
650
21
-580
31
0
0
ENDSEC
0
SECTION
2
OBJECTS
0
DICTIONARY
5
C
100
AcDbDictionary
3
ACAD_GROUP
350
D
3
ACAD_MLINESTYLE
350
17
0
DICTIONARY
5
D
100
AcDbDictionary
0
DICTIONARY
5
1A
330
C
100
AcDbDictionary
0
DICTIONARY
5
17
100
AcDbDictionary
0
ENDSEC
0
EOF
