  0
SECTION
  2
HEADER
  9
$ACADVER
  1
AC1027
  9
$ACADMAINTVER
 70
   125
  9
$DWGCODEPAGE
  3
ANSI_1252
  9
$LASTSAVEDBY
  1
yatishkale
  9
$REQUIREDVERSIONS
160
                 0
  9
$INSBASE
 10
0.0
 20
0.0
 30
0.0
  9
$EXTMIN
 10
0.0
 20
0.0
 30
0.0
  9
$EXTMAX
 10
17.0
 20
11.0
 30
0.0
  9
$LIMMIN
 10
0.0
 20
0.0
  9
$LIMMAX
 10
17.0
 20
11.0
  9
$ORTHOMODE
 70
     0
  9
$REGENMODE
 70
     1
  9
$FILLMODE
 70
     1
  9
$QTEXTMODE
 70
     0
  9
$MIRRTEXT
 70
     0
  9
$LTSCALE
 40
0.75
  9
$ATTMODE
 70
     1
  9
$TEXTSIZE
 40
0.12
  9
$TRACEWID
 40
0.05
  9
$TEXTSTYLE
  7
Standard
  9
$CLAYER
  8
0
  9
$CELTYPE
  6
ByLayer
  9
$CECOLOR
 62
   256
  9
$CELTSCALE
 40
1.0
  9
$DISPSILH
 70
     0
  9
$DIMSCALE
 40
1.0
  9
$DIMASZ
 40
0.12
  9
$DIMEXO
 40
0.07
  9
$DIMDLI
 40
0.36
  9
$DIMRND
 40
0.0
  9
$DIMDLE
 40
0.0
  9
$DIMEXE
 40
0.07
  9
$DIMTP
 40
0.01
  9
$DIMTM
 40
0.01
  9
$DIMTXT
 40
0.12
  9
$DIMCEN
 40
0.0
  9
$DIMTSZ
 40
0.0
  9
$DIMTOL
 70
     0
  9
$DIMLIM
 70
     0
  9
$DIMTIH
 70
     1
  9
$DIMTOH
 70
     1
  9
$DIMSE1
 70
     0
  9
$DIMSE2
 70
     0
  9
$DIMTAD
 70
     0
  9
$DIMZIN
 70
    12
  9
$DIMBLK
  1

  9
$DIMASO
 70
     1
  9
$DIMSHO
 70
     1
  9
$DIMPOST
  1

  9
$DIMAPOST
  1

  9
$DIMALT
 70
     0
  9
$DIMALTD
 70
     2
  9
$DIMALTF
 40
25.4
  9
$DIMLFAC
 40
1.0
  9
$DIMTOFL
 70
     0
  9
$DIMTVP
 40
0.0
  9
$DIMTIX
 70
     0
  9
$DIMSOXD
 70
     0
  9
$DIMSAH
 70
     0
  9
$DIMBLK1
  1

  9
$DIMBLK2
  1

  9
$DIMSTYLE
  2
Dim-Standard
  9
$DIMCLRD
 70
     0
  9
$DIMCLRE
 70
     0
  9
$DIMCLRT
 70
     0
  9
$DIMTFAC
 40
1.0
  9
$DIMGAP
 40
0.05
  9
$DIMJUST
 70
     0
  9
$DIMSD1
 70
     0
  9
$DIMSD2
 70
     0
  9
$DIMTOLJ
 70
     1
  9
$DIMTZIN
 70
    12
  9
$DIMALTZ
 70
    12
  9
$DIMALTTZ
 70
    12
  9
$DIMUPT
 70
     0
  9
$DIMDEC
 70
     2
  9
$DIMTDEC
 70
     2
  9
$DIMALTU
 70
     2
  9
$DIMALTTD
 70
     2
  9
$DIMTXSTY
  7
Standard
  9
$DIMAUNIT
 70
     0
  9
$DIMADEC
 70
     2
  9
$DIMALTRND
 40
0.0
  9
$DIMAZIN
 70
     3
  9
$DIMDSEP
 70
    46
  9
$DIMATFIT
 70
     3
  9
$DIMFRAC
 70
     0
  9
$DIMLDRBLK
  1

  9
$DIMLUNIT
 70
     2
  9
$DIMLWD
 70
    -2
  9
$DIMLWE
 70
    -2
  9
$DIMTMOVE
 70
     0
  9
$DIMFXL
 40
1.0
  9
$DIMFXLON
 70
     0
  9
$DIMJOGANG
 40
0.785398
  9
$DIMTFILL
 70
     0
  9
$DIMTFILLCLR
 70
     0
  9
$DIMARCSYM
 70
     1
  9
$DIMLTYPE
  6

  9
$DIMLTEX1
  6

  9
$DIMLTEX2
  6

  9
$DIMTXTDIRECTION
 70
     0
  9
$LUNITS
 70
     2
  9
$LUPREC
 70
     4
  9
$SKETCHINC
 40
0.1
  9
$FILLETRAD
 40
0.0
  9
$AUNITS
 70
     0
  9
$AUPREC
 70
     0
  9
$MENU
  1
.
  9
$ELEVATION
 40
0.0
  9
$PELEVATION
 40
0.0
  9
$THICKNESS
 40
0.0
  9
$LIMCHECK
 70
     0
  9
$CHAMFERA
 40
0.0
  9
$CHAMFERB
 40
0.0
  9
$CHAMFERC
 40
0.0
  9
$CHAMFERD
 40
0.0
  9
$SKPOLY
 70
     0
  9
$TDCREATE
 40
2459982.717256945
  9
$TDUCREATE
 40
2459982.967256945
  9
$TDUPDATE
 40
2459982.717256945
  9
$TDUUPDATE
 40
2459982.967256945
  9
$TDINDWG
 40
0.0000000000
  9
$TDUSRTIMER
 40
0.0000000000
  9
$USRTIMER
 70
     1
  9
$ANGBASE
 50
0.0
  9
$ANGDIR
 70
     0
  9
$PDMODE
 70
     0
  9
$PDSIZE
 40
0.0
  9
$PLINEWID
 40
0.0
  9
$SPLFRAME
 70
     0
  9
$SPLINETYPE
 70
     6
  9
$SPLINESEGS
 70
     8
  9
$HANDSEED
  5
48B
  9
$SURFTAB1
 70
     6
  9
$SURFTAB2
 70
     6
  9
$SURFTYPE
 70
     6
  9
$SURFU
 70
     6
  9
$SURFV
 70
     6
  9
$UCSBASE
  2

  9
$UCSNAME
  2

  9
$UCSORG
 10
0.0
 20
0.0
 30
0.0
  9
$UCSXDIR
 10
1.0
 20
0.0
 30
0.0
  9
$UCSYDIR
 10
0.0
 20
1.0
 30
0.0
  9
$UCSORTHOREF
  2

  9
$UCSORTHOVIEW
 70
     0
  9
$UCSORGTOP
 10
0.0
 20
0.0
 30
0.0
  9
$UCSORGBOTTOM
 10
0.0
 20
0.0
 30
0.0
  9
$UCSORGLEFT
 10
0.0
 20
0.0
 30
0.0
  9
$UCSORGRIGHT
 10
0.0
 20
0.0
 30
0.0
  9
$UCSORGFRONT
 10
0.0
 20
0.0
 30
0.0
  9
$UCSORGBACK
 10
0.0
 20
0.0
 30
0.0
  9
$PUCSBASE
  2

  9
$PUCSNAME
  2

  9
$PUCSORG
 10
0.0
 20
0.0
 30
0.0
  9
$PUCSXDIR
 10
1.0
 20
0.0
 30
0.0
  9
$PUCSYDIR
 10
0.0
 20
1.0
 30
0.0
  9
$PUCSORTHOREF
  2

  9
$PUCSORTHOVIEW
 70
     0
  9
$PUCSORGTOP
 10
0.0
 20
0.0
 30
0.0
  9
$PUCSORGBOTTOM
 10
0.0
 20
0.0
 30
0.0
  9
$PUCSORGLEFT
 10
0.0
 20
0.0
 30
0.0
  9
$PUCSORGRIGHT
 10
0.0
 20
0.0
 30
0.0
  9
$PUCSORGFRONT
 10
0.0
 20
0.0
 30
0.0
  9
$PUCSORGBACK
 10
0.0
 20
0.0
 30
0.0
  9
$USERI1
 70
     0
  9
$USERI2
 70
     0
  9
$USERI3
 70
     0
  9
$USERI4
 70
     0
  9
$USERI5
 70
     0
  9
$USERR1
 40
0.0
  9
$USERR2
 40
0.0
  9
$USERR3
 40
0.0
  9
$USERR4
 40
0.0
  9
$USERR5
 40
0.0
  9
$WORLDVIEW
 70
     1
  9
$SHADEDGE
 70
     3
  9
$SHADEDIF
 70
    70
  9
$TILEMODE
 70
     1
  9
$MAXACTVP
 70
    64
  9
$PINSBASE
 10
0.0
 20
0.0
 30
0.0
  9
$PLIMCHECK
 70
     0
  9
$PEXTMIN
 10
1.000000E+20
 20
1.000000E+20
 30
1.000000E+20
  9
$PEXTMAX
 10
-1.000000E+20
 20
-1.000000E+20
 30
-1.000000E+20
  9
$PLIMMIN
 10
0.0
 20
0.0
  9
$PLIMMAX
 10
12.0
 20
9.0
  9
$UNITMODE
 70
     0
  9
$VISRETAIN
 70
     1
  9
$PLINEGEN
 70
     0
  9
$PSLTSCALE
 70
     1
  9
$TREEDEPTH
 70
  3020
  9
$CMLSTYLE
  2
Standard
  9
$CMLJUST
 70
     0
  9
$CMLSCALE
 40
1.0
  9
$PROXYGRAPHICS
 70
     1
  9
$MEASUREMENT
 70
     0
  9
$CELWEIGHT
370
    -1
  9
$ENDCAPS
280
     0
  9
$JOINSTYLE
280
     0
  9
$LWDISPLAY
290
     0
  9
$INSUNITS
 70
     1
  9
$HYPERLINKBASE
  1

  9
$STYLESHEET
  1

  9
$XEDIT
290
     1
  9
$CEPSNTYPE
380
     0
  9
$PSTYLEMODE
290
     1
  9
$FINGERPRINTGUID
  2
{CB1A82A7-A024-024E-9095-910BDA7AE98B}
  9
$VERSIONGUID
  2
{D60C812E-6862-E741-9E64-78DA2B699869}
  9
$EXTNAMES
290
     1
  9
$PSVPSCALE
 40
0.0
  9
$OLESTARTUP
290
     0
  9
$SORTENTS
280
   127
  9
$INDEXCTL
280
     0
  9
$HIDETEXT
280
     1
  9
$XCLIPFRAME
280
     0
  9
$HALOGAP
280
     0
  9
$OBSCOLOR
 70
   257
  9
$OBSLTYPE
280
     0
  9
$INTERSECTIONDISPLAY
280
     0
  9
$INTERSECTIONCOLOR
 70
   257
  9
$DIMASSOC
280
     2
  9
$PROJECTNAME
  1

  9
$CAMERADISPLAY
290
     0
  9
$LENSLENGTH
 40
50.0
  9
$CAMERAHEIGHT
 40
0.0
  9
$STEPSPERSEC
 40
2.0
  9
$STEPSIZE
 40
6.0
  9
$3DDWFPREC
 40
2.0
  9
$PSOLWIDTH
 40
0.25
  9
$PSOLHEIGHT
 40
4.0
  9
$LOFTANG1
 40
1.570796
  9
$LOFTANG2
 40
1.570796
  9
$LOFTMAG1
 40
0.0
  9
$LOFTMAG2
 40
0.0
  9
$LOFTPARAM
 70
     7
  9
$LOFTNORMALS
280
     1
  9
$LATITUDE
 40
37.795
  9
$LONGITUDE
 40
-122.394
  9
$NORTHDIRECTION
 40
0.0
  9
$TIMEZONE
 70
 -8000
  9
$LIGHTGLYPHDISPLAY
280
     1
  9
$TILEMODELIGHTSYNCH
280
     1
  9
$CMATERIAL
347
11
  9
$SOLIDHIST
280
     0
  9
$SHOWHIST
280
     1
  9
$DWFFRAME
280
     2
  9
$DGNFRAME
280
     0
  9
$REALWORLDSCALE
290
     1
  9
$INTERFERECOLOR
 62
     1
  9
$INTERFEREOBJVS
345
33
  9
$INTERFEREVPVS
346
30
  9
$CSHADOW
280
     0
  9
$SHADOWPLANELOCATION
 40
0.0
  0
ENDSEC
  0
SECTION
  2
CLASSES
  0
CLASS
  1
ACDBDICTIONARYWDFLT
  2
AcDbDictionaryWithDefault
  3
ObjectDBX Classes
 90
        0
 91
        1
280
     0
281
     0
  0
CLASS
  1
MATERIAL
  2
AcDbMaterial
  3
ObjectDBX Classes
 90
     1153
 91
        3
280
     0
281
     0
  0
CLASS
  1
VISUALSTYLE
  2
AcDbVisualStyle
  3
ObjectDBX Classes
 90
     4095
 91
       24
280
     0
281
     0
  0
CLASS
  1
SCALE
  2
AcDbScale
  3
ObjectDBX Classes
 90
     1153
 91
       33
280
     0
281
     0
  0
CLASS
  1
TABLESTYLE
  2
AcDbTableStyle
  3
ObjectDBX Classes
 90
     4095
 91
        1
280
     0
281
     0
  0
CLASS
  1
MLEADERSTYLE
  2
AcDbMLeaderStyle
  3
ACDB_MLEADERSTYLE_CLASS
 90
     4095
 91
        1
280
     0
281
     0
  0
CLASS
  1
ACDBSECTIONVIEWSTYLE
  2
AcDbSectionViewStyle
  3
ObjectDBX Classes
 90
     1025
 91
        1
280
     0
281
     0
  0
CLASS
  1
ACDBDETAILVIEWSTYLE
  2
AcDbDetailViewStyle
  3
ObjectDBX Classes
 90
     1025
 91
        1
280
     0
281
     0
  0
CLASS
  1
ACMESCOPE
  2
AcMeScope
  3
AcMeServices
 90
     1024
 91
        1
280
     0
281
     0
  0
CLASS
  1
ACMECOMMANDHISTORY
  2
AcMeCommandHistory
  3
AcMeServices
 90
     1024
 91
        1
280
     0
281
     0
  0
CLASS
  1
ACIMSYSVARMAN
  2
AcImSysVarManager
  3
AcMeServices
 90
     1024
 91
        1
280
     0
281
     0
  0
CLASS
  1
ACIMINTSYSVAR
  2
AcImIntSysVar
  3
AcMeServices
 90
     1024
 91
        1
280
     0
281
     0
  0
CLASS
  1
ACMESTATEMGR
  2
AcMeStateMgr
  3
AcMeServices
 90
     1024
 91
        1
280
     0
281
     0
  0
CLASS
  1
ACGREFMASTER
  2
AcGrefMaster
  3
AcAttribServices
 90
     1024
 91
        1
280
     0
281
     0
  0
CLASS
  1
SORTENTSTABLE
  2
AcDbSortentsTable
  3
ObjectDBX Classes
 90
        0
 91
        6
280
     0
281
     0
  0
CLASS
  1
DICTIONARYVAR
  2
AcDbDictionaryVar
  3
ObjectDBX Classes
 90
        0
 91
        6
280
     0
281
     0
  0
CLASS
  1
CELLSTYLEMAP
  2
AcDbCellStyleMap
  3
ObjectDBX Classes
 90
     1152
 91
        1
280
     0
281
     0
  0
ENDSEC
  0
SECTION
  2
TABLES
  0
TABLE
  2
VPORT
  5
8
330
0
100
AcDbSymbolTable
 70
     1
1001
ACAD
1000
DbSaveVer
1071
      278
  0
VPORT
  5
57
330
8
100
AcDbSymbolTableRecord
100
AcDbViewportTableRecord
  2
*Active
 70
     0
 10
0.0
 20
0.0
 11
1.0
 21
1.0
 12
8.5
 22
5.5
 13
0.0
 23
0.0
 14
0.5
 24
0.5
 15
0.0
 25
0.0
 16
0.0
 26
0.0
 36
1.0
 17
0.0
 27
0.0
 37
0.0
 40
11.0
 41
1.764434
 42
50.0
 43
0.0
 44
0.0
 50
0.0
 51
0.0
 71
     0
 72
 20000
 73
     1
 74
     0
 75
     0
 76
     0
 77
     0
 78
     0
281
     0
 65
     1
110
0.0
120
0.0
130
0.0
111
1.0
121
0.0
131
0.0
112
0.0
122
1.0
132
0.0
 79
     0
146
0.0
348
2F
 60
     3
 61
     5
292
     1
282
     1
141
0.0
142
0.0
 63
   250
421
  3355443
  0
ENDTAB
  0
TABLE
  2
LTYPE
  5
5
330
0
100
AcDbSymbolTable
 70
    10
  0
LTYPE
  5
5B
330
5
100
AcDbSymbolTableRecord
100
AcDbLinetypeTableRecord
  2
ByBlock
 70
     0
  3

 72
    65
 73
     0
 40
0.0
  0
LTYPE
  5
5C
330
5
100
AcDbSymbolTableRecord
100
AcDbLinetypeTableRecord
  2
ByLayer
 70
     0
  3

 72
    65
 73
     0
 40
0.0
  0
LTYPE
  5
5D
330
5
100
AcDbSymbolTableRecord
100
AcDbLinetypeTableRecord
  2
Continuous
 70
     0
  3
Solid line
 72
    65
 73
     0
 40
0.0
  0
LTYPE
  5
81
330
5
100
AcDbSymbolTableRecord
100
AcDbLinetypeTableRecord
  2
HIDDEN
 70
     0
  3
Hidden __ __ __ __ __ __ __ __ __ __ __ __ __ _
 72
    65
 73
     2
 40
0.375
 49
0.25
 74
     0
 49
-0.125
 74
     0
  0
LTYPE
  5
82
330
5
100
AcDbSymbolTableRecord
100
AcDbLinetypeTableRecord
  2
PHANTOM2
 70
     0
  3
Phantom (.5x) ___ _ _ ___ _ _ ___ _ _ ___ _ _
 72
    65
 73
     6
 40
1.25
 49
0.625
 74
     0
 49
-0.125
 74
     0
 49
0.125
 74
     0
 49
-0.125
 74
     0
 49
0.125
 74
     0
 49
-0.125
 74
     0
  0
LTYPE
  5
83
330
5
100
AcDbSymbolTableRecord
100
AcDbLinetypeTableRecord
  2
CENTER
 70
     0
  3
Center ____ _ ____ _ ____ _ ____ _ ____ _ ____
 72
    65
 73
     4
 40
2.0
 49
1.25
 74
     0
 49
-0.25
 74
     0
 49
0.25
 74
     0
 49
-0.25
 74
     0
  0
LTYPE
  5
97
330
5
100
AcDbSymbolTableRecord
100
AcDbLinetypeTableRecord
  2
CENTER2
 70
     0
  3
Center (.5x) ___ _ ___ _ ___ _ ___ _ ___ _ ___
 72
    65
 73
     4
 40
1.125
 49
0.75
 74
     0
 49
-0.125
 74
     0
 49
0.125
 74
     0
 49
-0.125
 74
     0
  0
LTYPE
  5
98
330
5
100
AcDbSymbolTableRecord
100
AcDbLinetypeTableRecord
  2
HIDDEN2
 70
     0
  3
Hidden (.5x) _ _ _ _ _ _ _ _ _ _ _ _ _ _ _ _ _
 72
    65
 73
     2
 40
0.1875
 49
0.125
 74
     0
 49
-0.0625
 74
     0
  0
LTYPE
  5
99
330
5
100
AcDbSymbolTableRecord
100
AcDbLinetypeTableRecord
  2
Amconstr
 70
     0
  3
_______________________
 72
    65
 73
     2
 40
9999.0
 49
9999.0
 74
     0
 49
0.0
 74
     0
  0
LTYPE
  5
9A
330
5
100
AcDbSymbolTableRecord
100
AcDbLinetypeTableRecord
  2
Amzigzag2
 70
     0
  3
/\/-/\/-/\/-/\/-/\/-/\/
 72
    65
 73
     2
 40
0.4401
 49
0.0001
 74
     4
 75
   136
340
94
 46
0.0016
 50
0.0
 44
0.0
 45
0.0
 49
-0.44
 74
     0
  0
LTYPE
  5
9B
330
5
100
AcDbSymbolTableRecord
100
AcDbLinetypeTableRecord
  2
ACANSTGB
 70
     0
  3
__ . . __ . .
 72
    65
 73
     6
 40
0.354331
 49
0.15748
 74
     0
 49
-0.03937
 74
     0
 49
0.03937
 74
     0
 49
-0.03937
 74
     0
 49
0.03937
 74
     0
 49
-0.03937
 74
     0
  0
LTYPE
  5
9C
330
5
100
AcDbSymbolTableRecord
100
AcDbLinetypeTableRecord
  2
ACANSTGL
 70
     0
  3
_ _ _ _ _
 72
    65
 73
     2
 40
0.11811
 49
0.07874
 74
     0
 49
-0.03937
 74
     0
  0
ENDTAB
  0
TABLE
  2
LAYER
  5
2
330
0
100
AcDbSymbolTable
 70
     8
  0
LAYER
  5
54
330
2
100
AcDbSymbolTableRecord
100
AcDbLayerTableRecord
  2
0
 70
     0
 62
     7
  6
Continuous
370
    -3
390
F
347
21
348
0
1001
AcAecLayerStandard
1000

1000

  0
LAYER
  5
79
330
2
100
AcDbSymbolTableRecord
100
AcDbLayerTableRecord
  2
Defpoints
 70
     0
 62
     7
  6
Continuous
290
     0
370
    -3
390
F
347
21
348
0
1001
AcAecLayerStandard
1000

1000

  0
LAYER
  5
B7
330
2
100
AcDbSymbolTableRecord
100
AcDbLayerTableRecord
  2
Visible
 70
     0
 62
     7
  6
Continuous
370
    50
390
F
347
21
348
0
  0
LAYER
  5
266
330
2
100
AcDbSymbolTableRecord
100
AcDbLayerTableRecord
  2
Border
 70
     0
 62
     7
  6
Continuous
370
    25
390
F
347
21
348
0
1001
AcAecLayerStandard
1000

1000

1001
AcCmTransparency
1071
        0
  0
LAYER
  5
288
330
2
100
AcDbSymbolTableRecord
100
AcDbLayerTableRecord
  2
Titleblock
 70
     0
 62
     7
  6
Continuous
370
    35
390
F
347
21
348
0
1001
AcAecLayerStandard
1000

1000

1001
AcCmTransparency
1071
        0
  0
ENDTAB
  0
TABLE
  2
STYLE
  5
3
330
0
100
AcDbSymbolTable
 70
     5
  0
STYLE
  5
55
330
3
100
AcDbSymbolTableRecord
100
AcDbTextStyleTableRecord
  2
Standard
 70
     0
 40
0.0
 41
1.0
 50
0.0
 71
     0
 42
0.12
  3
arial.ttf
  4

1001
ACAD
1000
Arial
1071
       34
  0
STYLE
  5
5A
330
3
100
AcDbSymbolTableRecord
100
AcDbTextStyleTableRecord
  2
Annotative
 70
     0
 40
0.0
 41
1.0
 50
0.0
 71
     0
 42
0.2
  3
txt
  4

1001
AcadAnnotative
1000
AnnotativeData
1002
{
1070
     1
1070
     1
1002
}
  0
STYLE
  5
93
330
3
100
AcDbSymbolTableRecord
100
AcDbTextStyleTableRecord
  2
FusionTitle
 70
     0
 40
0.0
 41
1.0
 50
0.0
 71
     0
 42
0.2
  3
arial.ttf
  4

1001
ACAD
1000
Arial
1071
       34
  0
STYLE
  5
94
330
3
100
AcDbSymbolTableRecord
100
AcDbTextStyleTableRecord
  2

 70
     1
 40
0.0
 41
1.0
 50
0.0
 71
     0
 42
0.12
  3
genltshp.shx
  4

  0
STYLE
  5
95
330
3
100
AcDbSymbolTableRecord
100
AcDbTextStyleTableRecord
  2
ACANSGDT
 70
     0
 40
0.0
 41
1.0
 50
0.0
 71
     0
 42
0.12
  3
amgdt.shx
  4

  0
ENDTAB
  0
TABLE
  2
VIEW
  5
6
330
0
100
AcDbSymbolTable
 70
     0
  0
ENDTAB
  0
TABLE
  2
UCS
  5
7
330
0
100
AcDbSymbolTable
 70
     0
  0
ENDTAB
  0
TABLE
  2
APPID
  5
9
330
0
100
AcDbSymbolTable
 70
    20
  0
APPID
  5
56
330
9
100
AcDbSymbolTableRecord
100
AcDbRegAppTableRecord
  2
ACAD
 70
     0
  0
APPID
  5
5E
330
9
100
AcDbSymbolTableRecord
100
AcDbRegAppTableRecord
  2
AcadAnnotative
 70
     0
  0
APPID
  5
78
330
9
100
AcDbSymbolTableRecord
100
AcDbRegAppTableRecord
  2
ACAD_PSEXT
 70
     0
  0
APPID
  5
7A
330
9
100
AcDbSymbolTableRecord
100
AcDbRegAppTableRecord
  2
MCAD_NO_VIS
 70
     0
  0
APPID
  5
7B
330
9
100
AcDbSymbolTableRecord
100
AcDbRegAppTableRecord
  2
ACAD_TEMP_GRAPHIC
 70
     0
  0
APPID
  5
84
330
9
100
AcDbSymbolTableRecord
100
AcDbRegAppTableRecord
  2
ACAD_DSTYLE_DIMJAG
 70
     0
  0
APPID
  5
85
330
9
100
AcDbSymbolTableRecord
100
AcDbRegAppTableRecord
  2
ACAD_DSTYLE_DIMTALN
 70
     0
  0
APPID
  5
86
330
9
100
AcDbSymbolTableRecord
100
AcDbRegAppTableRecord
  2
ACAD_NAV_VCDISPLAY
 70
     0
  0
APPID
  5
87
330
9
100
AcDbSymbolTableRecord
100
AcDbRegAppTableRecord
  2
AcAecLayerStandard
 70
     0
  0
APPID
  5
88
330
9
100
AcDbSymbolTableRecord
100
AcDbRegAppTableRecord
  2
AcCmTransparency
 70
     0
  0
APPID
  5
89
330
9
100
AcDbSymbolTableRecord
100
AcDbRegAppTableRecord
  2
AcDbDynamicBlockGUID
 70
     0
  0
APPID
  5
8A
330
9
100
AcDbSymbolTableRecord
100
AcDbRegAppTableRecord
  2
ACAD_DSTYLE_DIMBREAK
 70
     0
  0
APPID
  5
8B
330
9
100
AcDbSymbolTableRecord
100
AcDbRegAppTableRecord
  2
FUSIONTITLEBLOCK
 70
     0
  0
APPID
  5
8C
330
9
100
AcDbSymbolTableRecord
100
AcDbRegAppTableRecord
  2
FUSIONCURRENTTITLEBLOCK
 70
     0
  0
APPID
  5
8D
330
9
100
AcDbSymbolTableRecord
100
AcDbRegAppTableRecord
  2
AcSynergy
 70
     0
  0
APPID
  5
8E
330
9
100
AcDbSymbolTableRecord
100
AcDbRegAppTableRecord
  2
GENIUS_GENSCREG_15
 70
     0
  0
APPID
  5
8F
330
9
100
AcDbSymbolTableRecord
100
AcDbRegAppTableRecord
  2
GENIUS_GENOBJ-N-SDF_13
 70
     0
  0
APPID
  5
90
330
9
100
AcDbSymbolTableRecord
100
AcDbRegAppTableRecord
  2
GENIUS_GENODEF_13
 70
     0
  0
APPID
  5
91
330
9
100
AcDbSymbolTableRecord
100
AcDbRegAppTableRecord
  2
FUSIONTITLEBLOCKATTRIBUTEOVERRIDE
 70
     0
  0
APPID
  5
92
330
9
100
AcDbSymbolTableRecord
100
AcDbRegAppTableRecord
  2
ACATTRIBSERVICES
 70
     0
  0
ENDTAB
  0
TABLE
  2
DIMSTYLE
  5
A
330
0
100
AcDbSymbolTable
 70
     3
100
AcDbDimStyleTable
 71
     1
340
9F
  0
DIMSTYLE
105
58
330
A
100
AcDbSymbolTableRecord
100
AcDbDimStyleTableRecord
  2
Standard
 70
     0
  4
mm
 41
0.12
 42
0.07
 43
0.36
 44
0.07
 47
0.01
 48
0.01
 78
    12
 79
     3
 90
        1
140
0.12
141
0.0
143
1.0
147
0.05
176
   256
177
   256
178
   256
179
     2
271
     2
272
     2
284
    12
285
     8
340
55
  0
DIMSTYLE
105
59
330
A
100
AcDbSymbolTableRecord
100
AcDbDimStyleTableRecord
  2
Annotative
 70
     0
 40
0.0
 41
0.12
 42
0.07
 43
0.36
 44
0.07
 78
    12
 79
     3
140
0.12
143
1.0
147
0.05
179
     2
271
     2
272
     2
284
    12
340
55
1001
AcadAnnotative
1000
AnnotativeData
1002
{
1070
     1
1070
     1
1002
}
  0
DIMSTYLE
105
9F
330
A
100
AcDbSymbolTableRecord
100
AcDbDimStyleTableRecord
  2
Dim-Standard
 70
     0
 41
0.12
 42
0.07
 43
0.36
 44
0.07
 47
0.01
 48
0.01
 78
    12
 79
     3
 90
        1
140
0.12
141
0.0
147
0.05
179
     2
271
     2
272
     2
284
    12
285
    12
286
    12
340
55
1001
ACAD_DSTYLE_DIMJAG
1070
   388
1040
1.5
1001
ACAD_DSTYLE_DIMTALN
1070
   392
1070
     1
1001
ACAD_DSTYLE_DIMBREAK
1070
   391
1040
0.12
  0
ENDTAB
  0
TABLE
  2
BLOCK_RECORD
  5
1
330
0
100
AcDbSymbolTable
 70
     6
  0
BLOCK_RECORD
  5
70
102
{ACAD_XDICTIONARY
360
B0
102
}
330
1
100
AcDbSymbolTableRecord
100
AcDbBlockTableRecord
  2
*Model_Space
340
73
 70
     0
280
     1
281
     0
  0
BLOCK_RECORD
  5
6C
330
1
100
AcDbSymbolTableRecord
100
AcDbBlockTableRecord
  2
*Paper_Space
340
6F
 70
     0
280
     1
281
     0
  0
BLOCK_RECORD
  5
74
330
1
100
AcDbSymbolTableRecord
100
AcDbBlockTableRecord
  2
*Paper_Space0
340
77
 70
     0
280
     1
281
     0
  0
BLOCK_RECORD
  5
267
102
{ACAD_XDICTIONARY
360
268
102
}
330
1
100
AcDbSymbolTableRecord
100
AcDbBlockTableRecord
  2
ANSI_B_SHEET
340
0
310
2800000020000000200000000100080000000000000400000000000000000000000000000000000000000000000080000080000000808000800000008000800080800000C0C0C000C0DCC000F0CAA6000020400000206000002080000020A0000020C0000020E00000400000004020000040400000406000004080000040A0
310
000040C0000040E00000600000006020000060400000606000006080000060A0000060C0000060E00000800000008020000080400000806000008080000080A0000080C0000080E00000A0000000A0200000A0400000A0600000A0800000A0A00000A0C00000A0E00000C0000000C0200000C0400000C0600000C0800000C0
310
A00000C0C00000C0E00000E0000000E0200000E0400000E0600000E0800000E0A00000E0C00000E0E00040000000400020004000400040006000400080004000A0004000C0004000E00040200000402020004020400040206000402080004020A0004020C0004020E000404000004040200040404000404060004040800040
310
40A0004040C0004040E00040600000406020004060400040606000406080004060A0004060C0004060E00040800000408020004080400040806000408080004080A0004080C0004080E00040A0000040A0200040A0400040A0600040A0800040A0A00040A0C00040A0E00040C0000040C0200040C0400040C0600040C08000
310
40C0A00040C0C00040C0E00040E0000040E0200040E0400040E0600040E0800040E0A00040E0C00040E0E00080000000800020008000400080006000800080008000A0008000C0008000E00080200000802020008020400080206000802080008020A0008020C0008020E00080400000804020008040400080406000804080
310
008040A0008040C0008040E00080600000806020008060400080606000806080008060A0008060C0008060E00080800000808020008080400080806000808080008080A0008080C0008080E00080A0000080A0200080A0400080A0600080A0800080A0A00080A0C00080A0E00080C0000080C0200080C0400080C0600080C0
310
800080C0A00080C0C00080C0E00080E0000080E0200080E0400080E0600080E0800080E0A00080E0C00080E0E000C0000000C0002000C0004000C0006000C0008000C000A000C000C000C000E000C0200000C0202000C0204000C0206000C0208000C020A000C020C000C020E000C0400000C0402000C0404000C0406000C0
310
408000C040A000C040C000C040E000C0600000C0602000C0604000C0606000C0608000C060A000C060C000C060E000C0800000C0802000C0804000C0806000C0808000C080A000C080C000C080E000C0A00000C0A02000C0A04000C0A06000C0A08000C0A0A000C0A0C000C0A0E000C0C00000C0C02000C0C04000C0C06000
310
C0C08000C0C0A000F0FBFF00A4A0A000808080000000FF0000FF000000FFFF00FF000000FF00FF00FFFF0000FFFFFF0049494949494949494949494949494949494949494949494949494949494949494949494949494949494949494949494949494949494949494949494949494949494949494949494949494949494949
310
494949494949494949494949494949494949494949494949494949494949494949494949494949494949494949494949494949494949494949494949494949494949494949494949494949494949494949494949494949494949494949494949494949494949494949494949494949494949FFFF4949494949494949494949
310
494949494949494949494949494949FFFF4949FFFFFFFFFFFFFFFFFFFFFFFFFFFFFFFFFFFFFFFFFFFFFFFFFFFFFFFFFFFF494949FF4949494949494949494949494949494949494949494949494949FF49494949FF4949494949494949494949494949494949494949494949494949FF49494949FF49494949494949494949
310
49494949494949494949494949494949FF49494949FF4949494949494949494949494949494949494949494949494949FF49494949FF4949494949494949494949494949494949494949494949494949FF49494949FF4949494949494949494949494949494949494949494949494949FF49494949FF494949494949494949
310
4949494949494949494949494949494949FF49494949FF4949494949494949494949494949494949494949494949494949FF49494949FF4949494949494949494949494949494949494949494949494949FF49494949FF4949494949494949494949494949494949494949494949494949FF49494949FF4949494949494949
310
494949494949494949494949494949494949FF49494949FF4949494949494949494949494949494949494949494949494949FF49494949FF4949494949494949494949494949494949494949494949494949FF49494949FF4949494949494949494949494949494949494949494949494949FF49494949FF49494949494949
310
49494949494949494949494949494949494949FF49494949FF4949494949494949494949494949494949494949494949494949FF494949FFFFFFFFFFFFFFFFFFFFFFFFFFFFFFFFFFFFFFFFFFFFFFFFFFFFFFFFFFFF4949FFFF4949494949494949494949494949494949494949494949494949FFFF49494949494949494949
310
49494949494949494949494949494949494949494949494949494949494949494949494949494949494949494949494949494949494949494949494949494949494949494949494949494949494949494949494949494949494949494949494949494949494949494949494949494949494949494949494949494949494949
310
4949494949494949494949494949494949494949494949494949494949494949494949494949494949494949494949494949494949494949
102
{BLKREFS
331
265
102
}
 70
     1
280
     1
281
     0
1001
AcDbDynamicBlockGUID
1000
{4414BA1C-DADA-9746-B71D-1564E361C437}
  0
BLOCK_RECORD
  5
289
102
{ACAD_XDICTIONARY
360
28A
102
}
330
1
100
AcDbSymbolTableRecord
100
AcDbBlockTableRecord
  2
ANSI_TITLEBLOCK
340
0
310
2800000020000000200000000100080000000000000400000000000000000000000000000000000000000000000080000080000000808000800000008000800080800000C0C0C000C0DCC000F0CAA6000020400000206000002080000020A0000020C0000020E00000400000004020000040400000406000004080000040A0
310
000040C0000040E00000600000006020000060400000606000006080000060A0000060C0000060E00000800000008020000080400000806000008080000080A0000080C0000080E00000A0000000A0200000A0400000A0600000A0800000A0A00000A0C00000A0E00000C0000000C0200000C0400000C0600000C0800000C0
310
A00000C0C00000C0E00000E0000000E0200000E0400000E0600000E0800000E0A00000E0C00000E0E00040000000400020004000400040006000400080004000A0004000C0004000E00040200000402020004020400040206000402080004020A0004020C0004020E000404000004040200040404000404060004040800040
310
40A0004040C0004040E00040600000406020004060400040606000406080004060A0004060C0004060E00040800000408020004080400040806000408080004080A0004080C0004080E00040A0000040A0200040A0400040A0600040A0800040A0A00040A0C00040A0E00040C0000040C0200040C0400040C0600040C08000
310
40C0A00040C0C00040C0E00040E0000040E0200040E0400040E0600040E0800040E0A00040E0C00040E0E00080000000800020008000400080006000800080008000A0008000C0008000E00080200000802020008020400080206000802080008020A0008020C0008020E00080400000804020008040400080406000804080
310
008040A0008040C0008040E00080600000806020008060400080606000806080008060A0008060C0008060E00080800000808020008080400080806000808080008080A0008080C0008080E00080A0000080A0200080A0400080A0600080A0800080A0A00080A0C00080A0E00080C0000080C0200080C0400080C0600080C0
310
800080C0A00080C0C00080C0E00080E0000080E0200080E0400080E0600080E0800080E0A00080E0C00080E0E000C0000000C0002000C0004000C0006000C0008000C000A000C000C000C000E000C0200000C0202000C0204000C0206000C0208000C020A000C020C000C020E000C0400000C0402000C0404000C0406000C0
310
408000C040A000C040C000C040E000C0600000C0602000C0604000C0606000C0608000C060A000C060C000C060E000C0800000C0802000C0804000C0806000C0808000C080A000C080C000C080E000C0A00000C0A02000C0A04000C0A06000C0A08000C0A0A000C0A0C000C0A0E000C0C00000C0C02000C0C04000C0C06000
310
C0C08000C0C0A000F0FBFF00A4A0A000808080000000FF0000FF000000FFFF00FF000000FF00FF00FFFF0000FFFFFF0049494949494949494949494949494949494949494949494949494949494949494949494949494949494949494949494949494949494949494949494949494949494949494949494949494949494949
310
49494949494949494949494949494949494949494949494949494949494949494949494949494949494949494949494949494949494949494949494949494949494949494949494949494949494949494949494949494949494949494949494949494949494949494949494949494949494949494949494949494949494949
310
49494949494949494949494949494949494949494949494949494949494949494949494949494949494949494949494949494949494949494949494949494949494949494949494949494949494949494949494949494949494949494949494949494949494949494949494949494949494949494949494949494949494949
310
4949494949494949494949494949494949494949FFFFFFFFFFFFFFFFFFFFFFFFFFFFFFFFFFFFFFFFFFFFFFFFFFFFFFFFFFFF4949FFFFFFFFFFFFFFFFFFFFFFFFFFFFFFFFFFFFFFFFFFFFFFFFFFFFFFFFFFFF4949FFFFFFFFFFFFFFFFFFFFFFFFFFFFFF49FFFFFFFF49494949494949FFFFFF4949FFFFFFFFFFFFFFFFFFFFFF
310
FFFFFFFFFFFFFFFFFFFFFFFFFFFFFFFFFFFFFF4949FF494949494949494949FFFFFFFFFFFF49494949494949494949494949FF4949FF494949494949494949FFFFFFFFFFFF49494949494949494949494949FF4949FF494949494949494949FFFFFFFF49FF49494949494949494949494949FF4949FF494949494949494949
310
FFFFFFFFFFFFFFFFFFFFFFFFFFFFFFFFFFFFFFFF4949FF494949494949494949FFFFFFFFFFFFFF494949494949494949494949FF4949FFFFFFFFFFFFFFFFFFFFFFFFFFFFFFFFFFFFFFFFFFFFFFFFFFFFFFFFFFFF49494949494949494949494949494949494949494949494949494949494949494949494949494949494949
310
49494949494949494949494949494949494949494949494949494949494949494949494949494949494949494949494949494949494949494949494949494949494949494949494949494949494949494949494949494949494949494949494949494949494949494949494949494949494949494949494949494949494949
310
49494949494949494949494949494949494949494949494949494949494949494949494949494949494949494949494949494949494949494949494949494949494949494949494949494949494949494949494949494949494949494949494949494949494949494949494949494949494949494949494949494949494949
310
4949494949494949494949494949494949494949494949494949494949494949494949494949494949494949494949494949494949494949
102
{BLKREFS
331
287
102
}
 70
     1
280
     1
281
     0
1001
AcDbDynamicBlockGUID
1000
{0BF57870-7A89-534F-804C-E3D67B59D189}
1001
FUSIONTITLEBLOCK
1000
TitleBlock
  0
ENDTAB
  0
ENDSEC
  0
SECTION
  2
BLOCKS
  0
BLOCK
  5
71
330
70
100
AcDbEntity
  8
0
100
AcDbBlockBegin
  2
*Model_Space
 70
     0
 10
0.0
 20
0.0
 30
0.0
  3
*Model_Space
  1

  0
ENDBLK
  5
72
330
70
100
AcDbEntity
  8
0
100
AcDbBlockEnd
  0
BLOCK
  5
6D
330
6C
100
AcDbEntity
 67
     1
  8
0
100
AcDbBlockBegin
  2
*Paper_Space
 70
     0
 10
0.0
 20
0.0
 30
0.0
  3
*Paper_Space
  1

  0
ENDBLK
  5
6E
330
6C
100
AcDbEntity
 67
     1
  8
0
100
AcDbBlockEnd
  0
BLOCK
  5
75
330
74
100
AcDbEntity
 67
     1
  8
0
100
AcDbBlockBegin
  2
*Paper_Space0
 70
     0
 10
0.0
 20
0.0
 30
0.0
  3
*Paper_Space0
  1

  0
ENDBLK
  5
76
330
74
100
AcDbEntity
 67
     1
  8
0
100
AcDbBlockEnd
  0
BLOCK
  5
269
330
267
100
AcDbEntity
  8
0
100
AcDbBlockBegin
  2
ANSI_B_SHEET
 70
     0
 10
0.0
 20
0.0
 30
0.0
  3
ANSI_B_SHEET
  1

  0
LINE
  5
26A
330
267
100
AcDbEntity
  8
Defpoints
100
AcDbLine
 10
0.0
 20
0.0
 30
0.0
 11
0.5
 21
0.0
 31
0.0
  0
LINE
  5
26B
330
267
100
AcDbEntity
  8
Defpoints
100
AcDbLine
 10
16.5
 20
0.0
 30
0.0
 11
17.0
 21
0.0
 31
0.0
  0
LINE
  5
26C
330
267
100
AcDbEntity
  8
Border
100
AcDbLine
 10
0.62
 20
0.38
 30
0.0
 11
16.38
 21
0.38
 31
0.0
  0
LINE
  5
26D
330
267
100
AcDbEntity
  8
Defpoints
100
AcDbLine
 10
17.0
 20
0.0
 30
0.0
 11
17.0
 21
0.5
 31
0.0
  0
LINE
  5
26E
330
267
100
AcDbEntity
  8
Defpoints
100
AcDbLine
 10
17.0
 20
10.5
 30
0.0
 11
17.0
 21
11.0
 31
0.0
  0
LINE
  5
26F
330
267
100
AcDbEntity
  8
Border
100
AcDbLine
 10
16.38
 20
0.38
 30
0.0
 11
16.38
 21
10.62
 31
0.0
  0
LINE
  5
270
330
267
100
AcDbEntity
  8
Defpoints
100
AcDbLine
 10
17.0
 20
11.0
 30
0.0
 11
16.5
 21
11.0
 31
0.0
  0
LINE
  5
271
330
267
100
AcDbEntity
  8
Defpoints
100
AcDbLine
 10
0.5
 20
11.0
 30
0.0
 11
0.0
 21
11.0
 31
0.0
  0
LINE
  5
272
330
267
100
AcDbEntity
  8
Border
100
AcDbLine
 10
16.38
 20
10.62
 30
0.0
 11
0.62
 21
10.62
 31
0.0
  0
LINE
  5
273
330
267
100
AcDbEntity
  8
Defpoints
100
AcDbLine
 10
0.0
 20
11.0
 30
0.0
 11
0.0
 21
10.5
 31
0.0
  0
LINE
  5
274
330
267
100
AcDbEntity
  8
Defpoints
100
AcDbLine
 10
0.0
 20
0.5
 30
0.0
 11
0.0
 21
0.0
 31
0.0
  0
LINE
  5
275
330
267
100
AcDbEntity
  8
Border
100
AcDbLine
 10
0.62
 20
10.62
 30
0.0
 11
0.62
 21
0.38
 31
0.0
  0
LINE
  5
276
330
267
100
AcDbEntity
  8
Border
100
AcDbLine
 10
8.413397
 20
0.23
 30
0.0
 11
8.586603
 21
0.23
 31
0.0
  0
LINE
  5
277
330
267
100
AcDbEntity
  8
Border
100
AcDbLine
 10
8.5
 20
0.38
 30
0.0
 11
8.5
 21
0.13
 31
0.0
  0
LINE
  5
278
330
267
100
AcDbEntity
  8
Border
100
AcDbLine
 10
8.5
 20
0.38
 30
0.0
 11
8.413397
 21
0.23
 31
0.0
  0
LINE
  5
279
330
267
100
AcDbEntity
  8
Border
100
AcDbLine
 10
8.5
 20
0.38
 30
0.0
 11
8.586603
 21
0.23
 31
0.0
  0
LINE
  5
27A
330
267
100
AcDbEntity
  8
Border
100
AcDbLine
 10
0.47
 20
5.586603
 30
0.0
 11
0.47
 21
5.413397
 31
0.0
  0
LINE
  5
27B
330
267
100
AcDbEntity
  8
Border
100
AcDbLine
 10
0.62
 20
5.5
 30
0.0
 11
0.37
 21
5.5
 31
0.0
  0
LINE
  5
27C
330
267
100
AcDbEntity
  8
Border
100
AcDbLine
 10
0.62
 20
5.5
 30
0.0
 11
0.47
 21
5.586603
 31
0.0
  0
LINE
  5
27D
330
267
100
AcDbEntity
  8
Border
100
AcDbLine
 10
0.62
 20
5.5
 30
0.0
 11
0.47
 21
5.413397
 31
0.0
  0
LINE
  5
27E
330
267
100
AcDbEntity
  8
Border
100
AcDbLine
 10
16.53
 20
5.586603
 30
0.0
 11
16.53
 21
5.413397
 31
0.0
  0
LINE
  5
27F
330
267
100
AcDbEntity
  8
Border
100
AcDbLine
 10
16.38
 20
5.5
 30
0.0
 11
16.63
 21
5.5
 31
0.0
  0
LINE
  5
280
330
267
100
AcDbEntity
  8
Border
100
AcDbLine
 10
16.38
 20
5.5
 30
0.0
 11
16.53
 21
5.586603
 31
0.0
  0
LINE
  5
281
330
267
100
AcDbEntity
  8
Border
100
AcDbLine
 10
16.38
 20
5.5
 30
0.0
 11
16.53
 21
5.413397
 31
0.0
  0
LINE
  5
282
330
267
100
AcDbEntity
  8
Border
100
AcDbLine
 10
8.413397
 20
10.77
 30
0.0
 11
8.586603
 21
10.77
 31
0.0
  0
LINE
  5
283
330
267
100
AcDbEntity
  8
Border
100
AcDbLine
 10
8.5
 20
10.62
 30
0.0
 11
8.5
 21
10.87
 31
0.0
  0
LINE
  5
284
330
267
100
AcDbEntity
  8
Border
100
AcDbLine
 10
8.5
 20
10.62
 30
0.0
 11
8.413397
 21
10.77
 31
0.0
  0
LINE
  5
285
330
267
100
AcDbEntity
  8
Border
100
AcDbLine
 10
8.5
 20
10.62
 30
0.0
 11
8.586603
 21
10.77
 31
0.0
  0
ENDBLK
  5
286
330
267
100
AcDbEntity
  8
0
100
AcDbBlockEnd
  0
BLOCK
  5
28C
330
289
100
AcDbEntity
  8
0
100
AcDbBlockBegin
  2
ANSI_TITLEBLOCK
 70
     2
 10
0.0
 20
0.0
 30
0.0
  3
ANSI_TITLEBLOCK
  1

  0
LINE
  5
28D
330
289
100
AcDbEntity
  8
Titleblock
100
AcDbLine
 10
-7.74
 20
0.0
 30
0.0
 11
0.0
 21
0.0
 31
0.0
  0
LINE
  5
28E
330
289
100
AcDbEntity
  8
Titleblock
100
AcDbLine
 10
-5.12
 20
1.88
 30
0.0
 11
0.0
 21
1.88
 31
0.0
  0
LINE
  5
28F
330
289
100
AcDbEntity
  8
Titleblock
100
AcDbLine
 10
-7.74
 20
0.25
 30
0.0
 11
0.0
 21
0.25
 31
0.0
  0
LINE
  5
290
330
289
100
AcDbEntity
  8
Titleblock
100
AcDbLine
 10
-7.74
 20
0.5
 30
0.0
 11
-5.12
 21
0.5
 31
0.0
  0
LINE
  5
291
330
289
100
AcDbEntity
  8
Titleblock
100
AcDbLine
 10
-7.74
 20
0.75
 30
0.0
 11
0.0
 21
0.75
 31
0.0
  0
LINE
  5
292
330
289
100
AcDbEntity
  8
Titleblock
100
AcDbLine
 10
0.0
 20
0.0
 30
0.0
 11
0.0
 21
2.5
 31
0.0
  0
LINE
  5
293
330
289
100
AcDbEntity
  8
Titleblock
100
AcDbLine
 10
-4.75
 20
0.25
 30
0.0
 11
-4.75
 21
0.75
 31
0.0
  0
LINE
  5
294
330
289
100
AcDbEntity
  8
Titleblock
100
AcDbLine
 10
-3.5
 20
0.25
 30
0.0
 11
-3.5
 21
0.75
 31
0.0
  0
LINE
  5
295
330
289
100
AcDbEntity
  8
Titleblock
100
AcDbLine
 10
-5.12
 20
0.0
 30
0.0
 11
-5.12
 21
2.5
 31
0.0
  0
LINE
  5
296
330
289
100
AcDbEntity
  8
Titleblock
100
AcDbLine
 10
-3.75
 20
0.0
 30
0.0
 11
-3.75
 21
0.25
 31
0.0
  0
LINE
  5
297
330
289
100
AcDbEntity
  8
Titleblock
100
AcDbLine
 10
-1.75
 20
0.0
 30
0.0
 11
-1.75
 21
0.25
 31
0.0
  0
LINE
  5
298
330
289
100
AcDbEntity
  8
Titleblock
100
AcDbLine
 10
-0.5
 20
0.25
 30
0.0
 11
-0.5
 21
0.75
 31
0.0
  0
LINE
  5
299
330
289
100
AcDbEntity
  8
Titleblock
100
AcDbLine
 10
0.0
 20
2.5
 30
0.0
 11
-7.74
 21
2.5
 31
0.0
  0
LINE
  5
29A
330
289
100
AcDbEntity
  8
Titleblock
100
AcDbLine
 10
-7.74
 20
2.5
 30
0.0
 11
-7.74
 21
0.0
 31
0.0
  0
TEXT
  5
29B
330
289
100
AcDbEntity
  8
Titleblock
100
AcDbText
 10
-5.07
 20
2.35
 30
0.0
 40
0.1
  1
PROJECT
  7
FusionTitle
 11
-5.07
 21
2.45
 31
0.0
100
AcDbText
 73
     3
  0
TEXT
  5
29C
330
289
100
AcDbEntity
  8
Titleblock
100
AcDbText
 10
-5.07
 20
1.73
 30
0.0
 40
0.1
  1
TITLE
  7
FusionTitle
 11
-5.07
 21
1.83
 31
0.0
100
AcDbText
 73
     3
  0
TEXT
  5
29D
330
289
100
AcDbEntity
  8
Titleblock
100
AcDbText
 10
-7.69
 20
0.075
 30
0.0
 40
0.1
  1
DRAWN
  7
FusionTitle
 11
-7.69
 21
0.125
 31
0.0
100
AcDbText
 73
     2
  0
TEXT
  5
29E
330
289
100
AcDbEntity
  8
Titleblock
100
AcDbText
 10
-7.69
 20
0.325
 30
0.0
 40
0.1
  1
CHECKED
  7
FusionTitle
 11
-7.69
 21
0.375
 31
0.0
100
AcDbText
 73
     2
  0
TEXT
  5
29F
330
289
100
AcDbEntity
  8
Titleblock
100
AcDbText
 10
-7.69
 20
0.575
 30
0.0
 40
0.1
  1
APPROVED
  7
FusionTitle
 11
-7.69
 21
0.625
 31
0.0
100
AcDbText
 73
     2
  0
TEXT
  5
2A0
330
289
100
AcDbEntity
  8
Titleblock
100
AcDbText
 10
-5.060956
 20
0.075
 30
0.0
 40
0.1
  1
SCALE
  7
FusionTitle
 11
-5.060956
 21
0.125
 31
0.0
100
AcDbText
 73
     2
  0
TEXT
  5
2A1
330
289
100
AcDbEntity
  8
Titleblock
100
AcDbText
 10
-3.7
 20
0.075
 30
0.0
 40
0.1
  1
WEIGHT
  7
FusionTitle
 11
-3.7
 21
0.125
 31
0.0
100
AcDbText
 73
     2
  0
TEXT
  5
2A2
330
289
100
AcDbEntity
  8
Titleblock
100
AcDbText
 10
-1.7
 20
0.075
 30
0.0
 40
0.1
  1
SHEET
  7
FusionTitle
 11
-1.7
 21
0.125
 31
0.0
100
AcDbText
 73
     2
  0
TEXT
  5
2A3
330
289
100
AcDbEntity
  8
Titleblock
100
AcDbText
 10
-3.45
 20
0.6
 30
0.0
 40
0.1
  1
DWG NO
  7
FusionTitle
 11
-3.45
 21
0.7
 31
0.0
100
AcDbText
 73
     3
  0
TEXT
  5
2A4
330
289
100
AcDbEntity
  8
Titleblock
100
AcDbText
 10
-0.393622
 20
0.6
 30
0.0
 40
0.1
  1
REV
  7
FusionTitle
 72
     1
 11
-0.25
 21
0.7
 31
0.0
100
AcDbText
 73
     3
  0
TEXT
  5
2A5
330
289
100
AcDbEntity
  8
Titleblock
100
AcDbText
 10
-4.326808
 20
0.6
 30
0.0
 40
0.1
  1
CODE
  7
FusionTitle
 72
     1
 11
-4.125
 21
0.7
 31
0.0
100
AcDbText
 73
     3
  0
TEXT
  5
2A6
330
289
100
AcDbEntity
  8
Titleblock
100
AcDbText
 10
-5.090252
 20
0.6
 30
0.0
 40
0.1
  1
SIZE
  7
FusionTitle
 72
     1
 11
-4.935
 21
0.7
 31
0.0
100
AcDbText
 73
     3
  0
ATTDEF
  5
2A7
102
{ACAD_XDICTIONARY
360
2A8
102
}
330
289
100
AcDbEntity
  8
Titleblock
100
AcDbText
 10
-1.15
 20
0.065
 30
0.0
 40
0.12
  1

  7
FusionTitle
 11
-1.15
 21
0.125
 31
0.0
100
AcDbAttributeDefinition
280
     0
  3
Sheet
  2
SHEET
 70
     0
 74
     2
280
     1
  0
ATTDEF
  5
2A9
102
{ACAD_XDICTIONARY
360
2AA
102
}
330
289
100
AcDbEntity
  8
Titleblock
100
AcDbText
 10
-3.1
 20
0.065
 30
0.0
 40
0.12
  1

  7
FusionTitle
 11
-3.1
 21
0.125
 31
0.0
100
AcDbAttributeDefinition
280
     0
  3
Weight
  2
WEIGHT
 70
     0
 74
     2
280
     1
  0
ATTDEF
  5
2AB
102
{ACAD_XDICTIONARY
360
2AC
102
}
330
289
100
AcDbEntity
  8
Titleblock
100
AcDbText
 10
-4.52
 20
0.065
 30
0.0
 40
0.12
  1

  7
FusionTitle
 11
-4.52
 21
0.125
 31
0.0
100
AcDbAttributeDefinition
280
     0
  3
Scale
  2
SCALE
 70
     0
 74
     2
280
     1
  0
ATTDEF
  5
2AD
102
{ACAD_XDICTIONARY
360
2AE
102
}
330
289
100
AcDbEntity
  8
Titleblock
100
AcDbText
 10
-6.147967
 20
0.075
 30
0.0
 40
0.1
  1

  7
FusionTitle
 72
     2
 11
-5.17
 21
0.125
 31
0.0
100
AcDbAttributeDefinition
280
     0
  3
Drawn date
  2
DRAWN_DATE
 70
     0
 74
     2
280
     1
  0
ATTDEF
  5
2AF
102
{ACAD_XDICTIONARY
360
2B0
102
}
330
289
100
AcDbEntity
  8
Titleblock
100
AcDbText
 10
-6.851207
 20
0.075
 30
0.0
 40
0.1
  1

  7
FusionTitle
 11
-6.851207
 21
0.125
 31
0.0
100
AcDbAttributeDefinition
280
     0
  3
Drawn by
  2
DRAWN_BY
 70
     0
 74
     2
280
     1
  0
ATTDEF
  5
2B1
102
{ACAD_XDICTIONARY
360
2B2
102
}
330
289
100
AcDbEntity
  8
Titleblock
100
AcDbText
 10
-3.45
 20
0.335525
 30
0.0
 40
0.12
  1

  7
FusionTitle
 11
-3.45
 21
0.3
 31
0.0
100
AcDbAttributeDefinition
280
     0
  3
Drawing No
  2
DWG_NO
 70
     0
 74
     1
280
     1
  0
ATTDEF
  5
2B3
102
{ACAD_XDICTIONARY
360
2B4
102
}
330
289
100
AcDbEntity
  8
Titleblock
100
AcDbText
 10
-6.303356
 20
0.325
 30
0.0
 40
0.1
  1

  7
FusionTitle
 72
     2
 11
-5.17
 21
0.375
 31
0.0
100
AcDbAttributeDefinition
280
     0
  3
Checked date
  2
CHECKED_DATE
 70
     0
 74
     2
280
     1
  0
ATTDEF
  5
2B5
102
{ACAD_XDICTIONARY
360
2B6
102
}
330
289
100
AcDbEntity
  8
Titleblock
100
AcDbText
 10
-6.851207
 20
0.325
 30
0.0
 40
0.1
  1

  7
FusionTitle
 11
-6.851207
 21
0.375
 31
0.0
100
AcDbAttributeDefinition
280
     0
  3
Checked by
  2
CHECKED_BY
 70
     0
 74
     2
280
     1
  0
ATTDEF
  5
2B7
102
{ACAD_XDICTIONARY
360
2B8
102
}
330
289
100
AcDbEntity
  8
Titleblock
100
AcDbText
 10
-5.121303
 20
0.335525
 30
0.0
 40
0.12
  1

  7
FusionTitle
 72
     1
 11
-4.935
 21
0.3
 31
0.0
100
AcDbAttributeDefinition
280
     0
  3
Sheet size
  2
SIZE
 70
     0
 74
     1
280
     1
  0
ATTDEF
  5
2B9
102
{ACAD_XDICTIONARY
360
2BA
102
}
330
289
100
AcDbEntity
  8
Titleblock
100
AcDbText
 10
-0.422347
 20
0.335525
 30
0.0
 40
0.12
  1

  7
FusionTitle
 72
     1
 11
-0.25
 21
0.3
 31
0.0
100
AcDbAttributeDefinition
280
     0
  3
Revision
  2
REV
 70
     0
 74
     1
280
     1
  0
ATTDEF
  5
2BB
102
{ACAD_XDICTIONARY
360
2BC
102
}
330
289
100
AcDbEntity
  8
Titleblock
100
AcDbText
 10
-4.367169
 20
0.335525
 30
0.0
 40
0.12
  1

  7
FusionTitle
 72
     1
 11
-4.125
 21
0.3
 31
0.0
100
AcDbAttributeDefinition
280
     0
  3
Code
  2
CODE
 70
     0
 74
     1
280
     1
  0
ATTDEF
  5
2BD
102
{ACAD_XDICTIONARY
360
2BE
102
}
330
289
100
AcDbEntity
  8
Titleblock
100
AcDbText
 10
-6.396603
 20
0.575
 30
0.0
 40
0.1
  1

  7
FusionTitle
 72
     2
 11
-5.17
 21
0.625
 31
0.0
100
AcDbAttributeDefinition
280
     0
  3
Approved date
  2
APPROVED_DATE
 70
     0
 74
     2
280
     1
  0
ATTDEF
  5
2BF
102
{ACAD_XDICTIONARY
360
2C0
102
}
330
289
100
AcDbEntity
  8
Titleblock
100
AcDbText
 10
-6.851207
 20
0.575
 30
0.0
 40
0.1
  1

  7
FusionTitle
 11
-6.851207
 21
0.625
 31
0.0
100
AcDbAttributeDefinition
280
     0
  3
Approved by
  2
APPROVED_BY
 70
     0
 74
     2
280
     1
  0
ATTDEF
  5
2C1
102
{ACAD_XDICTIONARY
360
2C2
102
}
330
289
100
AcDbEntity
  8
Titleblock
100
AcDbText
 10
-5.07
 20
1.98
 30
0.0
 40
0.24
  1

  7
FusionTitle
 11
-5.07
 21
2.22
 31
0.0
100
AcDbAttributeDefinition
280
     0
  3
Project
  2
PROJECT
 70
     0
 74
     3
280
     1
  0
ATTDEF
  5
2C3
102
{ACAD_XDICTIONARY
360
2C4
102
}
330
289
100
AcDbEntity
  8
Titleblock
100
AcDbText
 10
-5.07
 20
0.83
 30
0.0
 40
0.12
  1

  7
FusionTitle
 11
-5.07
 21
0.95
 31
0.0
100
AcDbAttributeDefinition
280
     0
  3
3rd Title
  2
TITLE_3
 70
     0
 74
     3
280
     1
  0
ATTDEF
  5
2C5
102
{ACAD_XDICTIONARY
360
2C6
102
}
330
289
100
AcDbEntity
  8
Titleblock
100
AcDbText
 10
-5.07
 20
1.05
 30
0.0
 40
0.24
  1

  7
FusionTitle
 11
-5.07
 21
1.29
 31
0.0
100
AcDbAttributeDefinition
280
     0
  3
2nd Title
  2
TITLE_2
 70
     0
 74
     3
280
     1
  0
ATTDEF
  5
2C7
102
{ACAD_XDICTIONARY
360
2C8
102
}
330
289
100
AcDbEntity
  8
Titleblock
100
AcDbText
 10
-5.07
 20
1.39
 30
0.0
 40
0.24
  1

  7
FusionTitle
 11
-5.07
 21
1.63
 31
0.0
100
AcDbAttributeDefinition
280
     0
  3
1st Title
  2
TITLE_1
 70
     0
 74
     3
280
     1
  0
ENDBLK
  5
2C9
330
289
100
AcDbEntity
  8
0
100
AcDbBlockEnd
  0
ENDSEC
  0
SECTION
  2
ENTITIES
  0
INSERT
  5
265
330
70
100
AcDbEntity
  8
Border
100
AcDbBlockReference
  2
ANSI_B_SHEET
 10
0.0
 20
0.0
 30
0.0
  0
INSERT
  5
287
330
70
100
AcDbEntity
  8
Titleblock
100
AcDbBlockReference
 66
     1
  2
ANSI_TITLEBLOCK
 10
16.38
 20
0.38
 30
0.0
  0
ATTRIB
  5
2CA
330
287
100
AcDbEntity
  8
Titleblock
100
AcDbText
 10
15.23
 20
0.445
 30
0.0
 40
0.12
  1
1/1
  7
FusionTitle
 11
15.23
 21
0.505
 31
0.0
100
AcDbAttribute
280
     0
  2
SHEET
 70
     0
 74
     2
280
     1
  0
ATTRIB
  5
2CB
330
287
100
AcDbEntity
  8
Titleblock
100
AcDbText
 10
13.28
 20
0.445
 30
0.0
 40
0.12
  1

  7
FusionTitle
 11
13.28
 21
0.505
 31
0.0
100
AcDbAttribute
280
     0
  2
WEIGHT
 70
     0
 74
     2
280
     1
  0
ATTRIB
  5
2CC
330
287
100
AcDbEntity
  8
Titleblock
100
AcDbText
 10
11.86
 20
0.445
 30
0.0
 40
0.12
  1
1:2
  7
FusionTitle
 11
11.86
 21
0.505
 31
0.0
100
AcDbAttribute
280
     0
  2
SCALE
 70
     0
 74
     2
280
     1
  0
ATTRIB
  5
2CD
330
287
100
AcDbEntity
  8
Titleblock
100
AcDbText
 10
10.666207
 20
0.455
 30
0.0
 40
0.1
  1
2/6/2023
  7
FusionTitle
 72
     2
 11
11.21
 21
0.505
 31
0.0
100
AcDbAttribute
280
     0
  2
DRAWN_DATE
 70
     0
 74
     2
280
     1
  0
ATTRIB
  5
2CE
330
287
100
AcDbEntity
  8
Titleblock
100
AcDbText
 10
9.528793
 20
0.455
 30
0.0
 40
0.1
  1
Kevin Matory
  7
FusionTitle
 11
9.528793
 21
0.505
 31
0.0
100
AcDbAttribute
280
     0
  2
DRAWN_BY
 70
     0
 74
     2
280
     1
  0
ATTRIB
  5
2CF
330
287
100
AcDbEntity
  8
Titleblock
100
AcDbText
 10
12.93
 20
0.715525
 30
0.0
 40
0.12
  1

  7
FusionTitle
 11
12.93
 21
0.68
 31
0.0
100
AcDbAttribute
280
     0
  2
DWG_NO
 70
     0
 74
     1
280
     1
  0
ATTRIB
  5
2D0
330
287
100
AcDbEntity
  8
Titleblock
100
AcDbText
 10
11.21
 20
0.705
 30
0.0
 40
0.1
  1

  7
FusionTitle
 72
     2
 11
11.21
 21
0.755
 31
0.0
100
AcDbAttribute
280
     0
  2
CHECKED_DATE
 70
     0
 74
     2
280
     1
  0
ATTRIB
  5
2D1
330
287
100
AcDbEntity
  8
Titleblock
100
AcDbText
 10
9.528793
 20
0.705
 30
0.0
 40
0.1
  1

  7
FusionTitle
 11
9.528793
 21
0.755
 31
0.0
100
AcDbAttribute
280
     0
  2
CHECKED_BY
 70
     0
 74
     2
280
     1
  0
ATTRIB
  5
2D2
330
287
100
AcDbEntity
  8
Titleblock
100
AcDbText
 10
11.389093
 20
0.715525
 30
0.0
 40
0.12
  1
B
  7
FusionTitle
 72
     1
 11
11.445
 21
0.68
 31
0.0
100
AcDbAttribute
280
     0
  2
SIZE
 70
     0
 74
     1
280
     1
  0
ATTRIB
  5
2D3
330
287
100
AcDbEntity
  8
Titleblock
100
AcDbText
 10
16.13
 20
0.715525
 30
0.0
 40
0.12
  1

  7
FusionTitle
 72
     1
 11
16.13
 21
0.68
 31
0.0
100
AcDbAttribute
280
     0
  2
REV
 70
     0
 74
     1
280
     1
  0
ATTRIB
  5
2D4
330
287
100
AcDbEntity
  8
Titleblock
100
AcDbText
 10
12.255
 20
0.715525
 30
0.0
 40
0.12
  1

  7
FusionTitle
 72
     1
 11
12.255
 21
0.68
 31
0.0
100
AcDbAttribute
280
     0
  2
CODE
 70
     0
 74
     1
280
     1
  0
ATTRIB
  5
2D5
330
287
100
AcDbEntity
  8
Titleblock
100
AcDbText
 10
11.21
 20
0.955
 30
0.0
 40
0.1
  1

  7
FusionTitle
 72
     2
 11
11.21
 21
1.005
 31
0.0
100
AcDbAttribute
280
     0
  2
APPROVED_DATE
 70
     0
 74
     2
280
     1
  0
ATTRIB
  5
2D6
330
287
100
AcDbEntity
  8
Titleblock
100
AcDbText
 10
9.528793
 20
0.955
 30
0.0
 40
0.1
  1

  7
FusionTitle
 11
9.528793
 21
1.005
 31
0.0
100
AcDbAttribute
280
     0
  2
APPROVED_BY
 70
     0
 74
     2
280
     1
  0
ATTRIB
  5
2D7
330
287
100
AcDbEntity
  8
Titleblock
100
AcDbText
 10
11.31
 20
2.36
 30
0.0
 40
0.24
  1
Kevin Matory
  7
FusionTitle
 11
11.31
 21
2.6
 31
0.0
100
AcDbAttribute
280
     0
  2
PROJECT
 70
     0
 74
     3
280
     1
1001
FUSIONTITLEBLOCKATTRIBUTEOVERRIDE
1070
     1
  0
ATTRIB
  5
2D8
330
287
100
AcDbEntity
  8
Titleblock
100
AcDbText
 10
11.31
 20
1.21
 30
0.0
 40
0.12
  1

  7
FusionTitle
 11
11.31
 21
1.33
 31
0.0
100
AcDbAttribute
280
     0
  2
TITLE_3
 70
     0
 74
     3
280
     1
  0
ATTRIB
  5
2D9
330
287
100
AcDbEntity
  8
Titleblock
100
AcDbText
 10
11.31
 20
1.43
 30
0.0
 40
0.24
  1

  7
FusionTitle
 11
11.31
 21
1.67
 31
0.0
100
AcDbAttribute
280
     0
  2
TITLE_2
 70
     0
 74
     3
280
     1
  0
ATTRIB
  5
2DA
330
287
100
AcDbEntity
  8
Titleblock
100
AcDbText
 10
11.31
 20
1.77
 30
0.0
 40
0.24
  1
Floating Cube Puzzle
  7
FusionTitle
 11
11.31
 21
2.01
 31
0.0
100
AcDbAttribute
280
     0
  2
TITLE_1
 70
     0
 74
     3
280
     1
  0
SEQEND
  5
2DB
330
287
100
AcDbEntity
  8
Titleblock
  0
ARC
  5
2DD
330
70
100
AcDbEntity
  8
Visible
100
AcDbCircle
 10
5.345374
 20
9.40836
 30
0.0
 40
0.04
100
AcDbArc
 50
0.0
 51
90.0
  0
LINE
  5
2DE
330
70
100
AcDbEntity
  8
Visible
100
AcDbLine
 10
5.385374
 20
9.179769
 30
0.0
 11
5.385374
 21
9.40836
 31
0.0
210
0.0
220
1.0
230
0.0
  0
LINE
  5
2DF
330
70
100
AcDbEntity
  8
Visible
100
AcDbLine
 10
5.345374
 20
9.44836
 30
0.0
 11
5.338015
 21
9.44836
 31
0.0
210
0.0
220
1.0
230
0.0
  0
ARC
  5
2E0
330
70
100
AcDbEntity
  8
Visible
100
AcDbCircle
 10
3.240335
 20
8.760013
 30
0.0
 40
0.04
100
AcDbArc
 50
180.0
 51
270.0
  0
LINE
  5
2E1
330
70
100
AcDbEntity
  8
Visible
100
AcDbLine
 10
3.240335
 20
8.720013
 30
0.0
 11
3.247695
 21
8.720013
 31
0.0
210
0.0
220
1.0
230
0.0
  0
LINE
  5
2E2
330
70
100
AcDbEntity
  8
Visible
100
AcDbLine
 10
3.200335
 20
8.988603
 30
0.0
 11
3.200335
 21
8.760013
 31
0.0
210
0.0
220
1.0
230
0.0
  0
ARC
  5
2E3
330
70
100
AcDbEntity
  8
Visible
100
AcDbCircle
 10
-3.968681
 20
10.136706
 30
0.0
 40
0.04
210
0.0000000000000001
220
0.0
230
-1.0
100
AcDbArc
 50
0.0
 51
90.0
  0
LINE
  5
2E4
330
70
100
AcDbEntity
  8
Visible
100
AcDbLine
 10
3.968681
 20
10.176706
 30
0.0
 11
4.197272
 21
10.176706
 31
0.0
210
0.0
220
1.0
230
0.0
  0
LINE
  5
2E5
330
70
100
AcDbEntity
  8
Visible
100
AcDbLine
 10
3.928681
 20
10.129346
 30
0.0
 11
3.928681
 21
10.136706
 31
0.0
210
0.0
220
1.0
230
0.0
  0
ARC
  5
2E6
330
70
100
AcDbEntity
  8
Visible
100
AcDbCircle
 10
-5.345374
 20
9.48836
 30
0.0
 40
0.04
210
0.0000000000000001
220
0.0
230
-1.0
100
AcDbArc
 50
180.0
 51
270.0
  0
ARC
  5
2E7
330
70
100
AcDbEntity
  8
Visible
100
AcDbCircle
 10
-5.345374
 20
10.136706
 30
0.0
 40
0.04
210
0.0000000000000001
220
0.0
230
-1.0
100
AcDbArc
 50
90.0
 51
180.0
  0
LINE
  5
2E8
330
70
100
AcDbEntity
  8
Visible
100
AcDbLine
 10
5.385374
 20
10.136706
 30
0.0
 11
5.385374
 21
9.48836
 31
0.0
210
0.0
220
1.0
230
0.0
  0
LINE
  5
2E9
330
70
100
AcDbEntity
  8
Visible
100
AcDbLine
 10
5.209588
 20
10.176706
 30
0.0
 11
5.345374
 21
10.176706
 31
0.0
210
0.0
220
1.0
230
0.0
  0
LINE
  5
2EA
330
70
100
AcDbEntity
  8
Visible
100
AcDbLine
 10
5.345374
 20
9.44836
 30
0.0
 11
5.338015
 21
9.44836
 31
0.0
210
0.0
220
1.0
230
0.0
  0
ARC
  5
2EB
330
70
100
AcDbEntity
  8
Visible
100
AcDbCircle
 10
-3.240335
 20
10.136706
 30
0.0
 40
0.04
210
0.0000000000000001
220
0.0
230
-1.0
100
AcDbArc
 50
0.0
 51
90.0
  0
ARC
  5
2EC
330
70
100
AcDbEntity
  8
Visible
100
AcDbCircle
 10
-3.888681
 20
10.136706
 30
0.0
 40
0.04
210
0.0000000000000001
220
0.0
230
-1.0
100
AcDbArc
 50
90.0
 51
180.0
  0
LINE
  5
2ED
330
70
100
AcDbEntity
  8
Visible
100
AcDbLine
 10
3.928681
 20
10.136706
 30
0.0
 11
3.928681
 21
10.129346
 31
0.0
210
0.0
220
1.0
230
0.0
  0
LINE
  5
2EE
330
70
100
AcDbEntity
  8
Visible
100
AcDbLine
 10
3.240335
 20
10.176706
 30
0.0
 11
3.888681
 21
10.176706
 31
0.0
210
0.0
220
1.0
230
0.0
  0
LINE
  5
2EF
330
70
100
AcDbEntity
  8
Visible
100
AcDbLine
 10
3.200335
 20
10.000919
 30
0.0
 11
3.200335
 21
10.136706
 31
0.0
210
0.0
220
1.0
230
0.0
  0
ARC
  5
2F0
330
70
100
AcDbEntity
  8
Visible
100
AcDbCircle
 10
-4.617028
 20
8.031667
 30
0.0
 40
0.04
210
0.0000000000000001
220
0.0
230
-1.0
100
AcDbArc
 50
180.0
 51
270.0
  0
LINE
  5
2F1
330
70
100
AcDbEntity
  8
Visible
100
AcDbLine
 10
4.657028
 20
8.039026
 30
0.0
 11
4.657028
 21
8.031667
 31
0.0
210
0.0
220
1.0
230
0.0
  0
LINE
  5
2F2
330
70
100
AcDbEntity
  8
Visible
100
AcDbLine
 10
4.617028
 20
7.991667
 30
0.0
 11
4.388438
 21
7.991667
 31
0.0
210
0.0
220
1.0
230
0.0
  0
ARC
  5
2F3
330
70
100
AcDbEntity
  8
Visible
100
AcDbCircle
 10
-4.697028
 20
8.031667
 30
0.0
 40
0.04
210
0.0000000000000001
220
0.0
230
-1.0
100
AcDbArc
 50
270.0
 51
0.0
  0
ARC
  5
2F4
330
70
100
AcDbEntity
  8
Visible
100
AcDbCircle
 10
-5.345374
 20
8.031667
 30
0.0
 40
0.04
210
0.0000000000000001
220
0.0
230
-1.0
100
AcDbArc
 50
180.0
 51
270.0
  0
LINE
  5
2F5
330
70
100
AcDbEntity
  8
Visible
100
AcDbLine
 10
5.385374
 20
8.167453
 30
0.0
 11
5.385374
 21
8.031667
 31
0.0
210
0.0
220
1.0
230
0.0
  0
LINE
  5
2F6
330
70
100
AcDbEntity
  8
Visible
100
AcDbLine
 10
4.657028
 20
8.031667
 30
0.0
 11
4.657028
 21
8.039026
 31
0.0
210
0.0
220
1.0
230
0.0
  0
LINE
  5
2F7
330
70
100
AcDbEntity
  8
Visible
100
AcDbLine
 10
5.345374
 20
7.991667
 30
0.0
 11
4.697028
 21
7.991667
 31
0.0
210
0.0
220
1.0
230
0.0
  0
ARC
  5
2F8
330
70
100
AcDbEntity
  8
Visible
100
AcDbCircle
 10
-3.240335
 20
8.031667
 30
0.0
 40
0.04
210
0.0000000000000001
220
0.0
230
-1.0
100
AcDbArc
 50
270.0
 51
0.0
  0
ARC
  5
2F9
330
70
100
AcDbEntity
  8
Visible
100
AcDbCircle
 10
-3.240335
 20
8.680013
 30
0.0
 40
0.04
210
0.0000000000000001
220
0.0
230
-1.0
100
AcDbArc
 50
0.0
 51
90.0
  0
LINE
  5
2FA
330
70
100
AcDbEntity
  8
Visible
100
AcDbLine
 10
3.240335
 20
8.720013
 30
0.0
 11
3.247695
 21
8.720013
 31
0.0
210
0.0
220
1.0
230
0.0
  0
LINE
  5
2FB
330
70
100
AcDbEntity
  8
Visible
100
AcDbLine
 10
3.200335
 20
8.031667
 30
0.0
 11
3.200335
 21
8.680013
 31
0.0
210
0.0
220
1.0
230
0.0
  0
LINE
  5
2FC
330
70
100
AcDbEntity
  8
Visible
100
AcDbLine
 10
3.376122
 20
7.991667
 30
0.0
 11
3.240335
 21
7.991667
 31
0.0
210
0.0
220
1.0
230
0.0
  0
ARC
  5
2FD
330
70
100
AcDbEntity
  8
Visible
100
AcDbCircle
 10
-3.917314
 20
9.347142
 30
0.0
 40
0.04
210
0.0000000000000001
220
0.0
230
-1.0
100
AcDbArc
 50
350.0
 51
80.0
  0
ARC
  5
2FE
330
70
100
AcDbEntity
  8
Visible
100
AcDbCircle
 10
-4.555811
 20
9.459727
 30
0.0
 40
0.0399999999999999
210
0.0000000000000001
220
0.0
230
-1.0
100
AcDbArc
 50
80.0
 51
170.0
  0
ARC
  5
2FF
330
70
100
AcDbEntity
  8
Visible
100
AcDbCircle
 10
-4.029898
 20
8.708646
 30
0.0
 40
0.04
210
0.0000000000000001
220
0.0
230
-1.0
100
AcDbArc
 50
260.0
 51
350.0
  0
ARC
  5
300
330
70
100
AcDbEntity
  8
Visible
100
AcDbCircle
 10
-4.668395
 20
8.82123
 30
0.0
 40
0.04
210
0.0000000000000001
220
0.0
230
-1.0
100
AcDbArc
 50
170.0
 51
260.0
  0
LINE
  5
301
330
70
100
AcDbEntity
  8
Visible
100
AcDbLine
 10
4.675341
 20
8.781838
 30
0.0
 11
4.036844
 21
8.669254
 31
0.0
210
0.0
220
1.0
230
0.0
  0
LINE
  5
302
330
70
100
AcDbEntity
  8
Visible
100
AcDbLine
 10
4.595203
 20
9.466673
 30
0.0
 11
4.707787
 21
8.828176
 31
0.0
210
0.0
220
1.0
230
0.0
  0
LINE
  5
303
330
70
100
AcDbEntity
  8
Visible
100
AcDbLine
 10
3.990506
 20
8.7017
 30
0.0
 11
3.877922
 21
9.340197
 31
0.0
210
0.0
220
1.0
230
0.0
  0
LINE
  5
304
330
70
100
AcDbEntity
  8
Visible
100
AcDbLine
 10
3.910368
 20
9.386535
 30
0.0
 11
4.548865
 21
9.499119
 31
0.0
210
0.0
220
1.0
230
0.0
  0
ARC
  5
305
330
70
100
AcDbEntity
  8
Visible
100
AcDbCircle
 10
-4.634595
 20
9.473619
 30
0.0
 40
0.04
210
0.0000000000000001
220
0.0
230
-1.0
100
AcDbArc
 50
350.0
 51
80.0
  0
ARC
  5
306
330
70
100
AcDbEntity
  8
Visible
100
AcDbCircle
 10
-5.273092
 20
9.586203
 30
0.0
 40
0.0399999999999999
210
0.0000000000000001
220
0.0
230
-1.0
100
AcDbArc
 50
80.0
 51
170.0
  0
ARC
  5
307
330
70
100
AcDbEntity
  8
Visible
100
AcDbCircle
 10
-4.74718
 20
8.835122
 30
0.0
 40
0.04
210
0.0000000000000001
220
0.0
230
-1.0
100
AcDbArc
 50
260.0
 51
350.0
  0
ARC
  5
308
330
70
100
AcDbEntity
  8
Visible
100
AcDbCircle
 10
-5.385676
 20
8.947706
 30
0.0
 40
0.04
210
0.0000000000000001
220
0.0
230
-1.0
100
AcDbArc
 50
170.0
 51
260.0
  0
LINE
  5
309
330
70
100
AcDbEntity
  8
Visible
100
AcDbLine
 10
5.392622
 20
8.908314
 30
0.0
 11
4.754126
 21
8.79573
 31
0.0
210
0.0
220
1.0
230
0.0
  0
LINE
  5
30A
330
70
100
AcDbEntity
  8
Visible
100
AcDbLine
 10
5.312484
 20
9.593149
 30
0.0
 11
5.425069
 21
8.954652
 31
0.0
210
0.0
220
1.0
230
0.0
  0
LINE
  5
30B
330
70
100
AcDbEntity
  8
Visible
100
AcDbLine
 10
4.707787
 20
8.828176
 30
0.0
 11
4.595203
 21
9.466673
 31
0.0
210
0.0
220
1.0
230
0.0
  0
LINE
  5
30C
330
70
100
AcDbEntity
  8
Visible
100
AcDbLine
 10
4.62765
 20
9.513011
 30
0.0
 11
5.266146
 21
9.625595
 31
0.0
210
0.0
220
1.0
230
0.0
  0
ARC
  5
30D
330
70
100
AcDbEntity
  8
Visible
100
AcDbCircle
 10
-3.200033
 20
9.220666
 30
0.0
 40
0.04
210
0.0000000000000001
220
0.0
230
-1.0
100
AcDbArc
 50
350.0
 51
80.0
  0
ARC
  5
30E
330
70
100
AcDbEntity
  8
Visible
100
AcDbCircle
 10
-3.83853
 20
9.333251
 30
0.0
 40
0.0399999999999999
210
0.0000000000000001
220
0.0
230
-1.0
100
AcDbArc
 50
80.0
 51
170.0
  0
ARC
  5
30F
330
70
100
AcDbEntity
  8
Visible
100
AcDbCircle
 10
-3.312617
 20
8.58217
 30
0.0
 40
0.04
210
0.0000000000000001
220
0.0
230
-1.0
100
AcDbArc
 50
260.0
 51
350.0
  0
ARC
  5
310
330
70
100
AcDbEntity
  8
Visible
100
AcDbCircle
 10
-3.951114
 20
8.694754
 30
0.0
 40
0.04
210
0.0000000000000001
220
0.0
230
-1.0
100
AcDbArc
 50
170.0
 51
260.0
  0
LINE
  5
311
330
70
100
AcDbEntity
  8
Visible
100
AcDbLine
 10
3.95806
 20
8.655362
 30
0.0
 11
3.319563
 21
8.542778
 31
0.0
210
0.0
220
1.0
230
0.0
  0
LINE
  5
312
330
70
100
AcDbEntity
  8
Visible
100
AcDbLine
 10
3.877922
 20
9.340197
 30
0.0
 11
3.990506
 21
8.7017
 31
0.0
210
0.0
220
1.0
230
0.0
  0
LINE
  5
313
330
70
100
AcDbEntity
  8
Visible
100
AcDbLine
 10
3.273225
 20
8.575224
 30
0.0
 11
3.160641
 21
9.213721
 31
0.0
210
0.0
220
1.0
230
0.0
  0
LINE
  5
314
330
70
100
AcDbEntity
  8
Visible
100
AcDbLine
 10
3.193087
 20
9.260059
 30
0.0
 11
3.831584
 21
9.372643
 31
0.0
210
0.0
220
1.0
230
0.0
  0
ARC
  5
315
330
70
100
AcDbEntity
  8
Visible
100
AcDbCircle
 10
3.903422
 20
9.425927
 30
0.0
 40
0.04
100
AcDbArc
 50
190.0
 51
280.0
  0
ARC
  5
316
330
70
100
AcDbEntity
  8
Visible
100
AcDbCircle
 10
4.541919
 20
9.538511
 30
0.0
 40
0.0399999999999999
100
AcDbArc
 50
280.0
 51
10.0
  0
ARC
  5
317
330
70
100
AcDbEntity
  8
Visible
100
AcDbCircle
 10
3.790838
 20
10.064424
 30
0.0
 40
0.04
100
AcDbArc
 50
100.0
 51
190.0
  0
ARC
  5
318
330
70
100
AcDbEntity
  8
Visible
100
AcDbCircle
 10
4.429335
 20
10.177008
 30
0.0
 40
0.04
100
AcDbArc
 50
10.0
 51
100.0
  0
LINE
  5
319
330
70
100
AcDbEntity
  8
Visible
100
AcDbLine
 10
4.422389
 20
10.2164
 30
0.0
 11
3.783892
 21
10.103816
 31
0.0
210
0.0
220
1.0
230
0.0
  0
LINE
  5
31A
330
70
100
AcDbEntity
  8
Visible
100
AcDbLine
 10
4.581311
 20
9.545457
 30
0.0
 11
4.468727
 21
10.183954
 31
0.0
210
0.0
220
1.0
230
0.0
  0
LINE
  5
31B
330
70
100
AcDbEntity
  8
Visible
100
AcDbLine
 10
3.751446
 20
10.057478
 30
0.0
 11
3.86403
 21
9.418981
 31
0.0
210
0.0
220
1.0
230
0.0
  0
LINE
  5
31C
330
70
100
AcDbEntity
  8
Visible
100
AcDbLine
 10
3.910368
 20
9.386535
 30
0.0
 11
4.548865
 21
9.499119
 31
0.0
210
0.0
220
1.0
230
0.0
  0
ARC
  5
31D
330
70
100
AcDbEntity
  8
Visible
100
AcDbCircle
 10
4.620704
 20
9.552403
 30
0.0
 40
0.04
100
AcDbArc
 50
190.0
 51
280.0
  0
ARC
  5
31E
330
70
100
AcDbEntity
  8
Visible
100
AcDbCircle
 10
5.2592
 20
9.664987
 30
0.0
 40
0.0399999999999999
100
AcDbArc
 50
280.0
 51
10.0
  0
ARC
  5
31F
330
70
100
AcDbEntity
  8
Visible
100
AcDbCircle
 10
4.508119
 20
10.1909
 30
0.0
 40
0.04
100
AcDbArc
 50
100.0
 51
190.0
  0
ARC
  5
320
330
70
100
AcDbEntity
  8
Visible
100
AcDbCircle
 10
5.146616
 20
10.303484
 30
0.0
 40
0.04
100
AcDbArc
 50
10.0
 51
100.0
  0
LINE
  5
321
330
70
100
AcDbEntity
  8
Visible
100
AcDbLine
 10
5.13967
 20
10.342876
 30
0.0
 11
4.501174
 21
10.230292
 31
0.0
210
0.0
220
1.0
230
0.0
  0
LINE
  5
322
330
70
100
AcDbEntity
  8
Visible
100
AcDbLine
 10
5.298593
 20
9.671933
 30
0.0
 11
5.186008
 21
10.31043
 31
0.0
210
0.0
220
1.0
230
0.0
  0
LINE
  5
323
330
70
100
AcDbEntity
  8
Visible
100
AcDbLine
 10
4.468727
 20
10.183954
 30
0.0
 11
4.581311
 21
9.545457
 31
0.0
210
0.0
220
1.0
230
0.0
  0
LINE
  5
324
330
70
100
AcDbEntity
  8
Visible
100
AcDbLine
 10
4.62765
 20
9.513011
 30
0.0
 11
5.266146
 21
9.625595
 31
0.0
210
0.0
220
1.0
230
0.0
  0
ARC
  5
325
330
70
100
AcDbEntity
  8
Visible
100
AcDbCircle
 10
3.186141
 20
9.299451
 30
0.0
 40
0.04
100
AcDbArc
 50
190.0
 51
280.0
  0
ARC
  5
326
330
70
100
AcDbEntity
  8
Visible
100
AcDbCircle
 10
3.824638
 20
9.412035
 30
0.0
 40
0.0399999999999999
100
AcDbArc
 50
280.0
 51
10.0
  0
ARC
  5
327
330
70
100
AcDbEntity
  8
Visible
100
AcDbCircle
 10
3.073557
 20
9.937948
 30
0.0
 40
0.04
100
AcDbArc
 50
100.0
 51
190.0
  0
ARC
  5
328
330
70
100
AcDbEntity
  8
Visible
100
AcDbCircle
 10
3.712054
 20
10.050532
 30
0.0
 40
0.04
100
AcDbArc
 50
10.0
 51
100.0
  0
LINE
  5
329
330
70
100
AcDbEntity
  8
Visible
100
AcDbLine
 10
3.705108
 20
10.089924
 30
0.0
 11
3.066611
 21
9.97734
 31
0.0
210
0.0
220
1.0
230
0.0
  0
LINE
  5
32A
330
70
100
AcDbEntity
  8
Visible
100
AcDbLine
 10
3.86403
 20
9.418981
 30
0.0
 11
3.751446
 21
10.057478
 31
0.0
210
0.0
220
1.0
230
0.0
  0
LINE
  5
32B
330
70
100
AcDbEntity
  8
Visible
100
AcDbLine
 10
3.034165
 20
9.931002
 30
0.0
 11
3.146749
 21
9.292505
 31
0.0
210
0.0
220
1.0
230
0.0
  0
LINE
  5
32C
330
70
100
AcDbEntity
  8
Visible
100
AcDbLine
 10
3.193087
 20
9.260059
 30
0.0
 11
3.831584
 21
9.372643
 31
0.0
210
0.0
220
1.0
230
0.0
  0
ARC
  5
32D
330
70
100
AcDbEntity
  8
Visible
100
AcDbCircle
 10
4.156374
 20
7.991365
 30
0.0
 40
0.04
100
AcDbArc
 50
190.0
 51
280.0
  0
ARC
  5
32E
330
70
100
AcDbEntity
  8
Visible
100
AcDbCircle
 10
4.794871
 20
8.103949
 30
0.0
 40
0.0399999999999999
100
AcDbArc
 50
280.0
 51
10.0
  0
ARC
  5
32F
330
70
100
AcDbEntity
  8
Visible
100
AcDbCircle
 10
4.04379
 20
8.629861
 30
0.0
 40
0.04
100
AcDbArc
 50
100.0
 51
190.0
  0
ARC
  5
330
330
70
100
AcDbEntity
  8
Visible
100
AcDbCircle
 10
4.682287
 20
8.742445
 30
0.0
 40
0.04
100
AcDbArc
 50
10.0
 51
100.0
  0
LINE
  5
331
330
70
100
AcDbEntity
  8
Visible
100
AcDbLine
 10
4.675341
 20
8.781838
 30
0.0
 11
4.036844
 21
8.669254
 31
0.0
210
0.0
220
1.0
230
0.0
  0
LINE
  5
332
330
70
100
AcDbEntity
  8
Visible
100
AcDbLine
 10
4.834263
 20
8.110895
 30
0.0
 11
4.721679
 21
8.749391
 31
0.0
210
0.0
220
1.0
230
0.0
  0
LINE
  5
333
330
70
100
AcDbEntity
  8
Visible
100
AcDbLine
 10
4.004398
 20
8.622915
 30
0.0
 11
4.116982
 21
7.984419
 31
0.0
210
0.0
220
1.0
230
0.0
  0
LINE
  5
334
330
70
100
AcDbEntity
  8
Visible
100
AcDbLine
 10
4.16332
 20
7.951972
 30
0.0
 11
4.801817
 21
8.064557
 31
0.0
210
0.0
220
1.0
230
0.0
  0
ARC
  5
335
330
70
100
AcDbEntity
  8
Visible
100
AcDbCircle
 10
4.873656
 20
8.117841
 30
0.0
 40
0.04
100
AcDbArc
 50
190.0
 51
280.0
  0
ARC
  5
336
330
70
100
AcDbEntity
  8
Visible
100
AcDbCircle
 10
5.512152
 20
8.230425
 30
0.0
 40
0.0399999999999999
100
AcDbArc
 50
280.0
 51
10.0
  0
ARC
  5
337
330
70
100
AcDbEntity
  8
Visible
100
AcDbCircle
 10
4.761072
 20
8.756337
 30
0.0
 40
0.04
100
AcDbArc
 50
100.0
 51
190.0
  0
ARC
  5
338
330
70
100
AcDbEntity
  8
Visible
100
AcDbCircle
 10
5.399568
 20
8.868921
 30
0.0
 40
0.04
100
AcDbArc
 50
10.0
 51
100.0
  0
LINE
  5
339
330
70
100
AcDbEntity
  8
Visible
100
AcDbLine
 10
5.392622
 20
8.908314
 30
0.0
 11
4.754126
 21
8.79573
 31
0.0
210
0.0
220
1.0
230
0.0
  0
LINE
  5
33A
330
70
100
AcDbEntity
  8
Visible
100
AcDbLine
 10
5.551545
 20
8.237371
 30
0.0
 11
5.43896
 21
8.875867
 31
0.0
210
0.0
220
1.0
230
0.0
  0
LINE
  5
33B
330
70
100
AcDbEntity
  8
Visible
100
AcDbLine
 10
4.721679
 20
8.749391
 30
0.0
 11
4.834263
 21
8.110895
 31
0.0
210
0.0
220
1.0
230
0.0
  0
LINE
  5
33C
330
70
100
AcDbEntity
  8
Visible
100
AcDbLine
 10
4.880602
 20
8.078448
 30
0.0
 11
5.519098
 21
8.191033
 31
0.0
210
0.0
220
1.0
230
0.0
  0
ARC
  5
33D
330
70
100
AcDbEntity
  8
Visible
100
AcDbCircle
 10
3.439093
 20
7.864889
 30
0.0
 40
0.04
100
AcDbArc
 50
190.0
 51
280.0
  0
ARC
  5
33E
330
70
100
AcDbEntity
  8
Visible
100
AcDbCircle
 10
4.07759
 20
7.977473
 30
0.0
 40
0.0399999999999999
100
AcDbArc
 50
280.0
 51
10.0
  0
ARC
  5
33F
330
70
100
AcDbEntity
  8
Visible
100
AcDbCircle
 10
3.326509
 20
8.503385
 30
0.0
 40
0.04
100
AcDbArc
 50
100.0
 51
190.0
  0
ARC
  5
340
330
70
100
AcDbEntity
  8
Visible
100
AcDbCircle
 10
3.965006
 20
8.615969
 30
0.0
 40
0.04
100
AcDbArc
 50
10.0
 51
100.0
  0
LINE
  5
341
330
70
100
AcDbEntity
  8
Visible
100
AcDbLine
 10
3.95806
 20
8.655362
 30
0.0
 11
3.319563
 21
8.542778
 31
0.0
210
0.0
220
1.0
230
0.0
  0
LINE
  5
342
330
70
100
AcDbEntity
  8
Visible
100
AcDbLine
 10
4.116982
 20
7.984419
 30
0.0
 11
4.004398
 21
8.622915
 31
0.0
210
0.0
220
1.0
230
0.0
  0
LINE
  5
343
330
70
100
AcDbEntity
  8
Visible
100
AcDbLine
 10
3.287117
 20
8.496439
 30
0.0
 11
3.399701
 21
7.857943
 31
0.0
210
0.0
220
1.0
230
0.0
  0
LINE
  5
344
330
70
100
AcDbEntity
  8
Visible
100
AcDbLine
 10
3.446039
 20
7.825496
 30
0.0
 11
4.084536
 21
7.93808
 31
0.0
210
0.0
220
1.0
230
0.0
  0
LINE
  5
345
330
70
100
AcDbEntity
  8
Visible
100
AcDbLine
 10
6.438565
 20
6.491667
 30
0.0
 11
6.567855
 21
6.491667
 31
0.0
210
0.0
220
1.0
230
0.0
  0
LINE
  5
346
330
70
100
AcDbEntity
  8
Visible
100
AcDbLine
 10
2.017855
 20
6.491667
 30
0.0
 11
5.993051
 21
6.491667
 31
0.0
210
0.0
220
1.0
230
0.0
  0
ARC
  5
347
330
70
100
AcDbEntity
  8
Visible
100
AcDbCircle
 10
6.642855
 20
6.241667
 30
0.0
 40
0.1500000000000001
100
AcDbArc
 50
0.0
 51
90.0
  0
ARC
  5
348
330
70
100
AcDbEntity
  8
Visible
100
AcDbCircle
 10
1.942855
 20
6.241667
 30
0.0
 40
0.1500000000000001
100
AcDbArc
 50
90.0
 51
180.0
  0
LINE
  5
349
330
70
100
AcDbEntity
  8
Visible
100
AcDbLine
 10
6.642855
 20
6.391667
 30
0.0
 11
4.292855
 21
6.391667
 31
0.0
210
0.0
220
1.0
230
0.0
  0
LINE
  5
34A
330
70
100
AcDbEntity
  8
Visible
100
AcDbLine
 10
4.292855
 20
6.391667
 30
0.0
 11
1.942855
 21
6.391667
 31
0.0
210
0.0
220
1.0
230
0.0
  0
LINE
  5
34B
330
70
100
AcDbEntity
  8
Visible
100
AcDbLine
 10
1.942855
 20
5.641667
 30
0.0
 11
1.792855
 21
5.641667
 31
0.0
210
0.0
220
1.0
230
0.0
  0
LINE
  5
34C
330
70
100
AcDbEntity
  8
Visible
100
AcDbLine
 10
1.792855
 20
6.241667
 30
0.0
 11
1.792855
 21
5.641667
 31
0.0
210
0.0
220
1.0
230
0.0
  0
LINE
  5
34D
330
70
100
AcDbEntity
  8
Visible
100
AcDbLine
 10
6.792855
 20
5.641667
 30
0.0
 11
6.642855
 21
5.641667
 31
0.0
210
0.0
220
1.0
230
0.0
  0
LINE
  5
34E
330
70
100
AcDbEntity
  8
Visible
100
AcDbLine
 10
6.792855
 20
5.641667
 30
0.0
 11
6.792855
 21
6.241667
 31
0.0
210
0.0
220
1.0
230
0.0
  0
LINE
  5
34F
330
70
100
AcDbEntity
  8
Visible
100
AcDbLine
 10
6.642855
 20
5.641667
 30
0.0
 11
1.942855
 21
5.641667
 31
0.0
210
0.0
220
1.0
230
0.0
  0
ARC
  5
350
330
70
100
AcDbEntity
  8
Visible
100
AcDbCircle
 10
-2.017855
 20
6.416667
 30
0.0
 40
0.075
210
0.0000000000000001
220
0.0
230
-1.0
100
AcDbArc
 50
0.0
 51
90.0
  0
ARC
  5
351
330
70
100
AcDbEntity
  8
Visible
100
AcDbCircle
 10
-6.567855
 20
6.416667
 30
0.0
 40
0.075
210
0.0000000000000001
220
0.0
230
-1.0
100
AcDbArc
 50
90.0
 51
180.0
  0
LINE
  5
352
330
70
100
AcDbEntity
  8
Visible
100
AcDbLine
 10
6.642855
 20
6.416667
 30
0.0
 11
6.642855
 21
6.391667
 31
0.0
210
0.0
220
1.0
230
0.0
  0
LINE
  5
353
330
70
100
AcDbEntity
  8
Visible
100
AcDbLine
 10
1.942855
 20
6.416667
 30
0.0
 11
1.942855
 21
6.391667
 31
0.0
210
0.0
220
1.0
230
0.0
  0
LINE
  5
354
330
70
100
AcDbEntity
  8
Visible
100
AcDbLine
 10
6.546723
 20
6.541667
 30
0.0
 11
6.441917
 21
6.541667
 31
0.0
210
0.0
220
1.0
230
0.0
  0
LINE
  5
355
330
70
100
AcDbEntity
  8
Visible
100
AcDbLine
 10
6.546723
 20
6.491667
 30
0.0
 11
6.546723
 21
6.541667
 31
0.0
210
0.0
220
1.0
230
0.0
  0
LINE
  5
356
330
70
100
AcDbEntity
  8
Visible
100
AcDbLine
 10
6.441917
 20
6.541667
 30
0.0
 11
6.438565
 21
6.541667
 31
0.0
210
0.0
220
1.0
230
0.0
  0
LINE
  5
357
330
70
100
AcDbEntity
  8
Visible
100
AcDbLine
 10
6.441917
 20
6.491667
 30
0.0
 11
6.441917
 21
6.541667
 31
0.0
210
0.0
220
1.0
230
0.0
  0
LINE
  5
358
330
70
100
AcDbEntity
  8
Visible
100
AcDbLine
 10
5.993051
 20
6.541667
 30
0.0
 11
5.912758
 21
6.541667
 31
0.0
210
0.0
220
1.0
230
0.0
  0
LINE
  5
359
330
70
100
AcDbEntity
  8
Visible
100
AcDbLine
 10
5.912758
 20
6.491667
 30
0.0
 11
5.912758
 21
6.541667
 31
0.0
210
0.0
220
1.0
230
0.0
  0
LINE
  5
35A
330
70
100
AcDbEntity
  8
Visible
100
AcDbLine
 10
5.664019
 20
6.541667
 30
0.0
 11
5.439019
 21
6.541667
 31
0.0
210
0.0
220
1.0
230
0.0
  0
LINE
  5
35B
330
70
100
AcDbEntity
  8
Visible
100
AcDbLine
 10
5.439019
 20
6.491667
 30
0.0
 11
5.439019
 21
6.541667
 31
0.0
210
0.0
220
1.0
230
0.0
  0
LINE
  5
35C
330
70
100
AcDbEntity
  8
Visible
100
AcDbLine
 10
5.664019
 20
6.491667
 30
0.0
 11
5.664019
 21
6.541667
 31
0.0
210
0.0
220
1.0
230
0.0
  0
LINE
  5
35D
330
70
100
AcDbEntity
  8
Visible
100
AcDbLine
 10
5.067074
 20
6.541667
 30
0.0
 11
4.842074
 21
6.541667
 31
0.0
210
0.0
220
1.0
230
0.0
  0
LINE
  5
35E
330
70
100
AcDbEntity
  8
Visible
100
AcDbLine
 10
4.842074
 20
6.491667
 30
0.0
 11
4.842074
 21
6.541667
 31
0.0
210
0.0
220
1.0
230
0.0
  0
LINE
  5
35F
330
70
100
AcDbEntity
  8
Visible
100
AcDbLine
 10
5.067074
 20
6.491667
 30
0.0
 11
5.067074
 21
6.541667
 31
0.0
210
0.0
220
1.0
230
0.0
  0
LINE
  5
360
330
70
100
AcDbEntity
  8
Visible
100
AcDbLine
 10
4.405355
 20
6.541667
 30
0.0
 11
4.180355
 21
6.541667
 31
0.0
210
0.0
220
1.0
230
0.0
  0
LINE
  5
361
330
70
100
AcDbEntity
  8
Visible
100
AcDbLine
 10
4.180355
 20
6.491667
 30
0.0
 11
4.180355
 21
6.541667
 31
0.0
210
0.0
220
1.0
230
0.0
  0
LINE
  5
362
330
70
100
AcDbEntity
  8
Visible
100
AcDbLine
 10
4.405355
 20
6.491667
 30
0.0
 11
4.405355
 21
6.541667
 31
0.0
210
0.0
220
1.0
230
0.0
  0
LINE
  5
363
330
70
100
AcDbEntity
  8
Visible
100
AcDbLine
 10
3.743636
 20
6.541667
 30
0.0
 11
3.518636
 21
6.541667
 31
0.0
210
0.0
220
1.0
230
0.0
  0
LINE
  5
364
330
70
100
AcDbEntity
  8
Visible
100
AcDbLine
 10
3.518636
 20
6.491667
 30
0.0
 11
3.518636
 21
6.541667
 31
0.0
210
0.0
220
1.0
230
0.0
  0
LINE
  5
365
330
70
100
AcDbEntity
  8
Visible
100
AcDbLine
 10
3.743636
 20
6.491667
 30
0.0
 11
3.743636
 21
6.541667
 31
0.0
210
0.0
220
1.0
230
0.0
  0
LINE
  5
366
330
70
100
AcDbEntity
  8
Visible
100
AcDbLine
 10
3.14669
 20
6.541667
 30
0.0
 11
2.92169
 21
6.541667
 31
0.0
210
0.0
220
1.0
230
0.0
  0
LINE
  5
367
330
70
100
AcDbEntity
  8
Visible
100
AcDbLine
 10
2.92169
 20
6.491667
 30
0.0
 11
2.92169
 21
6.541667
 31
0.0
210
0.0
220
1.0
230
0.0
  0
LINE
  5
368
330
70
100
AcDbEntity
  8
Visible
100
AcDbLine
 10
3.14669
 20
6.491667
 30
0.0
 11
3.14669
 21
6.541667
 31
0.0
210
0.0
220
1.0
230
0.0
  0
LINE
  5
369
330
70
100
AcDbEntity
  8
Visible
100
AcDbLine
 10
2.672952
 20
6.541667
 30
0.0
 11
2.447952
 21
6.541667
 31
0.0
210
0.0
220
1.0
230
0.0
  0
LINE
  5
36A
330
70
100
AcDbEntity
  8
Visible
100
AcDbLine
 10
2.447952
 20
6.491667
 30
0.0
 11
2.447952
 21
6.541667
 31
0.0
210
0.0
220
1.0
230
0.0
  0
LINE
  5
36B
330
70
100
AcDbEntity
  8
Visible
100
AcDbLine
 10
2.672952
 20
6.491667
 30
0.0
 11
2.672952
 21
6.541667
 31
0.0
210
0.0
220
1.0
230
0.0
  0
LINE
  5
36C
330
70
100
AcDbEntity
  8
Visible
100
AcDbLine
 10
2.368793
 20
6.541667
 30
0.0
 11
2.143793
 21
6.541667
 31
0.0
210
0.0
220
1.0
230
0.0
  0
LINE
  5
36D
330
70
100
AcDbEntity
  8
Visible
100
AcDbLine
 10
2.143793
 20
6.491667
 30
0.0
 11
2.143793
 21
6.541667
 31
0.0
210
0.0
220
1.0
230
0.0
  0
LINE
  5
36E
330
70
100
AcDbEntity
  8
Visible
100
AcDbLine
 10
2.368793
 20
6.491667
 30
0.0
 11
2.368793
 21
6.541667
 31
0.0
210
0.0
220
1.0
230
0.0
  0
LINE
  5
36F
330
70
100
AcDbEntity
  8
Visible
100
AcDbLine
 10
2.143793
 20
6.541667
 30
0.0
 11
2.038987
 21
6.541667
 31
0.0
210
0.0
220
1.0
230
0.0
  0
LINE
  5
370
330
70
100
AcDbEntity
  8
Visible
100
AcDbLine
 10
2.038987
 20
6.491667
 30
0.0
 11
2.038987
 21
6.541667
 31
0.0
210
0.0
220
1.0
230
0.0
  0
LINE
  5
371
330
70
100
AcDbEntity
  8
Visible
100
AcDbLine
 10
6.043051
 20
6.641667
 30
0.0
 11
6.388565
 21
6.641667
 31
0.0
210
0.0
220
1.0
230
0.0
  0
ARC
  5
372
330
70
100
AcDbEntity
  8
Visible
100
AcDbCircle
 10
-6.388565
 20
6.591667
 30
0.0
 40
0.05
210
0.0000000000000001
220
0.0
230
-1.0
100
AcDbArc
 50
90.0
 51
180.0
  0
ARC
  5
373
330
70
100
AcDbEntity
  8
Visible
100
AcDbCircle
 10
-6.043051
 20
6.591667
 30
0.0
 40
0.05
210
0.0000000000000001
220
0.0
230
-1.0
100
AcDbArc
 50
0.0
 51
90.0
  0
LINE
  5
374
330
70
100
AcDbEntity
  8
Visible
100
AcDbLine
 10
5.993051
 20
6.391667
 30
0.0
 11
5.993051
 21
6.591667
 31
0.0
210
0.0
220
1.0
230
0.0
  0
LINE
  5
375
330
70
100
AcDbEntity
  8
Visible
100
AcDbLine
 10
6.438565
 20
6.391667
 30
0.0
 11
6.438565
 21
6.591667
 31
0.0
210
0.0
220
1.0
230
0.0
  0
ARC
  5
376
330
70
100
AcDbEntity
  8
Visible
100
AcDbCircle
 10
11.589434
 20
8.87049
 30
0.0
 40
0.04
100
AcDbArc
 50
90.0
 51
180.0
  0
ARC
  5
377
330
70
100
AcDbEntity
  8
Visible
100
AcDbCircle
 10
11.589434
 20
8.222144
 30
0.0
 40
0.04
100
AcDbArc
 50
180.0
 51
270.0
  0
ARC
  5
378
330
70
100
AcDbEntity
  8
Visible
100
AcDbCircle
 10
12.237781
 20
8.87049
 30
0.0
 40
0.04
100
AcDbArc
 50
0.0
 51
90.0
  0
ARC
  5
379
330
70
100
AcDbEntity
  8
Visible
100
AcDbCircle
 10
12.237781
 20
8.222144
 30
0.0
 40
0.04
100
AcDbArc
 50
270.0
 51
0.0
  0
LINE
  5
37A
330
70
100
AcDbEntity
  8
Visible
100
AcDbLine
 10
11.589434
 20
8.182144
 30
0.0
 11
12.237781
 21
8.182144
 31
0.0
  0
LINE
  5
37B
330
70
100
AcDbEntity
  8
Visible
100
AcDbLine
 10
12.277781
 20
8.222144
 30
0.0
 11
12.277781
 21
8.87049
 31
0.0
  0
LINE
  5
37C
330
70
100
AcDbEntity
  8
Visible
100
AcDbLine
 10
12.237781
 20
8.91049
 30
0.0
 11
11.589434
 21
8.91049
 31
0.0
  0
LINE
  5
37D
330
70
100
AcDbEntity
  8
Visible
100
AcDbLine
 10
11.549434
 20
8.87049
 30
0.0
 11
11.549434
 21
8.222144
 31
0.0
  0
ARC
  5
37E
330
70
100
AcDbEntity
  8
Visible
100
AcDbCircle
 10
10.861088
 20
8.87049
 30
0.0
 40
0.04
100
AcDbArc
 50
90.0
 51
180.0
  0
ARC
  5
37F
330
70
100
AcDbEntity
  8
Visible
100
AcDbCircle
 10
10.861088
 20
8.222144
 30
0.0
 40
0.04
100
AcDbArc
 50
180.0
 51
270.0
  0
ARC
  5
380
330
70
100
AcDbEntity
  8
Visible
100
AcDbCircle
 10
11.509434
 20
8.87049
 30
0.0
 40
0.04
100
AcDbArc
 50
0.0
 51
90.0
  0
ARC
  5
381
330
70
100
AcDbEntity
  8
Visible
100
AcDbCircle
 10
11.509434
 20
8.222144
 30
0.0
 40
0.04
100
AcDbArc
 50
270.0
 51
0.0
  0
LINE
  5
382
330
70
100
AcDbEntity
  8
Visible
100
AcDbLine
 10
10.861088
 20
8.182144
 30
0.0
 11
11.509434
 21
8.182144
 31
0.0
  0
LINE
  5
383
330
70
100
AcDbEntity
  8
Visible
100
AcDbLine
 10
11.549434
 20
8.222144
 30
0.0
 11
11.549434
 21
8.87049
 31
0.0
  0
LINE
  5
384
330
70
100
AcDbEntity
  8
Visible
100
AcDbLine
 10
11.509434
 20
8.91049
 30
0.0
 11
10.861088
 21
8.91049
 31
0.0
  0
LINE
  5
385
330
70
100
AcDbEntity
  8
Visible
100
AcDbLine
 10
10.821088
 20
8.87049
 30
0.0
 11
10.821088
 21
8.222144
 31
0.0
  0
ARC
  5
386
330
70
100
AcDbEntity
  8
Visible
100
AcDbCircle
 10
11.589434
 20
8.87049
 30
0.0
 40
0.04
100
AcDbArc
 50
90.0
 51
180.0
  0
ARC
  5
387
330
70
100
AcDbEntity
  8
Visible
100
AcDbCircle
 10
11.589434
 20
8.222144
 30
0.0
 40
0.04
100
AcDbArc
 50
180.0
 51
270.0
  0
ARC
  5
388
330
70
100
AcDbEntity
  8
Visible
100
AcDbCircle
 10
12.237781
 20
8.87049
 30
0.0
 40
0.04
100
AcDbArc
 50
0.0
 51
90.0
  0
ARC
  5
389
330
70
100
AcDbEntity
  8
Visible
100
AcDbCircle
 10
12.237781
 20
8.222144
 30
0.0
 40
0.04
100
AcDbArc
 50
270.0
 51
0.0
  0
LINE
  5
38A
330
70
100
AcDbEntity
  8
Visible
100
AcDbLine
 10
11.589434
 20
8.182144
 30
0.0
 11
12.237781
 21
8.182144
 31
0.0
  0
LINE
  5
38B
330
70
100
AcDbEntity
  8
Visible
100
AcDbLine
 10
12.277781
 20
8.222144
 30
0.0
 11
12.277781
 21
8.87049
 31
0.0
  0
LINE
  5
38C
330
70
100
AcDbEntity
  8
Visible
100
AcDbLine
 10
12.237781
 20
8.91049
 30
0.0
 11
11.589434
 21
8.91049
 31
0.0
  0
LINE
  5
38D
330
70
100
AcDbEntity
  8
Visible
100
AcDbLine
 10
11.549434
 20
8.87049
 30
0.0
 11
11.549434
 21
8.222144
 31
0.0
  0
ARC
  5
38E
330
70
100
AcDbEntity
  8
Visible
100
AcDbCircle
 10
12.317781
 20
8.87049
 30
0.0
 40
0.04
100
AcDbArc
 50
90.0
 51
180.0
  0
ARC
  5
38F
330
70
100
AcDbEntity
  8
Visible
100
AcDbCircle
 10
12.317781
 20
8.222144
 30
0.0
 40
0.04
100
AcDbArc
 50
180.0
 51
270.0
  0
ARC
  5
390
330
70
100
AcDbEntity
  8
Visible
100
AcDbCircle
 10
12.966127
 20
8.87049
 30
0.0
 40
0.04
100
AcDbArc
 50
0.0
 51
90.0
  0
ARC
  5
391
330
70
100
AcDbEntity
  8
Visible
100
AcDbCircle
 10
12.966127
 20
8.222144
 30
0.0
 40
0.04
100
AcDbArc
 50
270.0
 51
0.0
  0
LINE
  5
392
330
70
100
AcDbEntity
  8
Visible
100
AcDbLine
 10
12.317781
 20
8.182144
 30
0.0
 11
12.966127
 21
8.182144
 31
0.0
  0
LINE
  5
393
330
70
100
AcDbEntity
  8
Visible
100
AcDbLine
 10
13.006127
 20
8.222144
 30
0.0
 11
13.006127
 21
8.87049
 31
0.0
  0
LINE
  5
394
330
70
100
AcDbEntity
  8
Visible
100
AcDbLine
 10
12.966127
 20
8.91049
 30
0.0
 11
12.317781
 21
8.91049
 31
0.0
  0
LINE
  5
395
330
70
100
AcDbEntity
  8
Visible
100
AcDbLine
 10
12.277781
 20
8.87049
 30
0.0
 11
12.277781
 21
8.222144
 31
0.0
  0
ARC
  5
396
330
70
100
AcDbEntity
  8
Visible
100
AcDbCircle
 10
-11.589434
 20
7.493797
 30
0.0
 40
0.04
210
0.0
220
0.0
230
-1.0
100
AcDbArc
 50
270.0
 51
0.0
  0
ARC
  5
397
330
70
100
AcDbEntity
  8
Visible
100
AcDbCircle
 10
-11.589434
 20
8.142144
 30
0.0
 40
0.04
210
0.0
220
0.0
230
-1.0
100
AcDbArc
 50
0.0
 51
90.0
  0
ARC
  5
398
330
70
100
AcDbEntity
  8
Visible
100
AcDbCircle
 10
-12.237781
 20
7.493797
 30
0.0
 40
0.04
210
0.0
220
0.0
230
-1.0
100
AcDbArc
 50
180.0
 51
270.0
  0
ARC
  5
399
330
70
100
AcDbEntity
  8
Visible
100
AcDbCircle
 10
-12.237781
 20
8.142144
 30
0.0
 40
0.04
210
0.0
220
0.0
230
-1.0
100
AcDbArc
 50
90.0
 51
180.0
  0
LINE
  5
39A
330
70
100
AcDbEntity
  8
Visible
100
AcDbLine
 10
11.589434
 20
8.182144
 30
0.0
 11
12.237781
 21
8.182144
 31
0.0
  0
LINE
  5
39B
330
70
100
AcDbEntity
  8
Visible
100
AcDbLine
 10
12.277781
 20
8.142144
 30
0.0
 11
12.277781
 21
7.493797
 31
0.0
  0
LINE
  5
39C
330
70
100
AcDbEntity
  8
Visible
100
AcDbLine
 10
12.128872
 20
7.453797
 30
0.0
 11
12.057194
 21
7.453797
 31
0.0
  0
LINE
  5
39D
330
70
100
AcDbEntity
  8
Visible
100
AcDbLine
 10
11.821524
 20
7.453797
 30
0.0
 11
11.589434
 21
7.453797
 31
0.0
  0
LINE
  5
39E
330
70
100
AcDbEntity
  8
Visible
100
AcDbLine
 10
11.549434
 20
7.493797
 30
0.0
 11
11.549434
 21
8.142144
 31
0.0
  0
ARC
  5
39F
330
70
100
AcDbEntity
  8
Visible
100
AcDbCircle
 10
-12.317781
 20
7.493797
 30
0.0
 40
0.04
210
0.0
220
0.0
230
-1.0
100
AcDbArc
 50
270.0
 51
0.0
  0
ARC
  5
3A0
330
70
100
AcDbEntity
  8
Visible
100
AcDbCircle
 10
-12.317781
 20
8.142144
 30
0.0
 40
0.04
210
0.0
220
0.0
230
-1.0
100
AcDbArc
 50
0.0
 51
90.0
  0
ARC
  5
3A1
330
70
100
AcDbEntity
  8
Visible
100
AcDbCircle
 10
-12.966127
 20
7.493797
 30
0.0
 40
0.04
210
0.0
220
0.0
230
-1.0
100
AcDbArc
 50
180.0
 51
270.0
  0
ARC
  5
3A2
330
70
100
AcDbEntity
  8
Visible
100
AcDbCircle
 10
-12.966127
 20
8.142144
 30
0.0
 40
0.04
210
0.0
220
0.0
230
-1.0
100
AcDbArc
 50
90.0
 51
180.0
  0
LINE
  5
3A3
330
70
100
AcDbEntity
  8
Visible
100
AcDbLine
 10
12.317781
 20
8.182144
 30
0.0
 11
12.966127
 21
8.182144
 31
0.0
  0
LINE
  5
3A4
330
70
100
AcDbEntity
  8
Visible
100
AcDbLine
 10
13.006127
 20
8.142144
 30
0.0
 11
13.006127
 21
7.493797
 31
0.0
  0
LINE
  5
3A5
330
70
100
AcDbEntity
  8
Visible
100
AcDbLine
 10
12.966127
 20
7.453797
 30
0.0
 11
12.796777
 21
7.453797
 31
0.0
  0
LINE
  5
3A6
330
70
100
AcDbEntity
  8
Visible
100
AcDbLine
 10
12.277781
 20
7.493797
 30
0.0
 11
12.277781
 21
8.142144
 31
0.0
  0
ARC
  5
3A7
330
70
100
AcDbEntity
  8
Visible
100
AcDbCircle
 10
-10.861088
 20
7.493797
 30
0.0
 40
0.04
210
0.0
220
0.0
230
-1.0
100
AcDbArc
 50
270.0
 51
0.0
  0
ARC
  5
3A8
330
70
100
AcDbEntity
  8
Visible
100
AcDbCircle
 10
-10.861088
 20
8.142144
 30
0.0
 40
0.04
210
0.0
220
0.0
230
-1.0
100
AcDbArc
 50
0.0
 51
90.0
  0
ARC
  5
3A9
330
70
100
AcDbEntity
  8
Visible
100
AcDbCircle
 10
-11.509434
 20
7.493797
 30
0.0
 40
0.04
210
0.0
220
0.0
230
-1.0
100
AcDbArc
 50
180.0
 51
270.0
  0
ARC
  5
3AA
330
70
100
AcDbEntity
  8
Visible
100
AcDbCircle
 10
-11.509434
 20
8.142144
 30
0.0
 40
0.04
210
0.0
220
0.0
230
-1.0
100
AcDbArc
 50
90.0
 51
180.0
  0
LINE
  5
3AB
330
70
100
AcDbEntity
  8
Visible
100
AcDbLine
 10
10.861088
 20
8.182144
 30
0.0
 11
11.509434
 21
8.182144
 31
0.0
  0
LINE
  5
3AC
330
70
100
AcDbEntity
  8
Visible
100
AcDbLine
 10
11.549434
 20
8.142144
 30
0.0
 11
11.549434
 21
7.493797
 31
0.0
  0
LINE
  5
3AD
330
70
100
AcDbEntity
  8
Visible
100
AcDbLine
 10
11.509434
 20
7.453797
 30
0.0
 11
10.861088
 21
7.453797
 31
0.0
  0
LINE
  5
3AE
330
70
100
AcDbEntity
  8
Visible
100
AcDbLine
 10
10.821088
 20
7.493797
 30
0.0
 11
10.821088
 21
8.142144
 31
0.0
  0
LINE
  5
3AF
330
70
100
AcDbEntity
  8
Visible
100
AcDbLine
 10
13.006429
 20
6.725451
 30
0.0
 11
12.893845
 21
6.725451
 31
0.0
  0
LINE
  5
3B0
330
70
100
AcDbEntity
  8
Visible
100
AcDbLine
 10
12.966127
 20
7.453797
 30
0.0
 11
13.006429
 21
7.453797
 31
0.0
  0
LINE
  5
3B1
330
70
100
AcDbEntity
  8
Visible
100
AcDbLine
 10
12.893845
 20
6.725451
 30
0.0
 11
12.879953
 21
6.725451
 31
0.0
  0
ARC
  5
3B2
330
70
100
AcDbEntity
  8
Visible
100
AcDbCircle
 10
-13.006429
 20
7.413797
 30
0.0
 40
0.04
210
0.0
220
0.0
230
-1.0
100
AcDbArc
 50
90.0
 51
180.0
  0
ARC
  5
3B3
330
70
100
AcDbEntity
  8
Visible
100
AcDbCircle
 10
-13.006429
 20
6.765451
 30
0.0
 40
0.04
210
0.0
220
0.0
230
-1.0
100
AcDbArc
 50
180.0
 51
270.0
  0
LINE
  5
3B4
330
70
100
AcDbEntity
  8
Visible
100
AcDbLine
 10
13.046429
 20
7.413797
 30
0.0
 11
13.046429
 21
6.765451
 31
0.0
  0
LINE
  5
3B5
330
70
100
AcDbEntity
  8
Visible
100
AcDbLine
 10
11.411591
 20
6.725451
 30
0.0
 11
12.050088
 21
6.725451
 31
0.0
  0
LINE
  5
3B6
330
70
100
AcDbEntity
  8
Visible
100
AcDbLine
 10
12.050088
 20
6.725451
 30
0.0
 11
12.128872
 21
6.725451
 31
0.0
  0
LINE
  5
3B7
330
70
100
AcDbEntity
  8
Visible
100
AcDbLine
 10
12.057194
 20
7.453797
 30
0.0
 11
12.050088
 21
7.453797
 31
0.0
  0
LINE
  5
3B8
330
70
100
AcDbEntity
  8
Visible
100
AcDbLine
 10
12.050088
 20
7.453797
 30
0.0
 11
11.821524
 21
7.453797
 31
0.0
  0
LINE
  5
3B9
330
70
100
AcDbEntity
  8
Visible
100
AcDbLine
 10
11.589434
 20
7.453797
 30
0.0
 11
11.509434
 21
7.453797
 31
0.0
  0
ARC
  5
3BA
330
70
100
AcDbEntity
  8
Visible
100
AcDbCircle
 10
-11.411591
 20
7.413797
 30
0.0
 40
0.04
210
0.0
220
0.0
230
-1.0
100
AcDbArc
 50
0.0
 51
90.0
  0
ARC
  5
3BB
330
70
100
AcDbEntity
  8
Visible
100
AcDbCircle
 10
-11.411591
 20
6.765451
 30
0.0
 40
0.04
210
0.0
220
0.0
230
-1.0
100
AcDbArc
 50
270.0
 51
0.0
  0
LINE
  5
3BC
330
70
100
AcDbEntity
  8
Visible
100
AcDbLine
 10
11.371591
 20
6.765451
 30
0.0
 11
11.371591
 21
7.413797
 31
0.0
  0
LINE
  5
3BD
330
70
100
AcDbEntity
  8
Visible
100
AcDbLine
 10
12.128872
 20
6.725451
 30
0.0
 11
12.767369
 21
6.725451
 31
0.0
  0
LINE
  5
3BE
330
70
100
AcDbEntity
  8
Visible
100
AcDbLine
 10
12.767369
 20
6.725451
 30
0.0
 11
12.879953
 21
6.725451
 31
0.0
  0
LINE
  5
3BF
330
70
100
AcDbEntity
  8
Visible
100
AcDbLine
 10
12.796777
 20
7.453797
 30
0.0
 11
12.767369
 21
7.453797
 31
0.0
  0
LINE
  5
3C0
330
70
100
AcDbEntity
  8
Visible
100
AcDbLine
 10
12.767369
 20
7.453797
 30
0.0
 11
12.128872
 21
7.453797
 31
0.0
  0
ARC
  5
3C1
330
70
100
AcDbEntity
  8
Visible
100
AcDbCircle
 10
-12.879953
 20
7.413797
 30
0.0
 40
0.04
210
0.0
220
0.0
230
-1.0
100
AcDbArc
 50
90.0
 51
180.0
  0
ARC
  5
3C2
330
70
100
AcDbEntity
  8
Visible
100
AcDbCircle
 10
-12.128872
 20
7.413797
 30
0.0
 40
0.04
210
0.0
220
0.0
230
-1.0
100
AcDbArc
 50
0.0
 51
90.0
  0
ARC
  5
3C3
330
70
100
AcDbEntity
  8
Visible
100
AcDbCircle
 10
-12.879953
 20
6.765451
 30
0.0
 40
0.04
210
0.0
220
0.0
230
-1.0
100
AcDbArc
 50
180.0
 51
270.0
  0
ARC
  5
3C4
330
70
100
AcDbEntity
  8
Visible
100
AcDbCircle
 10
-12.128872
 20
6.765451
 30
0.0
 40
0.04
210
0.0
220
0.0
230
-1.0
100
AcDbArc
 50
270.0
 51
0.0
  0
LINE
  5
3C5
330
70
100
AcDbEntity
  8
Visible
100
AcDbLine
 10
12.088872
 20
6.765451
 30
0.0
 11
12.088872
 21
7.413797
 31
0.0
  0
LINE
  5
3C6
330
70
100
AcDbEntity
  8
Visible
100
AcDbLine
 10
12.919953
 20
6.765451
 30
0.0
 11
12.919953
 21
7.413797
 31
0.0
  0
LINE
  5
3C7
330
70
100
AcDbEntity
  8
Visible
100
AcDbLine
 10
10.69431
 20
6.725451
 30
0.0
 11
11.332807
 21
6.725451
 31
0.0
  0
LINE
  5
3C8
330
70
100
AcDbEntity
  8
Visible
100
AcDbLine
 10
11.332807
 20
6.725451
 30
0.0
 11
11.411591
 21
6.725451
 31
0.0
  0
LINE
  5
3C9
330
70
100
AcDbEntity
  8
Visible
100
AcDbLine
 10
10.861088
 20
7.453797
 30
0.0
 11
10.69431
 21
7.453797
 31
0.0
  0
ARC
  5
3CA
330
70
100
AcDbEntity
  8
Visible
100
AcDbCircle
 10
-10.69431
 20
7.413797
 30
0.0
 40
0.04
210
0.0
220
0.0
230
-1.0
100
AcDbArc
 50
0.0
 51
90.0
  0
ARC
  5
3CB
330
70
100
AcDbEntity
  8
Visible
100
AcDbCircle
 10
-10.69431
 20
6.765451
 30
0.0
 40
0.04
210
0.0
220
0.0
230
-1.0
100
AcDbArc
 50
270.0
 51
0.0
  0
LINE
  5
3CC
330
70
100
AcDbEntity
  8
Visible
100
AcDbLine
 10
10.65431
 20
6.765451
 30
0.0
 11
10.65431
 21
7.413797
 31
0.0
  0
LINE
  5
3CD
330
70
100
AcDbEntity
  8
Visible
100
AcDbLine
 10
13.006429
 20
6.725451
 30
0.0
 11
13.020321
 21
6.725451
 31
0.0
  0
LINE
  5
3CE
330
70
100
AcDbEntity
  8
Visible
100
AcDbLine
 10
13.020321
 20
6.725451
 30
0.0
 11
13.132905
 21
6.725451
 31
0.0
  0
LINE
  5
3CF
330
70
100
AcDbEntity
  8
Visible
100
AcDbLine
 10
13.132905
 20
7.453797
 30
0.0
 11
13.020321
 21
7.453797
 31
0.0
  0
LINE
  5
3D0
330
70
100
AcDbEntity
  8
Visible
100
AcDbLine
 10
13.020321
 20
7.453797
 30
0.0
 11
13.006429
 21
7.453797
 31
0.0
  0
ARC
  5
3D1
330
70
100
AcDbEntity
  8
Visible
100
AcDbCircle
 10
-13.132905
 20
7.413797
 30
0.0
 40
0.04
210
0.0
220
0.0
230
-1.0
100
AcDbArc
 50
90.0
 51
180.0
  0
ARC
  5
3D2
330
70
100
AcDbEntity
  8
Visible
100
AcDbCircle
 10
-13.132905
 20
6.765451
 30
0.0
 40
0.04
210
0.0
220
0.0
230
-1.0
100
AcDbArc
 50
180.0
 51
270.0
  0
LINE
  5
3D3
330
70
100
AcDbEntity
  8
Visible
100
AcDbLine
 10
13.172905
 20
6.765451
 30
0.0
 11
13.172905
 21
7.413797
 31
0.0
  0
CIRCLE
  5
3D4
330
70
100
AcDbEntity
  8
Visible
100
AcDbCircle
 10
11.913608
 20
7.817971
 30
0.0
 40
2.35
  0
ARC
  5
3D5
330
70
100
AcDbEntity
  8
Visible
100
AcDbCircle
 10
14.263608
 20
5.467971
 30
0.0
 40
0.1500000000000001
100
AcDbArc
 50
270.0
 51
0.0
  0
ARC
  5
3D6
330
70
100
AcDbEntity
  8
Visible
100
AcDbCircle
 10
9.563608
 20
5.467971
 30
0.0
 40
0.1500000000000001
100
AcDbArc
 50
180.0
 51
270.0
  0
LINE
  5
3D7
330
70
100
AcDbEntity
  8
Visible
100
AcDbLine
 10
9.563608
 20
5.317971
 30
0.0
 11
14.263608
 21
5.317971
 31
0.0
  0
ARC
  5
3D8
330
70
100
AcDbEntity
  8
Visible
100
AcDbCircle
 10
14.263608
 20
10.167971
 30
0.0
 40
0.1500000000000001
100
AcDbArc
 50
0.0
 51
90.0
  0
LINE
  5
3D9
330
70
100
AcDbEntity
  8
Visible
100
AcDbLine
 10
14.413608
 20
5.467971
 30
0.0
 11
14.413608
 21
10.167971
 31
0.0
  0
ARC
  5
3DA
330
70
100
AcDbEntity
  8
Visible
100
AcDbCircle
 10
9.563608
 20
10.167971
 30
0.0
 40
0.1500000000000001
100
AcDbArc
 50
90.0
 51
180.0
  0
LINE
  5
3DB
330
70
100
AcDbEntity
  8
Visible
100
AcDbLine
 10
9.413608
 20
10.167971
 30
0.0
 11
9.413608
 21
5.467971
 31
0.0
  0
LINE
  5
3DC
330
70
100
AcDbEntity
  8
Visible
100
AcDbLine
 10
14.263608
 20
10.317971
 30
0.0
 11
9.563608
 21
10.317971
 31
0.0
  0
CIRCLE
  5
3DD
330
70
100
AcDbEntity
  8
Visible
100
AcDbCircle
 10
11.913608
 20
9.959339
 30
0.0
 40
0.1125
  0
CIRCLE
  5
3DE
330
70
100
AcDbEntity
  8
Visible
100
AcDbCircle
 10
12.575327
 20
9.854533
 30
0.0
 40
0.1125
  0
CIRCLE
  5
3DF
330
70
100
AcDbEntity
  8
Visible
100
AcDbCircle
 10
13.172272
 20
9.550374
 30
0.0
 40
0.1125
  0
CIRCLE
  5
3E0
330
70
100
AcDbEntity
  8
Visible
100
AcDbCircle
 10
13.646011
 20
9.076635
 30
0.0
 40
0.1125
  0
CIRCLE
  5
3E1
330
70
100
AcDbEntity
  8
Visible
100
AcDbCircle
 10
13.95017
 20
8.47969
 30
0.0
 40
0.1125
  0
CIRCLE
  5
3E2
330
70
100
AcDbEntity
  8
Visible
100
AcDbCircle
 10
14.054976
 20
7.817971
 30
0.0
 40
0.1125
  0
CIRCLE
  5
3E3
330
70
100
AcDbEntity
  8
Visible
100
AcDbCircle
 10
13.95017
 20
7.156251
 30
0.0
 40
0.1125
  0
CIRCLE
  5
3E4
330
70
100
AcDbEntity
  8
Visible
100
AcDbCircle
 10
13.646011
 20
6.559306
 30
0.0
 40
0.1125
  0
CIRCLE
  5
3E5
330
70
100
AcDbEntity
  8
Visible
100
AcDbCircle
 10
13.172272
 20
6.085568
 30
0.0
 40
0.1125
  0
CIRCLE
  5
3E6
330
70
100
AcDbEntity
  8
Visible
100
AcDbCircle
 10
12.575327
 20
5.781409
 30
0.0
 40
0.1125
  0
CIRCLE
  5
3E7
330
70
100
AcDbEntity
  8
Visible
100
AcDbCircle
 10
11.913608
 20
5.676603
 30
0.0
 40
0.1125
  0
CIRCLE
  5
3E8
330
70
100
AcDbEntity
  8
Visible
100
AcDbCircle
 10
11.251889
 20
5.781409
 30
0.0
 40
0.1125
  0
CIRCLE
  5
3E9
330
70
100
AcDbEntity
  8
Visible
100
AcDbCircle
 10
10.654943
 20
6.085568
 30
0.0
 40
0.1125
  0
CIRCLE
  5
3EA
330
70
100
AcDbEntity
  8
Visible
100
AcDbCircle
 10
10.181205
 20
6.559306
 30
0.0
 40
0.1125
  0
CIRCLE
  5
3EB
330
70
100
AcDbEntity
  8
Visible
100
AcDbCircle
 10
9.877046
 20
7.156251
 30
0.0
 40
0.1125
  0
CIRCLE
  5
3EC
330
70
100
AcDbEntity
  8
Visible
100
AcDbCircle
 10
9.77224
 20
7.817971
 30
0.0
 40
0.1125
  0
CIRCLE
  5
3ED
330
70
100
AcDbEntity
  8
Visible
100
AcDbCircle
 10
9.877046
 20
8.47969
 30
0.0
 40
0.1125
  0
CIRCLE
  5
3EE
330
70
100
AcDbEntity
  8
Visible
100
AcDbCircle
 10
10.181205
 20
9.076635
 30
0.0
 40
0.1125
  0
CIRCLE
  5
3EF
330
70
100
AcDbEntity
  8
Visible
100
AcDbCircle
 10
10.654943
 20
9.550374
 30
0.0
 40
0.1125
  0
CIRCLE
  5
3F0
330
70
100
AcDbEntity
  8
Visible
100
AcDbCircle
 10
11.251889
 20
9.854533
 30
0.0
 40
0.1125
  0
CIRCLE
  5
3F1
330
70
100
AcDbEntity
  8
Visible
100
AcDbCircle
 10
13.836561
 20
5.781409
 30
0.0
 40
0.2227568091686797
  0
ARC
  5
3F2
330
70
100
AcDbEntity
  8
Visible
100
AcDbCircle
 10
11.589434
 20
8.87049
 30
0.0
 40
0.04
100
AcDbArc
 50
90.0
 51
180.0
  0
ARC
  5
3F3
330
70
100
AcDbEntity
  8
Visible
100
AcDbCircle
 10
11.589434
 20
8.222144
 30
0.0
 40
0.04
100
AcDbArc
 50
180.0
 51
270.0
  0
ARC
  5
3F4
330
70
100
AcDbEntity
  8
Visible
100
AcDbCircle
 10
12.237781
 20
8.87049
 30
0.0
 40
0.04
100
AcDbArc
 50
0.0
 51
90.0
  0
ARC
  5
3F5
330
70
100
AcDbEntity
  8
Visible
100
AcDbCircle
 10
12.237781
 20
8.222144
 30
0.0
 40
0.04
100
AcDbArc
 50
270.0
 51
0.0
  0
LINE
  5
3F6
330
70
100
AcDbEntity
  8
Visible
100
AcDbLine
 10
11.589434
 20
8.182144
 30
0.0
 11
12.237781
 21
8.182144
 31
0.0
  0
LINE
  5
3F7
330
70
100
AcDbEntity
  8
Visible
100
AcDbLine
 10
12.277781
 20
8.222144
 30
0.0
 11
12.277781
 21
8.87049
 31
0.0
  0
LINE
  5
3F8
330
70
100
AcDbEntity
  8
Visible
100
AcDbLine
 10
12.237781
 20
8.91049
 30
0.0
 11
11.589434
 21
8.91049
 31
0.0
  0
LINE
  5
3F9
330
70
100
AcDbEntity
  8
Visible
100
AcDbLine
 10
11.549434
 20
8.87049
 30
0.0
 11
11.549434
 21
8.222144
 31
0.0
  0
ARC
  5
3FA
330
70
100
AcDbEntity
  8
Visible
100
AcDbCircle
 10
6.097873
 20
4.401284
 30
0.0
 40
0.04
100
AcDbArc
 50
270.0
 51
360.0
  0
ARC
  5
3FB
330
70
100
AcDbEntity
  8
Visible
100
AcDbCircle
 10
5.449526
 20
4.401284
 30
0.0
 40
0.04
100
AcDbArc
 50
180.0
 51
270.0
  0
ARC
  5
3FC
330
70
100
AcDbEntity
  8
Visible
100
AcDbCircle
 10
6.097873
 20
5.04963
 30
0.0
 40
0.04
100
AcDbArc
 50
0.0
 51
90.0
  0
ARC
  5
3FD
330
70
100
AcDbEntity
  8
Visible
100
AcDbCircle
 10
5.449526
 20
5.04963
 30
0.0
 40
0.04
100
AcDbArc
 50
90.0
 51
180.0
  0
LINE
  5
3FE
330
70
100
AcDbEntity
  8
Visible
100
AcDbLine
 10
5.409526
 20
5.04963
 30
0.0
 11
5.409526
 21
4.401284
 31
0.0
210
0.0
220
1.0
230
0.0
  0
LINE
  5
3FF
330
70
100
AcDbEntity
  8
Visible
100
AcDbLine
 10
6.097873
 20
5.08963
 30
0.0
 11
5.449526
 21
5.08963
 31
0.0
210
0.0
220
1.0
230
0.0
  0
LINE
  5
400
330
70
100
AcDbEntity
  8
Visible
100
AcDbLine
 10
6.137873
 20
4.401284
 30
0.0
 11
6.137873
 21
5.04963
 31
0.0
210
0.0
220
1.0
230
0.0
  0
LINE
  5
401
330
70
100
AcDbEntity
  8
Visible
100
AcDbLine
 10
5.449526
 20
4.361284
 30
0.0
 11
6.097873
 21
4.361284
 31
0.0
210
0.0
220
1.0
230
0.0
  0
ARC
  5
402
330
70
100
AcDbEntity
  8
Visible
100
AcDbCircle
 10
-6.097873
 20
4.321284
 30
0.0
 40
0.04
210
-0.0000000000000002
220
0.0
230
-1.0
100
AcDbArc
 50
90.0
 51
180.0
  0
ARC
  5
403
330
70
100
AcDbEntity
  8
Visible
100
AcDbCircle
 10
-5.449526
 20
4.321284
 30
0.0
 40
0.04
210
-0.0000000000000002
220
0.0
230
-1.0
100
AcDbArc
 50
0.0
 51
90.0
  0
ARC
  5
404
330
70
100
AcDbEntity
  8
Visible
100
AcDbCircle
 10
-6.097873
 20
3.672937
 30
0.0
 40
0.04
210
-0.0000000000000002
220
0.0
230
-1.0
100
AcDbArc
 50
180.0
 51
270.0
  0
ARC
  5
405
330
70
100
AcDbEntity
  8
Visible
100
AcDbCircle
 10
-5.449526
 20
3.672937
 30
0.0
 40
0.04
210
-0.0000000000000002
220
0.0
230
-1.0
100
AcDbArc
 50
270.0
 51
0.0
  0
LINE
  5
406
330
70
100
AcDbEntity
  8
Visible
100
AcDbLine
 10
5.409526
 20
3.672937
 30
0.0
 11
5.409526
 21
4.321284
 31
0.0
210
0.0
220
1.0
230
0.0
  0
LINE
  5
407
330
70
100
AcDbEntity
  8
Visible
100
AcDbLine
 10
6.097873
 20
3.632937
 30
0.0
 11
5.449526
 21
3.632937
 31
0.0
210
0.0
220
1.0
230
0.0
  0
LINE
  5
408
330
70
100
AcDbEntity
  8
Visible
100
AcDbLine
 10
6.137873
 20
4.321284
 30
0.0
 11
6.137873
 21
3.672937
 31
0.0
210
0.0
220
1.0
230
0.0
  0
LINE
  5
409
330
70
100
AcDbEntity
  8
Visible
100
AcDbLine
 10
5.449526
 20
4.361284
 30
0.0
 11
6.097873
 21
4.361284
 31
0.0
210
0.0
220
1.0
230
0.0
  0
ARC
  5
40A
330
70
100
AcDbEntity
  8
Visible
100
AcDbCircle
 10
6.097873
 20
2.944591
 30
0.0
 40
0.04
100
AcDbArc
 50
270.0
 51
0.0
  0
ARC
  5
40B
330
70
100
AcDbEntity
  8
Visible
100
AcDbCircle
 10
5.449526
 20
2.944591
 30
0.0
 40
0.04
100
AcDbArc
 50
180.0
 51
270.0
  0
ARC
  5
40C
330
70
100
AcDbEntity
  8
Visible
100
AcDbCircle
 10
6.097873
 20
3.592937
 30
0.0
 40
0.04
100
AcDbArc
 50
0.0
 51
90.0
  0
ARC
  5
40D
330
70
100
AcDbEntity
  8
Visible
100
AcDbCircle
 10
5.449526
 20
3.592937
 30
0.0
 40
0.04
100
AcDbArc
 50
90.0
 51
180.0
  0
LINE
  5
40E
330
70
100
AcDbEntity
  8
Visible
100
AcDbLine
 10
5.409526
 20
3.592937
 30
0.0
 11
5.409526
 21
2.944591
 31
0.0
210
0.0
220
1.0
230
0.0
  0
LINE
  5
40F
330
70
100
AcDbEntity
  8
Visible
100
AcDbLine
 10
6.097873
 20
3.632937
 30
0.0
 11
5.449526
 21
3.632937
 31
0.0
210
0.0
220
1.0
230
0.0
  0
LINE
  5
410
330
70
100
AcDbEntity
  8
Visible
100
AcDbLine
 10
6.137873
 20
2.944591
 30
0.0
 11
6.137873
 21
3.592937
 31
0.0
210
0.0
220
1.0
230
0.0
  0
LINE
  5
411
330
70
100
AcDbEntity
  8
Visible
100
AcDbLine
 10
5.449526
 20
2.904591
 30
0.0
 11
6.097873
 21
2.904591
 31
0.0
210
0.0
220
1.0
230
0.0
  0
ARC
  5
412
330
70
100
AcDbEntity
  8
Visible
100
AcDbCircle
 10
4.72118
 20
4.321284
 30
0.0
 40
0.04
100
AcDbArc
 50
90.0
 51
180.0
  0
ARC
  5
413
330
70
100
AcDbEntity
  8
Visible
100
AcDbCircle
 10
5.369526
 20
4.321284
 30
0.0
 40
0.04
100
AcDbArc
 50
0.0
 51
90.0
  0
ARC
  5
414
330
70
100
AcDbEntity
  8
Visible
100
AcDbCircle
 10
4.72118
 20
3.672937
 30
0.0
 40
0.04
100
AcDbArc
 50
180.0
 51
270.0
  0
ARC
  5
415
330
70
100
AcDbEntity
  8
Visible
100
AcDbCircle
 10
5.369526
 20
3.672937
 30
0.0
 40
0.04
100
AcDbArc
 50
270.0
 51
0.0
  0
LINE
  5
416
330
70
100
AcDbEntity
  8
Visible
100
AcDbLine
 10
5.409526
 20
3.672937
 30
0.0
 11
5.409526
 21
4.321284
 31
0.0
210
0.0
220
1.0
230
0.0
  0
LINE
  5
417
330
70
100
AcDbEntity
  8
Visible
100
AcDbLine
 10
4.72118
 20
3.632937
 30
0.0
 11
5.369526
 21
3.632937
 31
0.0
210
0.0
220
1.0
230
0.0
  0
LINE
  5
418
330
70
100
AcDbEntity
  8
Visible
100
AcDbLine
 10
4.68118
 20
4.321284
 30
0.0
 11
4.68118
 21
4.089194
 31
0.0
210
0.0
220
1.0
230
0.0
  0
LINE
  5
419
330
70
100
AcDbEntity
  8
Visible
100
AcDbLine
 10
4.68118
 20
3.853524
 30
0.0
 11
4.68118
 21
3.781846
 31
0.0
210
0.0
220
1.0
230
0.0
  0
LINE
  5
41A
330
70
100
AcDbEntity
  8
Visible
100
AcDbLine
 10
5.369526
 20
4.361284
 30
0.0
 11
4.72118
 21
4.361284
 31
0.0
210
0.0
220
1.0
230
0.0
  0
ARC
  5
41B
330
70
100
AcDbEntity
  8
Visible
100
AcDbCircle
 10
-4.72118
 20
4.401284
 30
0.0
 40
0.04
210
-0.0000000000000002
220
0.0
230
-1.0
100
AcDbArc
 50
270.0
 51
360.0
  0
ARC
  5
41C
330
70
100
AcDbEntity
  8
Visible
100
AcDbCircle
 10
-5.369526
 20
4.401284
 30
0.0
 40
0.04
210
-0.0000000000000002
220
0.0
230
-1.0
100
AcDbArc
 50
180.0
 51
270.0
  0
ARC
  5
41D
330
70
100
AcDbEntity
  8
Visible
100
AcDbCircle
 10
-4.72118
 20
5.04963
 30
0.0
 40
0.04
210
-0.0000000000000002
220
0.0
230
-1.0
100
AcDbArc
 50
0.0
 51
90.0
  0
ARC
  5
41E
330
70
100
AcDbEntity
  8
Visible
100
AcDbCircle
 10
-5.369526
 20
5.04963
 30
0.0
 40
0.04
210
-0.0000000000000002
220
0.0
230
-1.0
100
AcDbArc
 50
90.0
 51
180.0
  0
LINE
  5
41F
330
70
100
AcDbEntity
  8
Visible
100
AcDbLine
 10
5.409526
 20
5.04963
 30
0.0
 11
5.409526
 21
4.401284
 31
0.0
210
0.0
220
1.0
230
0.0
  0
LINE
  5
420
330
70
100
AcDbEntity
  8
Visible
100
AcDbLine
 10
4.72118
 20
5.08963
 30
0.0
 11
5.369526
 21
5.08963
 31
0.0
210
0.0
220
1.0
230
0.0
  0
LINE
  5
421
330
70
100
AcDbEntity
  8
Visible
100
AcDbLine
 10
4.68118
 20
4.401284
 30
0.0
 11
4.68118
 21
5.04963
 31
0.0
210
0.0
220
1.0
230
0.0
  0
LINE
  5
422
330
70
100
AcDbEntity
  8
Visible
100
AcDbLine
 10
5.369526
 20
4.361284
 30
0.0
 11
4.72118
 21
4.361284
 31
0.0
210
0.0
220
1.0
230
0.0
  0
ARC
  5
423
330
70
100
AcDbEntity
  8
Visible
100
AcDbCircle
 10
-4.72118
 20
2.944591
 30
0.0
 40
0.04
210
-0.0000000000000002
220
0.0
230
-1.0
100
AcDbArc
 50
270.0
 51
0.0
  0
ARC
  5
424
330
70
100
AcDbEntity
  8
Visible
100
AcDbCircle
 10
-5.369526
 20
2.944591
 30
0.0
 40
0.04
210
-0.0000000000000002
220
0.0
230
-1.0
100
AcDbArc
 50
180.0
 51
270.0
  0
ARC
  5
425
330
70
100
AcDbEntity
  8
Visible
100
AcDbCircle
 10
-4.72118
 20
3.592937
 30
0.0
 40
0.04
210
-0.0000000000000002
220
0.0
230
-1.0
100
AcDbArc
 50
0.0
 51
90.0
  0
ARC
  5
426
330
70
100
AcDbEntity
  8
Visible
100
AcDbCircle
 10
-5.369526
 20
3.592937
 30
0.0
 40
0.04
210
-0.0000000000000002
220
0.0
230
-1.0
100
AcDbArc
 50
90.0
 51
180.0
  0
LINE
  5
427
330
70
100
AcDbEntity
  8
Visible
100
AcDbLine
 10
5.409526
 20
3.592937
 30
0.0
 11
5.409526
 21
2.944591
 31
0.0
210
0.0
220
1.0
230
0.0
  0
LINE
  5
428
330
70
100
AcDbEntity
  8
Visible
100
AcDbLine
 10
4.72118
 20
3.632937
 30
0.0
 11
5.369526
 21
3.632937
 31
0.0
210
0.0
220
1.0
230
0.0
  0
LINE
  5
429
330
70
100
AcDbEntity
  8
Visible
100
AcDbLine
 10
4.68118
 20
2.944591
 30
0.0
 11
4.68118
 21
3.113942
 31
0.0
210
0.0
220
1.0
230
0.0
  0
LINE
  5
42A
330
70
100
AcDbEntity
  8
Visible
100
AcDbLine
 10
5.369526
 20
2.904591
 30
0.0
 11
4.72118
 21
2.904591
 31
0.0
210
0.0
220
1.0
230
0.0
  0
LINE
  5
42B
330
70
100
AcDbEntity
  8
Visible
100
AcDbLine
 10
3.952833
 20
3.781846
 30
0.0
 11
3.952833
 21
3.86063
 31
0.0
210
0.0
220
1.0
230
0.0
  0
LINE
  5
42C
330
70
100
AcDbEntity
  8
Visible
100
AcDbLine
 10
3.952833
 20
3.86063
 30
0.0
 11
3.952833
 21
4.499127
 31
0.0
210
0.0
220
1.0
230
0.0
  0
LINE
  5
42D
330
70
100
AcDbEntity
  8
Visible
100
AcDbLine
 10
4.68118
 20
4.401284
 30
0.0
 11
4.68118
 21
4.321284
 31
0.0
210
0.0
220
1.0
230
0.0
  0
LINE
  5
42E
330
70
100
AcDbEntity
  8
Visible
100
AcDbLine
 10
4.68118
 20
4.089194
 30
0.0
 11
4.68118
 21
3.86063
 31
0.0
210
0.0
220
1.0
230
0.0
  0
LINE
  5
42F
330
70
100
AcDbEntity
  8
Visible
100
AcDbLine
 10
4.68118
 20
3.86063
 30
0.0
 11
4.68118
 21
3.853524
 31
0.0
210
0.0
220
1.0
230
0.0
  0
ARC
  5
430
330
70
100
AcDbEntity
  8
Visible
100
AcDbCircle
 10
-4.64118
 20
4.499127
 30
0.0
 40
0.04
210
-0.0000000000000002
220
0.0
230
-1.0
100
AcDbArc
 50
90.0
 51
180.0
  0
ARC
  5
431
330
70
100
AcDbEntity
  8
Visible
100
AcDbCircle
 10
-3.992833
 20
4.499127
 30
0.0
 40
0.04
210
-0.0000000000000002
220
0.0
230
-1.0
100
AcDbArc
 50
0.0
 51
90.0
  0
LINE
  5
432
330
70
100
AcDbEntity
  8
Visible
100
AcDbLine
 10
4.64118
 20
4.539127
 30
0.0
 11
3.992833
 21
4.539127
 31
0.0
210
0.0
220
1.0
230
0.0
  0
LINE
  5
433
330
70
100
AcDbEntity
  8
Visible
100
AcDbLine
 10
3.952833
 20
5.216408
 30
0.0
 11
3.952833
 21
4.577912
 31
0.0
210
0.0
220
1.0
230
0.0
  0
LINE
  5
434
330
70
100
AcDbEntity
  8
Visible
100
AcDbLine
 10
4.68118
 20
5.04963
 30
0.0
 11
4.68118
 21
5.216408
 31
0.0
210
0.0
220
1.0
230
0.0
  0
LINE
  5
435
330
70
100
AcDbEntity
  8
Visible
100
AcDbLine
 10
3.952833
 20
4.577912
 30
0.0
 11
3.952833
 21
4.499127
 31
0.0
210
0.0
220
1.0
230
0.0
  0
ARC
  5
436
330
70
100
AcDbEntity
  8
Visible
100
AcDbCircle
 10
-4.64118
 20
5.216408
 30
0.0
 40
0.04
210
-0.0000000000000002
220
0.0
230
-1.0
100
AcDbArc
 50
90.0
 51
180.0
  0
ARC
  5
437
330
70
100
AcDbEntity
  8
Visible
100
AcDbCircle
 10
-3.992833
 20
5.216408
 30
0.0
 40
0.04
210
-0.0000000000000002
220
0.0
230
-1.0
100
AcDbArc
 50
0.0
 51
90.0
  0
LINE
  5
438
330
70
100
AcDbEntity
  8
Visible
100
AcDbLine
 10
3.992833
 20
5.256408
 30
0.0
 11
4.64118
 21
5.256408
 31
0.0
210
0.0
220
1.0
230
0.0
  0
LINE
  5
439
330
70
100
AcDbEntity
  8
Visible
100
AcDbLine
 10
3.952833
 20
3.030765
 30
0.0
 11
3.952833
 21
3.016873
 31
0.0
210
0.0
220
1.0
230
0.0
  0
LINE
  5
43A
330
70
100
AcDbEntity
  8
Visible
100
AcDbLine
 10
3.952833
 20
3.016873
 30
0.0
 11
3.952833
 21
2.904289
 31
0.0
210
0.0
220
1.0
230
0.0
  0
LINE
  5
43B
330
70
100
AcDbEntity
  8
Visible
100
AcDbLine
 10
4.68118
 20
2.904289
 30
0.0
 11
4.68118
 21
2.944591
 31
0.0
210
0.0
220
1.0
230
0.0
  0
ARC
  5
43C
330
70
100
AcDbEntity
  8
Visible
100
AcDbCircle
 10
-4.64118
 20
2.904289
 30
0.0
 40
0.04
210
-0.0000000000000002
220
0.0
230
-1.0
100
AcDbArc
 50
180.0
 51
270.0
  0
ARC
  5
43D
330
70
100
AcDbEntity
  8
Visible
100
AcDbCircle
 10
-3.992833
 20
2.904289
 30
0.0
 40
0.04
210
-0.0000000000000002
220
0.0
230
-1.0
100
AcDbArc
 50
270.0
 51
0.0
  0
LINE
  5
43E
330
70
100
AcDbEntity
  8
Visible
100
AcDbLine
 10
3.992833
 20
2.864289
 30
0.0
 11
4.64118
 21
2.864289
 31
0.0
210
0.0
220
1.0
230
0.0
  0
LINE
  5
43F
330
70
100
AcDbEntity
  8
Visible
100
AcDbLine
 10
3.952833
 20
3.781846
 30
0.0
 11
3.952833
 21
3.143349
 31
0.0
210
0.0
220
1.0
230
0.0
  0
LINE
  5
440
330
70
100
AcDbEntity
  8
Visible
100
AcDbLine
 10
4.68118
 20
3.143349
 30
0.0
 11
4.68118
 21
3.781846
 31
0.0
210
0.0
220
1.0
230
0.0
  0
LINE
  5
441
330
70
100
AcDbEntity
  8
Visible
100
AcDbLine
 10
3.952833
 20
3.143349
 30
0.0
 11
3.952833
 21
3.030765
 31
0.0
210
0.0
220
1.0
230
0.0
  0
LINE
  5
442
330
70
100
AcDbEntity
  8
Visible
100
AcDbLine
 10
4.68118
 20
3.113942
 30
0.0
 11
4.68118
 21
3.143349
 31
0.0
210
0.0
220
1.0
230
0.0
  0
ARC
  5
443
330
70
100
AcDbEntity
  8
Visible
100
AcDbCircle
 10
-4.64118
 20
3.030765
 30
0.0
 40
0.04
210
-0.0000000000000002
220
0.0
230
-1.0
100
AcDbArc
 50
180.0
 51
270.0
  0
ARC
  5
444
330
70
100
AcDbEntity
  8
Visible
100
AcDbCircle
 10
-3.992833
 20
3.030765
 30
0.0
 40
0.04
210
-0.0000000000000002
220
0.0
230
-1.0
100
AcDbArc
 50
270.0
 51
0.0
  0
ARC
  5
445
330
70
100
AcDbEntity
  8
Visible
100
AcDbCircle
 10
-4.64118
 20
3.781846
 30
0.0
 40
0.04
210
-0.0000000000000002
220
0.0
230
-1.0
100
AcDbArc
 50
90.0
 51
180.0
  0
ARC
  5
446
330
70
100
AcDbEntity
  8
Visible
100
AcDbCircle
 10
-3.992833
 20
3.781846
 30
0.0
 40
0.04
210
-0.0000000000000002
220
0.0
230
-1.0
100
AcDbArc
 50
0.0
 51
90.0
  0
LINE
  5
447
330
70
100
AcDbEntity
  8
Visible
100
AcDbLine
 10
3.992833
 20
3.821846
 30
0.0
 11
4.64118
 21
3.821846
 31
0.0
210
0.0
220
1.0
230
0.0
  0
LINE
  5
448
330
70
100
AcDbEntity
  8
Visible
100
AcDbLine
 10
3.992833
 20
2.990765
 30
0.0
 11
4.64118
 21
2.990765
 31
0.0
210
0.0
220
1.0
230
0.0
  0
LINE
  5
449
330
70
100
AcDbEntity
  8
Visible
100
AcDbLine
 10
3.952833
 20
2.904289
 30
0.0
 11
3.952833
 21
2.890397
 31
0.0
210
0.0
220
1.0
230
0.0
  0
LINE
  5
44A
330
70
100
AcDbEntity
  8
Visible
100
AcDbLine
 10
4.68118
 20
2.890397
 30
0.0
 11
4.68118
 21
2.904289
 31
0.0
210
0.0
220
1.0
230
0.0
  0
LINE
  5
44B
330
70
100
AcDbEntity
  8
Visible
100
AcDbLine
 10
3.952833
 20
2.890397
 30
0.0
 11
3.952833
 21
2.777813
 31
0.0
210
0.0
220
1.0
230
0.0
  0
LINE
  5
44C
330
70
100
AcDbEntity
  8
Visible
100
AcDbLine
 10
4.68118
 20
2.777813
 30
0.0
 11
4.68118
 21
2.890397
 31
0.0
210
0.0
220
1.0
230
0.0
  0
ARC
  5
44D
330
70
100
AcDbEntity
  8
Visible
100
AcDbCircle
 10
-4.64118
 20
2.777813
 30
0.0
 40
0.04
210
-0.0000000000000002
220
0.0
230
-1.0
100
AcDbArc
 50
180.0
 51
270.0
  0
ARC
  5
44E
330
70
100
AcDbEntity
  8
Visible
100
AcDbCircle
 10
-3.992833
 20
2.777813
 30
0.0
 40
0.04
210
-0.0000000000000002
220
0.0
230
-1.0
100
AcDbArc
 50
270.0
 51
0.0
  0
LINE
  5
44F
330
70
100
AcDbEntity
  8
Visible
100
AcDbLine
 10
3.992833
 20
2.737813
 30
0.0
 11
4.64118
 21
2.737813
 31
0.0
210
0.0
220
1.0
230
0.0
  0
LINE
  5
450
330
70
100
AcDbEntity
  8
Visible
100
AcDbLine
 10
3.231548
 20
1.404591
 30
0.0
 11
7.320353
 21
1.404591
 31
0.0
210
0.0
220
1.0
230
0.0
  0
LINE
  5
451
330
70
100
AcDbEntity
  8
Visible
100
AcDbLine
 10
2.770353
 20
1.404591
 30
0.0
 11
2.786034
 21
1.404591
 31
0.0
210
0.0
220
1.0
230
0.0
  0
ARC
  5
452
330
70
100
AcDbEntity
  8
Visible
100
AcDbCircle
 10
2.695353
 20
1.154591
 30
0.0
 40
0.1500000000000001
100
AcDbArc
 50
90.0
 51
180.0
  0
ARC
  5
453
330
70
100
AcDbEntity
  8
Visible
100
AcDbCircle
 10
7.395353
 20
1.154591
 30
0.0
 40
0.1500000000000001
100
AcDbArc
 50
0.0
 51
90.0
  0
LINE
  5
454
330
70
100
AcDbEntity
  8
Visible
100
AcDbLine
 10
7.395353
 20
1.304591
 30
0.0
 11
5.045353
 21
1.304591
 31
0.0
210
0.0
220
1.0
230
0.0
  0
LINE
  5
455
330
70
100
AcDbEntity
  8
Visible
100
AcDbLine
 10
5.045353
 20
1.304591
 30
0.0
 11
2.695353
 21
1.304591
 31
0.0
210
0.0
220
1.0
230
0.0
  0
LINE
  5
456
330
70
100
AcDbEntity
  8
Visible
100
AcDbLine
 10
7.545353
 20
0.554591
 30
0.0
 11
7.395353
 21
0.554591
 31
0.0
210
0.0
220
1.0
230
0.0
  0
LINE
  5
457
330
70
100
AcDbEntity
  8
Visible
100
AcDbLine
 10
7.545353
 20
0.554591
 30
0.0
 11
7.545353
 21
1.154591
 31
0.0
210
0.0
220
1.0
230
0.0
  0
LINE
  5
458
330
70
100
AcDbEntity
  8
Visible
100
AcDbLine
 10
2.695353
 20
0.554591
 30
0.0
 11
2.545353
 21
0.554591
 31
0.0
210
0.0
220
1.0
230
0.0
  0
LINE
  5
459
330
70
100
AcDbEntity
  8
Visible
100
AcDbLine
 10
2.545353
 20
1.154591
 30
0.0
 11
2.545353
 21
0.554591
 31
0.0
210
0.0
220
1.0
230
0.0
  0
LINE
  5
45A
330
70
100
AcDbEntity
  8
Visible
100
AcDbLine
 10
7.395353
 20
0.554591
 30
0.0
 11
2.695353
 21
0.554591
 31
0.0
210
0.0
220
1.0
230
0.0
  0
ARC
  5
45B
330
70
100
AcDbEntity
  8
Visible
100
AcDbCircle
 10
-2.770353
 20
1.329591
 30
0.0
 40
0.075
210
-0.0000000000000002
220
0.0
230
-1.0
100
AcDbArc
 50
0.0
 51
90.0
  0
ARC
  5
45C
330
70
100
AcDbEntity
  8
Visible
100
AcDbCircle
 10
-7.320353
 20
1.329591
 30
0.0
 40
0.075
210
-0.0000000000000002
220
0.0
230
-1.0
100
AcDbArc
 50
90.0
 51
180.0
  0
LINE
  5
45D
330
70
100
AcDbEntity
  8
Visible
100
AcDbLine
 10
7.395353
 20
1.329591
 30
0.0
 11
7.395353
 21
1.304591
 31
0.0
210
0.0
220
1.0
230
0.0
  0
LINE
  5
45E
330
70
100
AcDbEntity
  8
Visible
100
AcDbLine
 10
2.695353
 20
1.329591
 30
0.0
 11
2.695353
 21
1.304591
 31
0.0
210
0.0
220
1.0
230
0.0
  0
LINE
  5
45F
330
70
100
AcDbEntity
  8
Visible
100
AcDbLine
 10
7.299221
 20
1.454591
 30
0.0
 11
7.194415
 21
1.454591
 31
0.0
210
0.0
220
1.0
230
0.0
  0
LINE
  5
460
330
70
100
AcDbEntity
  8
Visible
100
AcDbLine
 10
7.299221
 20
1.404591
 30
0.0
 11
7.299221
 21
1.454591
 31
0.0
210
0.0
220
1.0
230
0.0
  0
LINE
  5
461
330
70
100
AcDbEntity
  8
Visible
100
AcDbLine
 10
7.194415
 20
1.454591
 30
0.0
 11
6.969415
 21
1.454591
 31
0.0
210
0.0
220
1.0
230
0.0
  0
LINE
  5
462
330
70
100
AcDbEntity
  8
Visible
100
AcDbLine
 10
6.969415
 20
1.404591
 30
0.0
 11
6.969415
 21
1.454591
 31
0.0
210
0.0
220
1.0
230
0.0
  0
LINE
  5
463
330
70
100
AcDbEntity
  8
Visible
100
AcDbLine
 10
7.194415
 20
1.404591
 30
0.0
 11
7.194415
 21
1.454591
 31
0.0
210
0.0
220
1.0
230
0.0
  0
LINE
  5
464
330
70
100
AcDbEntity
  8
Visible
100
AcDbLine
 10
6.890256
 20
1.454591
 30
0.0
 11
6.665256
 21
1.454591
 31
0.0
210
0.0
220
1.0
230
0.0
  0
LINE
  5
465
330
70
100
AcDbEntity
  8
Visible
100
AcDbLine
 10
6.665256
 20
1.404591
 30
0.0
 11
6.665256
 21
1.454591
 31
0.0
210
0.0
220
1.0
230
0.0
  0
LINE
  5
466
330
70
100
AcDbEntity
  8
Visible
100
AcDbLine
 10
6.890256
 20
1.404591
 30
0.0
 11
6.890256
 21
1.454591
 31
0.0
210
0.0
220
1.0
230
0.0
  0
LINE
  5
467
330
70
100
AcDbEntity
  8
Visible
100
AcDbLine
 10
6.416517
 20
1.454591
 30
0.0
 11
6.191517
 21
1.454591
 31
0.0
210
0.0
220
1.0
230
0.0
  0
LINE
  5
468
330
70
100
AcDbEntity
  8
Visible
100
AcDbLine
 10
6.191517
 20
1.404591
 30
0.0
 11
6.191517
 21
1.454591
 31
0.0
210
0.0
220
1.0
230
0.0
  0
LINE
  5
469
330
70
100
AcDbEntity
  8
Visible
100
AcDbLine
 10
6.416517
 20
1.404591
 30
0.0
 11
6.416517
 21
1.454591
 31
0.0
210
0.0
220
1.0
230
0.0
  0
LINE
  5
46A
330
70
100
AcDbEntity
  8
Visible
100
AcDbLine
 10
5.819572
 20
1.454591
 30
0.0
 11
5.594572
 21
1.454591
 31
0.0
210
0.0
220
1.0
230
0.0
  0
LINE
  5
46B
330
70
100
AcDbEntity
  8
Visible
100
AcDbLine
 10
5.594572
 20
1.404591
 30
0.0
 11
5.594572
 21
1.454591
 31
0.0
210
0.0
220
1.0
230
0.0
  0
LINE
  5
46C
330
70
100
AcDbEntity
  8
Visible
100
AcDbLine
 10
5.819572
 20
1.404591
 30
0.0
 11
5.819572
 21
1.454591
 31
0.0
210
0.0
220
1.0
230
0.0
  0
LINE
  5
46D
330
70
100
AcDbEntity
  8
Visible
100
AcDbLine
 10
5.157853
 20
1.454591
 30
0.0
 11
4.932853
 21
1.454591
 31
0.0
210
0.0
220
1.0
230
0.0
  0
LINE
  5
46E
330
70
100
AcDbEntity
  8
Visible
100
AcDbLine
 10
4.932853
 20
1.404591
 30
0.0
 11
4.932853
 21
1.454591
 31
0.0
210
0.0
220
1.0
230
0.0
  0
LINE
  5
46F
330
70
100
AcDbEntity
  8
Visible
100
AcDbLine
 10
5.157853
 20
1.404591
 30
0.0
 11
5.157853
 21
1.454591
 31
0.0
210
0.0
220
1.0
230
0.0
  0
LINE
  5
470
330
70
100
AcDbEntity
  8
Visible
100
AcDbLine
 10
4.496134
 20
1.454591
 30
0.0
 11
4.271134
 21
1.454591
 31
0.0
210
0.0
220
1.0
230
0.0
  0
LINE
  5
471
330
70
100
AcDbEntity
  8
Visible
100
AcDbLine
 10
4.271134
 20
1.404591
 30
0.0
 11
4.271134
 21
1.454591
 31
0.0
210
0.0
220
1.0
230
0.0
  0
LINE
  5
472
330
70
100
AcDbEntity
  8
Visible
100
AcDbLine
 10
4.496134
 20
1.404591
 30
0.0
 11
4.496134
 21
1.454591
 31
0.0
210
0.0
220
1.0
230
0.0
  0
LINE
  5
473
330
70
100
AcDbEntity
  8
Visible
100
AcDbLine
 10
3.899188
 20
1.454591
 30
0.0
 11
3.674188
 21
1.454591
 31
0.0
210
0.0
220
1.0
230
0.0
  0
LINE
  5
474
330
70
100
AcDbEntity
  8
Visible
100
AcDbLine
 10
3.674188
 20
1.404591
 30
0.0
 11
3.674188
 21
1.454591
 31
0.0
210
0.0
220
1.0
230
0.0
  0
LINE
  5
475
330
70
100
AcDbEntity
  8
Visible
100
AcDbLine
 10
3.899188
 20
1.404591
 30
0.0
 11
3.899188
 21
1.454591
 31
0.0
210
0.0
220
1.0
230
0.0
  0
LINE
  5
476
330
70
100
AcDbEntity
  8
Visible
100
AcDbLine
 10
3.42545
 20
1.454591
 30
0.0
 11
3.231548
 21
1.454591
 31
0.0
210
0.0
220
1.0
230
0.0
  0
LINE
  5
477
330
70
100
AcDbEntity
  8
Visible
100
AcDbLine
 10
3.42545
 20
1.404591
 30
0.0
 11
3.42545
 21
1.454591
 31
0.0
210
0.0
220
1.0
230
0.0
  0
LINE
  5
478
330
70
100
AcDbEntity
  8
Visible
100
AcDbLine
 10
2.836034
 20
1.554591
 30
0.0
 11
3.181548
 21
1.554591
 31
0.0
210
0.0
220
1.0
230
0.0
  0
ARC
  5
479
330
70
100
AcDbEntity
  8
Visible
100
AcDbCircle
 10
-3.181548
 20
1.504591
 30
0.0
 40
0.05
210
-0.0000000000000002
220
0.0
230
-1.0
100
AcDbArc
 50
90.0
 51
180.0
  0
ARC
  5
47A
330
70
100
AcDbEntity
  8
Visible
100
AcDbCircle
 10
-2.836034
 20
1.504591
 30
0.0
 40
0.05
210
-0.0000000000000002
220
0.0
230
-1.0
100
AcDbArc
 50
0.0
 51
90.0
  0
LINE
  5
47B
330
70
100
AcDbEntity
  8
Visible
100
AcDbLine
 10
2.786034
 20
1.304591
 30
0.0
 11
2.786034
 21
1.504591
 31
0.0
210
0.0
220
1.0
230
0.0
  0
LINE
  5
47C
330
70
100
AcDbEntity
  8
Visible
100
AcDbLine
 10
3.231548
 20
1.304591
 30
0.0
 11
3.231548
 21
1.504591
 31
0.0
210
0.0
220
1.0
230
0.0
  0
ENDSEC
  0
SECTION
  2
OBJECTS
  0
DICTIONARY
  5
C
330
0
100
AcDbDictionary
281
     1
  3
ACAD_COLOR
350
63
  3
ACAD_DETAILVIEWSTYLE
350
6A
  3
ACAD_GROUP
350
D
  3
ACAD_LAYOUT
350
62
  3
ACAD_MATERIAL
350
10
  3
ACAD_MLEADERSTYLE
350
66
  3
ACAD_MLINESTYLE
350
5F
  3
ACAD_PLOTSETTINGS
350
61
  3
ACAD_PLOTSTYLENAME
350
E
  3
ACAD_SCALELIST
350
42
  3
ACAD_SECTIONVIEWSTYLE
350
68
  3
ACAD_TABLESTYLE
350
64
  3
ACAD_VISUALSTYLE
350
29
  3
ACDB_RECOMPOSE_DATA
350
486
  3
AcDbVariableDictionary
350
47D
  0
DICTIONARY
  5
B0
330
70
100
AcDbDictionary
280
     1
281
     1
  3
ACAD_SORTENTS
360
264
  0
DICTIONARY
  5
268
330
267
100
AcDbDictionary
280
     1
281
     1
  0
DICTIONARY
  5
28A
330
289
100
AcDbDictionary
280
     1
281
     1
  3
ACAD_SORTENTS
360
2DC
  0
DICTIONARY
  5
2A8
330
2A7
100
AcDbDictionary
280
     1
281
     1
  0
DICTIONARY
  5
2AA
330
2A9
100
AcDbDictionary
280
     1
281
     1
  0
DICTIONARY
  5
2AC
330
2AB
100
AcDbDictionary
280
     1
281
     1
  0
DICTIONARY
  5
2AE
330
2AD
100
AcDbDictionary
280
     1
281
     1
  0
DICTIONARY
  5
2B0
330
2AF
100
AcDbDictionary
280
     1
281
     1
  0
DICTIONARY
  5
2B2
330
2B1
100
AcDbDictionary
280
     1
281
     1
  0
DICTIONARY
  5
2B4
330
2B3
100
AcDbDictionary
280
     1
281
     1
  0
DICTIONARY
  5
2B6
330
2B5
100
AcDbDictionary
280
     1
281
     1
  0
DICTIONARY
  5
2B8
330
2B7
100
AcDbDictionary
280
     1
281
     1
  0
DICTIONARY
  5
2BA
330
2B9
100
AcDbDictionary
280
     1
281
     1
  0
DICTIONARY
  5
2BC
330
2BB
100
AcDbDictionary
280
     1
281
     1
  0
DICTIONARY
  5
2BE
330
2BD
100
AcDbDictionary
280
     1
281
     1
  0
DICTIONARY
  5
2C0
330
2BF
100
AcDbDictionary
280
     1
281
     1
  0
DICTIONARY
  5
2C2
330
2C1
100
AcDbDictionary
280
     1
281
     1
  0
DICTIONARY
  5
2C4
330
2C3
100
AcDbDictionary
280
     1
281
     1
  0
DICTIONARY
  5
2C6
330
2C5
100
AcDbDictionary
280
     1
281
     1
  0
DICTIONARY
  5
2C8
330
2C7
100
AcDbDictionary
280
     1
281
     1
  0
DICTIONARY
  5
63
102
{ACAD_REACTORS
330
C
102
}
330
C
100
AcDbDictionary
281
     1
  0
DICTIONARY
  5
6A
102
{ACAD_REACTORS
330
C
102
}
330
C
100
AcDbDictionary
281
     1
  3
Imperial24
350
6B
  0
DICTIONARY
  5
D
102
{ACAD_REACTORS
330
C
102
}
330
C
100
AcDbDictionary
281
     1
  0
DICTIONARY
  5
62
102
{ACAD_REACTORS
330
C
102
}
330
C
100
AcDbDictionary
281
     1
  3
Model
350
73
  3
Sheet1
350
6F
  3
Sheet2
350
77
  0
DICTIONARY
  5
10
102
{ACAD_REACTORS
330
C
102
}
330
C
100
AcDbDictionary
281
     1
  3
ByBlock
350
19
  3
ByLayer
350
11
  3
Global
350
21
  0
DICTIONARY
  5
66
102
{ACAD_REACTORS
330
C
102
}
330
C
100
AcDbDictionary
281
     1
  3
Standard
350
67
  0
DICTIONARY
  5
5F
102
{ACAD_REACTORS
330
C
102
}
330
C
100
AcDbDictionary
281
     1
  3
Standard
350
60
  0
DICTIONARY
  5
61
102
{ACAD_REACTORS
330
C
102
}
330
C
100
AcDbDictionary
281
     1
  0
ACDBDICTIONARYWDFLT
  5
E
102
{ACAD_REACTORS
330
C
102
}
330
C
100
AcDbDictionary
281
     1
  3
Normal
350
F
100
AcDbDictionaryWithDefault
340
F
  0
DICTIONARY
  5
42
102
{ACAD_REACTORS
330
C
102
}
330
C
100
AcDbDictionary
281
     1
  3
*A1
350
A0
  3
*A10
350
A9
  3
*A11
350
AA
  3
*A12
350
AB
  3
*A13
350
AC
  3
*A14
350
AD
  3
*A15
350
AE
  3
*A16
350
AF
  3
*A2
350
A1
  3
*A3
350
A2
  3
*A4
350
A3
  3
*A5
350
A4
  3
*A6
350
A5
  3
*A7
350
A6
  3
*A8
350
A7
  3
*A9
350
A8
  3
A0
350
43
  3
A1
350
44
  3
A2
350
45
  3
A3
350
46
  3
A4
350
47
  3
A5
350
48
  3
A6
350
49
  3
A7
350
4A
  3
A8
350
4B
  3
A9
350
4C
  3
B0
350
4D
  3
B1
350
4E
  3
B2
350
4F
  3
B3
350
50
  3
B4
350
51
  3
B5
350
52
  3
B6
350
53
  0
DICTIONARY
  5
68
102
{ACAD_REACTORS
330
C
102
}
330
C
100
AcDbDictionary
281
     1
  3
Imperial24
350
69
  0
DICTIONARY
  5
64
102
{ACAD_REACTORS
330
C
102
}
330
C
100
AcDbDictionary
281
     1
  3
Standard
350
65
  0
DICTIONARY
  5
29
102
{ACAD_REACTORS
330
C
102
}
330
C
100
AcDbDictionary
281
     1
  3
2dWireframe
350
2F
  3
Basic
350
2E
  3
Brighten
350
35
  3
ColorChange
350
39
  3
Conceptual
350
32
  3
Dim
350
34
  3
EdgeColorOff
350
41
  3
Facepattern
350
38
  3
Flat
350
2A
  3
FlatWithEdges
350
2B
  3
Gouraud
350
2C
  3
GouraudWithEdges
350
2D
  3
Hidden
350
31
  3
JitterOff
350
3F
  3
Linepattern
350
37
  3
OverhangOff
350
40
  3
Realistic
350
33
  3
Shaded
350
3E
  3
Shaded with edges
350
3D
  3
Shades of Gray
350
3A
  3
Sketchy
350
3B
  3
Thicken
350
36
  3
Wireframe
350
30
  3
X-Ray
350
3C
  0
XRECORD
  5
486
102
{ACAD_REACTORS
330
C
102
}
330
C
100
AcDbXrecord
280
     1
 90
        1
330
65
  0
DICTIONARY
  5
47D
102
{ACAD_REACTORS
330
C
102
}
330
C
100
AcDbDictionary
281
     1
  3
ANNOALLVISIBLE
350
482
  3
CANNOSCALE
350
483
  3
CMLEADERSTYLE
350
47F
  3
CTABLESTYLE
350
47E
  3
CVIEWDETAILSTYLE
350
480
  3
CVIEWSECTIONSTYLE
350
481
  0
SORTENTSTABLE
  5
264
102
{ACAD_REACTORS
330
B0
102
}
330
B0
100
AcDbSortentsTable
330
70
  0
SORTENTSTABLE
  5
2DC
102
{ACAD_REACTORS
330
28A
102
}
330
28A
100
AcDbSortentsTable
330
289
  0
ACDBDETAILVIEWSTYLE
  5
6B
102
{ACAD_XDICTIONARY
360
489
102
}
102
{ACAD_REACTORS
330
6A
102
}
330
6A
100
AcDbModelDocViewStyle
 70
     0
  3
Imperial24
290
     0
100
AcDbDetailViewStyle
 70
     0
 71
     0
 90
        3
 71
     1
340
55
 62
   256
 40
0.24
340
0
 62
   256
 40
0.24
300

 40
0.36
280
     3
 71
     2
340
5D
 90
       25
 62
   256
 71
     3
340
55
 62
   256
 40
0.24
 90
        1
 40
0.75
 90
        1
300
%<\AcVar ViewType \f "%tc1">% %<\AcVar ViewDetailId>%\PSCALE %<\AcVar ViewScale \f "%sn">%
 71
     4
340
5D
 90
       25
 62
   256
340
5D
 90
       25
 62
   256
280
     0
  0
LAYOUT
  5
73
102
{ACAD_REACTORS
330
62
102
}
330
62
100
AcDbPlotSettings
  1

  2
AutoCAD PDF (High Quality Print).pc3
  4
ANSI_full_bleed_B_(17.00_x_11.00_Inches)
  6

 40
0.0
 41
0.0
 42
0.0
 43
0.0
 44
431.799988
 45
279.399994
 46
0.0
 47
0.0
 48
0.0
 49
0.0
140
0.0
141
0.0
142
1.0
143
1.376322
 70
 11952
 72
     0
 73
     0
 74
     0
  7

 75
     0
147
0.726574
 76
     0
 77
     2
 78
   300
148
69.076852
149
28.043724
100
AcDbLayout
  1
Model
 70
     1
 71
     0
 10
0.0
 20
0.0
 11
12.0
 21
9.0
 12
0.0
 22
0.0
 32
0.0
 14
0.0
 24
0.0
 34
0.0
 15
0.0
 25
0.0
 35
0.0
146
0.0
 13
0.0
 23
0.0
 33
0.0
 16
1.0
 26
0.0
 36
0.0
 17
0.0
 27
1.0
 37
0.0
 76
     0
330
70
1001
ACAD_PSEXT
1000
AutoCAD PDF (High Quality Print).pc3
1000
DWG To PDF
1000
File
1000

1070
     0
  0
LAYOUT
  5
6F
102
{ACAD_REACTORS
330
62
102
}
330
62
100
AcDbPlotSettings
  1

  2
None
  4

  6

 40
0.0
 41
0.0
 42
0.0
 43
0.0
 44
0.0
 45
0.0
 46
0.0
 47
0.0
 48
0.0
 49
0.0
140
0.0
141
0.0
142
1.0
143
1.0
 70
   688
 72
     0
 73
     0
 74
     5
  7

 75
    16
147
1.0
 76
     0
 77
     2
 78
   300
148
0.0
149
0.0
100
AcDbLayout
  1
Sheet1
 70
     1
 71
     1
 10
0.0
 20
0.0
 11
12.0
 21
9.0
 12
0.0
 22
0.0
 32
0.0
 14
0.0
 24
0.0
 34
0.0
 15
0.0
 25
0.0
 35
0.0
146
0.0
 13
0.0
 23
0.0
 33
0.0
 16
1.0
 26
0.0
 36
0.0
 17
0.0
 27
1.0
 37
0.0
 76
     0
330
6C
  0
LAYOUT
  5
77
102
{ACAD_REACTORS
330
62
102
}
330
62
100
AcDbPlotSettings
  1

  2
None
  4

  6

 40
0.0
 41
0.0
 42
0.0
 43
0.0
 44
0.0
 45
0.0
 46
0.0
 47
0.0
 48
0.0
 49
0.0
140
0.0
141
0.0
142
1.0
143
1.0
 70
   688
 72
     0
 73
     0
 74
     5
  7

 75
    16
147
1.0
 76
     0
 77
     2
 78
   300
148
0.0
149
0.0
100
AcDbLayout
  1
Sheet2
 70
     1
 71
     2
 10
0.0
 20
0.0
 11
12.0
 21
9.0
 12
0.0
 22
0.0
 32
0.0
 14
0.0
 24
0.0
 34
0.0
 15
0.0
 25
0.0
 35
0.0
146
0.0
 13
0.0
 23
0.0
 33
0.0
 16
1.0
 26
0.0
 36
0.0
 17
0.0
 27
1.0
 37
0.0
 76
     0
330
74
  0
MATERIAL
  5
19
102
{ACAD_XDICTIONARY
360
1A
102
}
102
{ACAD_REACTORS
330
10
102
}
330
10
100
AcDbMaterial
  1
ByBlock
 72
     0
 43
0.020833
 43
0.0
 43
0.0
 43
0.0
 43
0.0
 43
0.020833
 43
0.0
 43
0.0
 43
0.0
 43
0.0
 43
1.0
 43
0.0
 43
0.0
 43
0.0
 43
0.0
 43
1.0
 77
     0
 47
0.020833
 47
0.0
 47
0.0
 47
0.0
 47
0.0
 47
0.020833
 47
0.0
 47
0.0
 47
0.0
 47
0.0
 47
1.0
 47
0.0
 47
0.0
 47
0.0
 47
0.0
 47
1.0
171
     0
 49
0.020833
 49
0.0
 49
0.0
 49
0.0
 49
0.0
 49
0.020833
 49
0.0
 49
0.0
 49
0.0
 49
0.0
 49
1.0
 49
0.0
 49
0.0
 49
0.0
 49
0.0
 49
1.0
175
     0
142
0.020833
142
0.0
142
0.0
142
0.0
142
0.0
142
0.020833
142
0.0
142
0.0
142
0.0
142
0.0
142
1.0
142
0.0
142
0.0
142
0.0
142
0.0
142
1.0
179
     0
144
0.020833
144
0.0
144
0.0
144
0.0
144
0.0
144
0.020833
144
0.0
144
0.0
144
0.0
144
0.0
144
1.0
144
0.0
144
0.0
144
0.0
144
0.0
144
1.0
147
0.020833
147
0.0
147
0.0
147
0.0
147
0.0
147
0.020833
147
0.0
147
0.0
147
0.0
147
0.0
147
1.0
147
0.0
147
0.0
147
0.0
147
0.0
147
1.0
  0
MATERIAL
  5
11
102
{ACAD_XDICTIONARY
360
12
102
}
102
{ACAD_REACTORS
330
10
102
}
330
10
100
AcDbMaterial
  1
ByLayer
 72
     0
 43
0.020833
 43
0.0
 43
0.0
 43
0.0
 43
0.0
 43
0.020833
 43
0.0
 43
0.0
 43
0.0
 43
0.0
 43
1.0
 43
0.0
 43
0.0
 43
0.0
 43
0.0
 43
1.0
 77
     0
 47
0.020833
 47
0.0
 47
0.0
 47
0.0
 47
0.0
 47
0.020833
 47
0.0
 47
0.0
 47
0.0
 47
0.0
 47
1.0
 47
0.0
 47
0.0
 47
0.0
 47
0.0
 47
1.0
171
     0
 49
0.020833
 49
0.0
 49
0.0
 49
0.0
 49
0.0
 49
0.020833
 49
0.0
 49
0.0
 49
0.0
 49
0.0
 49
1.0
 49
0.0
 49
0.0
 49
0.0
 49
0.0
 49
1.0
175
     0
142
0.020833
142
0.0
142
0.0
142
0.0
142
0.0
142
0.020833
142
0.0
142
0.0
142
0.0
142
0.0
142
1.0
142
0.0
142
0.0
142
0.0
142
0.0
142
1.0
179
     0
144
0.020833
144
0.0
144
0.0
144
0.0
144
0.0
144
0.020833
144
0.0
144
0.0
144
0.0
144
0.0
144
1.0
144
0.0
144
0.0
144
0.0
144
0.0
144
1.0
147
0.020833
147
0.0
147
0.0
147
0.0
147
0.0
147
0.020833
147
0.0
147
0.0
147
0.0
147
0.0
147
1.0
147
0.0
147
0.0
147
0.0
147
0.0
147
1.0
  0
MATERIAL
  5
21
102
{ACAD_XDICTIONARY
360
22
102
}
102
{ACAD_REACTORS
330
10
102
}
330
10
100
AcDbMaterial
  1
Global
 72
     0
 43
0.020833
 43
0.0
 43
0.0
 43
0.0
 43
0.0
 43
0.020833
 43
0.0
 43
0.0
 43
0.0
 43
0.0
 43
1.0
 43
0.0
 43
0.0
 43
0.0
 43
0.0
 43
1.0
 77
     0
 47
0.020833
 47
0.0
 47
0.0
 47
0.0
 47
0.0
 47
0.020833
 47
0.0
 47
0.0
 47
0.0
 47
0.0
 47
1.0
 47
0.0
 47
0.0
 47
0.0
 47
0.0
 47
1.0
171
     0
 49
0.020833
 49
0.0
 49
0.0
 49
0.0
 49
0.0
 49
0.020833
 49
0.0
 49
0.0
 49
0.0
 49
0.0
 49
1.0
 49
0.0
 49
0.0
 49
0.0
 49
0.0
 49
1.0
175
     0
142
0.020833
142
0.0
142
0.0
142
0.0
142
0.0
142
0.020833
142
0.0
142
0.0
142
0.0
142
0.0
142
1.0
142
0.0
142
0.0
142
0.0
142
0.0
142
1.0
179
     0
144
0.020833
144
0.0
144
0.0
144
0.0
144
0.0
144
0.020833
144
0.0
144
0.0
144
0.0
144
0.0
144
1.0
144
0.0
144
0.0
144
0.0
144
0.0
144
1.0
147
0.020833
147
0.0
147
0.0
147
0.0
147
0.0
147
0.020833
147
0.0
147
0.0
147
0.0
147
0.0
147
1.0
147
0.0
147
0.0
147
0.0
147
0.0
147
1.0
  0
MLEADERSTYLE
  5
67
102
{ACAD_REACTORS
330
66
102
}
330
66
100
AcDbMLeaderStyle
179
     2
170
     2
171
     1
172
     0
 90
        2
 40
0.0
 41
0.0
173
     1
 91
-1056964608
340
5B
 92
       -2
290
     1
 42
0.09
291
     1
 43
0.36
  3
Standard
 44
0.18
300

342
55
174
     1
178
     6
175
     1
176
     0
 93
-1056964608
 45
0.18
292
     0
297
     0
 46
0.18
 94
-1056964608
 47
1.0
 49
1.0
140
1.0
293
     1
141
0.0
294
     1
177
     0
142
1.0
295
     0
296
     0
143
0.125
271
     0
272
     9
273
     9
298
     1
  0
MLINESTYLE
  5
60
102
{ACAD_REACTORS
330
5F
102
}
330
5F
100
AcDbMlineStyle
  2
STANDARD
 70
     0
  3

 62
   256
 51
90.0
 52
90.0
 71
     0
  0
ACDBPLACEHOLDER
  5
F
102
{ACAD_REACTORS
330
E
102
}
330
E
  0
SCALE
  5
A0
102
{ACAD_REACTORS
330
42
102
}
330
42
100
AcDbScale
 70
     0
300
1:2
140
1.0
141
2.0
290
     0
  0
SCALE
  5
A9
102
{ACAD_REACTORS
330
42
102
}
330
42
100
AcDbScale
 70
     0
300
1:50
140
1.0
141
50.0
290
     0
  0
SCALE
  5
AA
102
{ACAD_REACTORS
330
42
102
}
330
42
100
AcDbScale
 70
     0
300
1:100
140
1.0
141
100.0
290
     0
  0
SCALE
  5
AB
102
{ACAD_REACTORS
330
42
102
}
330
42
100
AcDbScale
 70
     0
300
2:1
140
2.0
141
1.0
290
     0
  0
SCALE
  5
AC
102
{ACAD_REACTORS
330
42
102
}
330
42
100
AcDbScale
 70
     0
300
4:1
140
4.0
141
1.0
290
     0
  0
SCALE
  5
AD
102
{ACAD_REACTORS
330
42
102
}
330
42
100
AcDbScale
 70
     0
300
8:1
140
8.0
141
1.0
290
     0
  0
SCALE
  5
AE
102
{ACAD_REACTORS
330
42
102
}
330
42
100
AcDbScale
 70
     0
300
10:1
140
10.0
141
1.0
290
     0
  0
SCALE
  5
AF
102
{ACAD_REACTORS
330
42
102
}
330
42
100
AcDbScale
 70
     0
300
100:1
140
100.0
141
1.0
290
     0
  0
SCALE
  5
A1
102
{ACAD_REACTORS
330
42
102
}
330
42
100
AcDbScale
 70
     0
300
1:4
140
1.0
141
4.0
290
     0
  0
SCALE
  5
A2
102
{ACAD_REACTORS
330
42
102
}
330
42
100
AcDbScale
 70
     0
300
1:5
140
1.0
141
5.0
290
     0
  0
SCALE
  5
A3
102
{ACAD_REACTORS
330
42
102
}
330
42
100
AcDbScale
 70
     0
300
1:8
140
1.0
141
8.0
290
     0
  0
SCALE
  5
A4
102
{ACAD_REACTORS
330
42
102
}
330
42
100
AcDbScale
 70
     0
300
1:10
140
1.0
141
10.0
290
     0
  0
SCALE
  5
A5
102
{ACAD_REACTORS
330
42
102
}
330
42
100
AcDbScale
 70
     0
300
1:16
140
1.0
141
16.0
290
     0
  0
SCALE
  5
A6
102
{ACAD_REACTORS
330
42
102
}
330
42
100
AcDbScale
 70
     0
300
1:20
140
1.0
141
20.0
290
     0
  0
SCALE
  5
A7
102
{ACAD_REACTORS
330
42
102
}
330
42
100
AcDbScale
 70
     0
300
1:30
140
1.0
141
30.0
290
     0
  0
SCALE
  5
A8
102
{ACAD_REACTORS
330
42
102
}
330
42
100
AcDbScale
 70
     0
300
1:40
140
1.0
141
40.0
290
     0
  0
SCALE
  5
43
102
{ACAD_REACTORS
330
42
102
}
330
42
100
AcDbScale
 70
     0
300
1:1
140
1.0
141
1.0
290
     1
  0
SCALE
  5
44
102
{ACAD_REACTORS
330
42
102
}
330
42
100
AcDbScale
 70
     0
300
1/128" = 1'-0"
140
0.007813
141
12.0
290
     0
  0
SCALE
  5
45
102
{ACAD_REACTORS
330
42
102
}
330
42
100
AcDbScale
 70
     0
300
1/64" = 1'-0"
140
0.015625
141
12.0
290
     0
  0
SCALE
  5
46
102
{ACAD_REACTORS
330
42
102
}
330
42
100
AcDbScale
 70
     0
300
1/32" = 1'-0"
140
0.03125
141
12.0
290
     0
  0
SCALE
  5
47
102
{ACAD_REACTORS
330
42
102
}
330
42
100
AcDbScale
 70
     0
300
1/16" = 1'-0"
140
0.0625
141
12.0
290
     0
  0
SCALE
  5
48
102
{ACAD_REACTORS
330
42
102
}
330
42
100
AcDbScale
 70
     0
300
3/32" = 1'-0"
140
0.09375
141
12.0
290
     0
  0
SCALE
  5
49
102
{ACAD_REACTORS
330
42
102
}
330
42
100
AcDbScale
 70
     0
300
1/8" = 1'-0"
140
0.125
141
12.0
290
     0
  0
SCALE
  5
4A
102
{ACAD_REACTORS
330
42
102
}
330
42
100
AcDbScale
 70
     0
300
3/16" = 1'-0"
140
0.1875
141
12.0
290
     0
  0
SCALE
  5
4B
102
{ACAD_REACTORS
330
42
102
}
330
42
100
AcDbScale
 70
     0
300
1/4" = 1'-0"
140
0.25
141
12.0
290
     0
  0
SCALE
  5
4C
102
{ACAD_REACTORS
330
42
102
}
330
42
100
AcDbScale
 70
     0
300
3/8" = 1'-0"
140
0.375
141
12.0
290
     0
  0
SCALE
  5
4D
102
{ACAD_REACTORS
330
42
102
}
330
42
100
AcDbScale
 70
     0
300
1/2" = 1'-0"
140
0.5
141
12.0
290
     0
  0
SCALE
  5
4E
102
{ACAD_REACTORS
330
42
102
}
330
42
100
AcDbScale
 70
     0
300
3/4" = 1'-0"
140
0.75
141
12.0
290
     0
  0
SCALE
  5
4F
102
{ACAD_REACTORS
330
42
102
}
330
42
100
AcDbScale
 70
     0
300
1" = 1'-0"
140
1.0
141
12.0
290
     0
  0
SCALE
  5
50
102
{ACAD_REACTORS
330
42
102
}
330
42
100
AcDbScale
 70
     0
300
1-1/2" = 1'-0"
140
1.5
141
12.0
290
     0
  0
SCALE
  5
51
102
{ACAD_REACTORS
330
42
102
}
330
42
100
AcDbScale
 70
     0
300
3" = 1'-0"
140
3.0
141
12.0
290
     0
  0
SCALE
  5
52
102
{ACAD_REACTORS
330
42
102
}
330
42
100
AcDbScale
 70
     0
300
6" = 1'-0"
140
6.0
141
12.0
290
     0
  0
SCALE
  5
53
102
{ACAD_REACTORS
330
42
102
}
330
42
100
AcDbScale
 70
     0
300
1'-0" = 1'-0"
140
12.0
141
12.0
290
     0
  0
ACDBSECTIONVIEWSTYLE
  5
69
102
{ACAD_XDICTIONARY
360
487
102
}
102
{ACAD_REACTORS
330
68
102
}
330
68
100
AcDbModelDocViewStyle
 70
     0
  3
Imperial24
290
     0
100
AcDbSectionViewStyle
 70
     0
 71
     0
 90
       78
 71
     1
340
55
 62
   256
 40
0.24
340
0
340
0
 62
   256
 40
0.24
300
I, O, Q, S, X, Z
 40
0.48
 90
        3
 40
0.18
 90
        1
 71
     2
340
5D
 90
       25
 62
   256
340
5D
 90
       50
 62
   256
 40
0.24
 40
0.0
 40
0.24
 71
     3
340
55
 62
   256
 40
0.24
 90
        1
 40
0.75
 90
        1
300
%<\AcVar ViewType \f "%tc1">% %<\AcVar ViewSectionStartId>%-%<\AcVar ViewSectionEndId>%\PSCALE %<\AcVar ViewScale \f "%sn">%
 71
     4
 62
   256
 62
   257
300
ANSI31
 40
1.0
 90
        0
290
     0
290
     0
 90
        6
 40
0.0
 40
1.570796
 40
0.261799
 40
1.308997
 40
-0.261799
 40
1.832596
  0
TABLESTYLE
  5
65
102
{ACAD_XDICTIONARY
360
484
102
}
102
{ACAD_REACTORS
330
64
102
}
330
64
100
AcDbTableStyle
280
     0
  3
Standard
 70
     0
 71
     0
 40
0.06
 41
0.06
280
     0
281
     0
  7
Standard
140
0.18
170
     2
 62
     0
 63
     7
283
     0
 90
      512
 91
        0
  1

274
    -2
284
     1
 64
     0
275
    -2
285
     1
 65
     0
276
    -2
286
     1
 66
     0
277
    -2
287
     1
 67
     0
278
    -2
288
     1
 68
     0
279
    -2
289
     1
 69
     0
  7
Standard
140
0.25
170
     5
 62
     0
 63
     7
283
     0
 90
      512
 91
        0
  1

274
    -2
284
     1
 64
     0
275
    -2
285
     1
 65
     0
276
    -2
286
     1
 66
     0
277
    -2
287
     1
 67
     0
278
    -2
288
     1
 68
     0
279
    -2
289
     1
 69
     0
  7
Standard
140
0.18
170
     5
 62
     0
 63
     7
283
     0
 90
      512
 91
        0
  1

274
    -2
284
     1
 64
     0
275
    -2
285
     1
 65
     0
276
    -2
286
     1
 66
     0
277
    -2
287
     1
 67
     0
278
    -2
288
     1
 68
     0
279
    -2
289
     1
 69
     0
  0
VISUALSTYLE
  5
2F
102
{ACAD_REACTORS
330
29
102
}
330
29
100
AcDbVisualStyle
  2
2dWireframe
 70
     4
177
     3
291
     0
 70
    58
 90
        0
176
     1
 90
        2
176
     1
 90
        0
176
     1
 90
        0
176
     1
 40
0.6
176
     1
 40
30.0
176
     1
 62
     7
420
 16777215
176
     1
 90
        1
176
     1
 90
        4
176
     1
 62
     7
176
     1
 62
   257
176
     1
 90
        1
176
     1
 90
        1
176
     1
 40
1.0
176
     1
 90
        0
176
     1
 62
   257
176
     1
 40
1.0
176
     1
 90
        1
176
     1
 90
        6
176
     1
 90
        2
176
     1
 62
     7
176
     1
 90
        5
176
     1
 90
        0
176
     1
 90
        0
176
     1
290
     0
176
     1
 90
        1
176
     1
 40
0.0
176
     1
 90
        0
176
     1
290
     1
176
     1
290
     1
176
     1
290
     0
176
     1
290
     0
176
     1
290
     0
176
     1
290
     0
176
     1
290
     0
176
     1
290
     0
176
     1
290
     0
176
     1
 90
       50
176
     1
 40
0.0
176
     1
 40
1.0
176
     1
 90
        0
176
     1
 62
    18
420
        0
176
     1
 90
       50
176
     1
 90
        3
176
     1
 62
     5
420
      255
176
     1
290
     0
176
     1
 90
       50
176
     1
 90
       50
176
     1
 90
       50
176
     1
290
     0
176
     1
 90
       50
176
     1
 62
   256
176
     0
 40
1.0
176
     0
 90
        2
176
     1
  1
strokes_ogs.tif
176
     1
290
     0
176
     1
 40
1.0
176
     1
 40
1.0
176
     1
1001
ACAD
1000
AcDbSavedByObjectVersion
1070
     0
  0
VISUALSTYLE
  5
2E
102
{ACAD_REACTORS
330
29
102
}
330
29
100
AcDbVisualStyle
  2
Basic
 70
     7
177
     3
291
     1
 70
    58
 90
        1
176
     1
 90
        0
176
     1
 90
        1
176
     1
 90
        0
176
     1
 40
0.6
176
     1
 40
30.0
176
     1
 62
     7
420
 16777215
176
     1
 90
        0
176
     1
 90
        4
176
     1
 62
     7
176
     1
 62
   257
176
     1
 90
        1
176
     1
 90
        1
176
     1
 40
1.0
176
     1
 90
        8
176
     1
 62
     7
176
     1
 40
1.0
176
     1
 90
        1
176
     1
 90
        6
176
     1
 90
        2
176
     1
 62
     7
176
     1
 90
        5
176
     1
 90
        0
176
     1
 90
        0
176
     1
290
     0
176
     1
 90
        1
176
     1
 40
0.0
176
     1
 90
        0
176
     1
290
     0
176
     1
290
     1
176
     1
290
     1
176
     1
290
     0
176
     1
290
     0
176
     1
290
     0
176
     1
290
     0
176
     1
290
     0
176
     1
290
     0
176
     1
 90
       50
176
     1
 40
0.0
176
     1
 40
1.0
176
     1
 90
        0
176
     1
 62
    18
420
        0
176
     1
 90
       50
176
     1
 90
        3
176
     1
 62
     5
420
      255
176
     1
290
     0
176
     1
 90
       50
176
     1
 90
       50
176
     1
 90
       50
176
     1
290
     0
176
     1
 90
       50
176
     1
 62
   256
176
     0
 40
1.0
176
     0
 90
        2
176
     1
  1
strokes_ogs.tif
176
     1
290
     0
176
     1
 40
1.0
176
     1
 40
1.0
176
     1
1001
ACAD
1000
AcDbSavedByObjectVersion
1070
     0
  0
VISUALSTYLE
  5
35
102
{ACAD_REACTORS
330
29
102
}
330
29
100
AcDbVisualStyle
  2
Brighten
 70
    12
177
     3
291
     1
 70
    58
 90
        2
176
     1
 90
        2
176
     1
 90
        0
176
     1
 90
        0
176
     1
 40
0.6
176
     1
 40
30.0
176
     1
 62
     7
420
 16777215
176
     1
 90
        1
176
     1
 90
        4
176
     1
 62
     7
176
     1
 62
   257
176
     1
 90
        1
176
     1
 90
        1
176
     1
 40
1.0
176
     1
 90
        8
176
     1
 62
     7
176
     1
 40
1.0
176
     1
 90
        1
176
     1
 90
        6
176
     1
 90
        2
176
     1
 62
     7
176
     1
 90
        5
176
     1
 90
        0
176
     1
 90
        0
176
     1
290
     0
176
     1
 90
        1
176
     1
 40
50.0
176
     1
 90
        0
176
     1
290
     0
176
     1
290
     1
176
     1
290
     1
176
     1
290
     0
176
     1
290
     0
176
     1
290
     0
176
     1
290
     0
176
     1
290
     0
176
     1
290
     0
176
     1
 90
       50
176
     1
 40
0.0
176
     1
 40
1.0
176
     1
 90
        0
176
     1
 62
    18
420
        0
176
     1
 90
       50
176
     1
 90
        3
176
     1
 62
     5
420
      255
176
     1
290
     0
176
     1
 90
       50
176
     1
 90
       50
176
     1
 90
       50
176
     1
290
     0
176
     1
 90
       50
176
     1
 62
   256
176
     0
 40
1.0
176
     0
 90
        2
176
     1
  1
strokes_ogs.tif
176
     1
290
     0
176
     1
 40
1.0
176
     1
 40
1.0
176
     1
1001
ACAD
1000
AcDbSavedByObjectVersion
1070
     0
  0
VISUALSTYLE
  5
39
102
{ACAD_REACTORS
330
29
102
}
330
29
100
AcDbVisualStyle
  2
ColorChange
 70
    16
177
     3
291
     1
 70
    58
 90
        2
176
     1
 90
        2
176
     1
 90
        3
176
     1
 90
        0
176
     1
 40
0.6
176
     1
 40
30.0
176
     1
 62
     8
420
  8421504
176
     1
 90
        1
176
     1
 90
        4
176
     1
 62
     7
176
     1
 62
   257
176
     1
 90
        1
176
     1
 90
        1
176
     1
 40
1.0
176
     1
 90
        8
176
     1
 62
     8
420
  8421504
176
     1
 40
1.0
176
     1
 90
        1
176
     1
 90
        6
176
     1
 90
        2
176
     1
 62
     7
176
     1
 90
        5
176
     1
 90
        0
176
     1
 90
        0
176
     1
290
     0
176
     1
 90
        1
176
     1
 40
0.0
176
     1
 90
        0
176
     1
290
     0
176
     1
290
     1
176
     1
290
     1
176
     1
290
     0
176
     1
290
     0
176
     1
290
     0
176
     1
290
     0
176
     1
290
     0
176
     1
290
     0
176
     1
 90
       50
176
     1
 40
0.0
176
     1
 40
1.0
176
     1
 90
        0
176
     1
 62
    18
420
        0
176
     1
 90
       50
176
     1
 90
        3
176
     1
 62
     5
420
      255
176
     1
290
     0
176
     1
 90
       50
176
     1
 90
       50
176
     1
 90
       50
176
     1
290
     0
176
     1
 90
       50
176
     1
 62
   256
176
     0
 40
1.0
176
     0
 90
        2
176
     1
  1
strokes_ogs.tif
176
     1
290
     0
176
     1
 40
1.0
176
     1
 40
1.0
176
     1
1001
ACAD
1000
AcDbSavedByObjectVersion
1070
     0
  0
VISUALSTYLE
  5
32
102
{ACAD_REACTORS
330
29
102
}
330
29
100
AcDbVisualStyle
  2
Conceptual
 70
     9
177
     3
291
     0
 70
    58
 90
        3
176
     1
 90
        2
176
     1
 90
        0
176
     1
 90
        0
176
     1
 40
0.6
176
     1
 40
30.0
176
     1
 62
     7
420
 16777215
176
     1
 90
        2
176
     1
 90
        2
176
     1
 62
     7
176
     1
 62
   257
176
     1
 90
        1
176
     1
 90
        1
176
     1
 40
179.0
176
     1
 90
        8
176
     1
 62
     7
176
     1
 40
1.0
176
     1
 90
        1
176
     1
 90
        6
176
     1
 90
        2
176
     1
 62
     7
176
     1
 90
        3
176
     1
 90
        0
176
     1
 90
        0
176
     1
290
     0
176
     1
 90
        1
176
     1
 40
0.0
176
     1
 90
        0
176
     1
290
     0
176
     1
290
     1
176
     1
290
     1
176
     1
290
     0
176
     1
290
     0
176
     1
290
     0
176
     1
290
     0
176
     1
290
     0
176
     1
290
     0
176
     1
 90
       50
176
     1
 40
0.0
176
     1
 40
1.0
176
     1
 90
        0
176
     1
 62
    18
420
        0
176
     1
 90
       50
176
     1
 90
        3
176
     1
 62
     5
420
      255
176
     1
290
     0
176
     1
 90
       50
176
     1
 90
       50
176
     1
 90
       50
176
     1
290
     0
176
     1
 90
       50
176
     1
 62
   256
176
     0
 40
1.0
176
     0
 90
        2
176
     1
  1
strokes_ogs.tif
176
     1
290
     0
176
     1
 40
1.0
176
     1
 40
1.0
176
     1
1001
ACAD
1000
AcDbSavedByObjectVersion
1070
     0
  0
VISUALSTYLE
  5
34
102
{ACAD_REACTORS
330
29
102
}
330
29
100
AcDbVisualStyle
  2
Dim
 70
    11
177
     3
291
     1
 70
    58
 90
        2
176
     1
 90
        2
176
     1
 90
        0
176
     1
 90
        0
176
     1
 40
0.6
176
     1
 40
30.0
176
     1
 62
     7
420
 16777215
176
     1
 90
        1
176
     1
 90
        4
176
     1
 62
     7
176
     1
 62
   257
176
     1
 90
        1
176
     1
 90
        1
176
     1
 40
1.0
176
     1
 90
        8
176
     1
 62
     7
176
     1
 40
1.0
176
     1
 90
        1
176
     1
 90
        6
176
     1
 90
        2
176
     1
 62
     7
176
     1
 90
        5
176
     1
 90
        0
176
     1
 90
        0
176
     1
290
     0
176
     1
 90
        1
176
     1
 40
-50.0
176
     1
 90
        0
176
     1
290
     0
176
     1
290
     1
176
     1
290
     1
176
     1
290
     0
176
     1
290
     0
176
     1
290
     0
176
     1
290
     0
176
     1
290
     0
176
     1
290
     0
176
     1
 90
       50
176
     1
 40
0.0
176
     1
 40
1.0
176
     1
 90
        0
176
     1
 62
    18
420
        0
176
     1
 90
       50
176
     1
 90
        3
176
     1
 62
     5
420
      255
176
     1
290
     0
176
     1
 90
       50
176
     1
 90
       50
176
     1
 90
       50
176
     1
290
     0
176
     1
 90
       50
176
     1
 62
   256
176
     0
 40
1.0
176
     0
 90
        2
176
     1
  1
strokes_ogs.tif
176
     1
290
     0
176
     1
 40
1.0
176
     1
 40
1.0
176
     1
1001
ACAD
1000
AcDbSavedByObjectVersion
1070
     0
  0
VISUALSTYLE
  5
41
102
{ACAD_REACTORS
330
29
102
}
330
29
100
AcDbVisualStyle
  2
EdgeColorOff
 70
    22
177
     3
291
     1
 70
    58
 90
        2
176
     0
 90
        2
176
     0
 90
        0
176
     0
 90
        0
176
     0
 40
0.6
176
     0
 40
30.0
176
     0
 62
     7
420
 16777215
176
     0
 90
        1
176
     0
 90
        4
176
     0
 62
     7
176
     0
 62
   257
176
     0
 90
        1
176
     0
 90
        1
176
     0
 40
1.0
176
     0
 90
        8
176
     2
 62
     7
176
     0
 40
1.0
176
     0
 90
        1
176
     0
 90
        6
176
     0
 90
        2
176
     0
 62
     7
176
     0
 90
        5
176
     0
 90
        0
176
     0
 90
        0
176
     0
290
     0
176
     0
 90
        1
176
     0
 40
0.0
176
     0
 90
        0
176
     0
290
     0
176
     0
290
     1
176
     0
290
     1
176
     0
290
     0
176
     0
290
     0
176
     0
290
     0
176
     0
290
     0
176
     0
290
     0
176
     0
290
     0
176
     0
 90
       50
176
     0
 40
0.0
176
     0
 40
1.0
176
     0
 90
        0
176
     0
 62
    18
420
        0
176
     0
 90
       50
176
     0
 90
        3
176
     0
 62
     5
420
      255
176
     0
290
     0
176
     0
 90
       50
176
     0
 90
       50
176
     0
 90
       50
176
     0
290
     0
176
     0
 90
       50
176
     0
 62
   256
176
     0
 40
1.0
176
     0
 90
        2
176
     0
  1
strokes_ogs.tif
176
     0
290
     0
176
     0
 40
1.0
176
     0
 40
1.0
176
     0
1001
ACAD
1000
AcDbSavedByObjectVersion
1070
     0
  0
VISUALSTYLE
  5
38
102
{ACAD_REACTORS
330
29
102
}
330
29
100
AcDbVisualStyle
  2
Facepattern
 70
    15
177
     3
291
     1
 70
    58
 90
        2
176
     1
 90
        2
176
     1
 90
        0
176
     1
 90
        0
176
     1
 40
0.6
176
     1
 40
30.0
176
     1
 62
     7
420
 16777215
176
     1
 90
        1
176
     1
 90
        4
176
     1
 62
     7
176
     1
 62
   257
176
     1
 90
        1
176
     1
 90
        1
176
     1
 40
1.0
176
     1
 90
        8
176
     1
 62
     7
176
     1
 40
1.0
176
     1
 90
        1
176
     1
 90
        6
176
     1
 90
        2
176
     1
 62
     7
176
     1
 90
        5
176
     1
 90
        0
176
     1
 90
        0
176
     1
290
     0
176
     1
 90
        1
176
     1
 40
0.0
176
     1
 90
        0
176
     1
290
     0
176
     1
290
     1
176
     1
290
     1
176
     1
290
     0
176
     1
290
     0
176
     1
290
     0
176
     1
290
     0
176
     1
290
     0
176
     1
290
     0
176
     1
 90
       50
176
     1
 40
0.0
176
     1
 40
1.0
176
     1
 90
        0
176
     1
 62
    18
420
        0
176
     1
 90
       50
176
     1
 90
        3
176
     1
 62
     5
420
      255
176
     1
290
     0
176
     1
 90
       50
176
     1
 90
       50
176
     1
 90
       50
176
     1
290
     0
176
     1
 90
       50
176
     1
 62
   256
176
     0
 40
1.0
176
     0
 90
        2
176
     1
  1
strokes_ogs.tif
176
     1
290
     0
176
     1
 40
1.0
176
     1
 40
1.0
176
     1
1001
ACAD
1000
AcDbSavedByObjectVersion
1070
     0
  0
VISUALSTYLE
  5
2A
102
{ACAD_REACTORS
330
29
102
}
330
29
100
AcDbVisualStyle
  2
Flat
 70
     0
177
     3
291
     1
 70
    58
 90
        2
176
     1
 90
        1
176
     1
 90
        1
176
     1
 90
        2
176
     1
 40
0.6
176
     1
 40
30.0
176
     1
 62
     7
420
 16777215
176
     1
 90
        0
176
     1
 90
        0
176
     1
 62
     7
176
     1
 62
   257
176
     1
 90
        1
176
     1
 90
        1
176
     1
 40
1.0
176
     1
 90
        8
176
     1
 62
     7
176
     1
 40
1.0
176
     1
 90
        1
176
     1
 90
        6
176
     1
 90
        2
176
     1
 62
     7
176
     1
 90
        5
176
     1
 90
        0
176
     1
 90
        0
176
     1
290
     0
176
     1
 90
       13
176
     1
 40
0.0
176
     1
 90
        0
176
     1
290
     0
176
     1
290
     1
176
     1
290
     1
176
     1
290
     0
176
     1
290
     0
176
     1
290
     0
176
     1
290
     0
176
     1
290
     0
176
     1
290
     0
176
     1
 90
       50
176
     1
 40
0.0
176
     1
 40
1.0
176
     1
 90
        0
176
     1
 62
    18
420
        0
176
     1
 90
       50
176
     1
 90
        3
176
     1
 62
     5
420
      255
176
     1
290
     0
176
     1
 90
       50
176
     1
 90
       50
176
     1
 90
       50
176
     1
290
     0
176
     1
 90
       50
176
     1
 62
   256
176
     0
 40
1.0
176
     0
 90
        2
176
     1
  1
strokes_ogs.tif
176
     1
290
     0
176
     1
 40
1.0
176
     1
 40
1.0
176
     1
1001
ACAD
1000
AcDbSavedByObjectVersion
1070
     0
  0
VISUALSTYLE
  5
2B
102
{ACAD_REACTORS
330
29
102
}
330
29
100
AcDbVisualStyle
  2
FlatWithEdges
 70
     1
177
     3
291
     1
 70
    58
 90
        2
176
     1
 90
        1
176
     1
 90
        1
176
     1
 90
        2
176
     1
 40
0.6
176
     1
 40
30.0
176
     1
 62
     7
420
 16777215
176
     1
 90
        1
176
     1
 90
        0
176
     1
 62
     7
176
     1
 62
   257
176
     1
 90
        1
176
     1
 90
        1
176
     1
 40
1.0
176
     1
 90
        0
176
     1
 62
   257
176
     1
 40
1.0
176
     1
 90
        1
176
     1
 90
        6
176
     1
 90
        2
176
     1
 62
     7
176
     1
 90
        5
176
     1
 90
        0
176
     1
 90
        0
176
     1
290
     0
176
     1
 90
       13
176
     1
 40
0.0
176
     1
 90
        0
176
     1
290
     0
176
     1
290
     1
176
     1
290
     1
176
     1
290
     0
176
     1
290
     0
176
     1
290
     0
176
     1
290
     0
176
     1
290
     0
176
     1
290
     0
176
     1
 90
       50
176
     1
 40
0.0
176
     1
 40
1.0
176
     1
 90
        0
176
     1
 62
    18
420
        0
176
     1
 90
       50
176
     1
 90
        3
176
     1
 62
     5
420
      255
176
     1
290
     0
176
     1
 90
       50
176
     1
 90
       50
176
     1
 90
       50
176
     1
290
     0
176
     1
 90
       50
176
     1
 62
   256
176
     0
 40
1.0
176
     0
 90
        2
176
     1
  1
strokes_ogs.tif
176
     1
290
     0
176
     1
 40
1.0
176
     1
 40
1.0
176
     1
1001
ACAD
1000
AcDbSavedByObjectVersion
1070
     0
  0
VISUALSTYLE
  5
2C
102
{ACAD_REACTORS
330
29
102
}
330
29
100
AcDbVisualStyle
  2
Gouraud
 70
     2
177
     3
291
     1
 70
    58
 90
        2
176
     1
 90
        2
176
     1
 90
        1
176
     1
 90
        2
176
     1
 40
0.6
176
     1
 40
30.0
176
     1
 62
     7
420
 16777215
176
     1
 90
        0
176
     1
 90
        0
176
     1
 62
     7
176
     1
 62
   257
176
     1
 90
        1
176
     1
 90
        1
176
     1
 40
1.0
176
     1
 90
        0
176
     1
 62
     7
176
     1
 40
1.0
176
     1
 90
        1
176
     1
 90
        6
176
     1
 90
        2
176
     1
 62
     7
176
     1
 90
        5
176
     1
 90
        0
176
     1
 90
        0
176
     1
290
     0
176
     1
 90
       13
176
     1
 40
0.0
176
     1
 90
        0
176
     1
290
     0
176
     1
290
     1
176
     1
290
     1
176
     1
290
     0
176
     1
290
     0
176
     1
290
     0
176
     1
290
     0
176
     1
290
     0
176
     1
290
     0
176
     1
 90
       50
176
     1
 40
0.0
176
     1
 40
1.0
176
     1
 90
        0
176
     1
 62
    18
420
        0
176
     1
 90
       50
176
     1
 90
        3
176
     1
 62
     5
420
      255
176
     1
290
     0
176
     1
 90
       50
176
     1
 90
       50
176
     1
 90
       50
176
     1
290
     0
176
     1
 90
       50
176
     1
 62
   256
176
     0
 40
1.0
176
     0
 90
        2
176
     1
  1
strokes_ogs.tif
176
     1
290
     0
176
     1
 40
1.0
176
     1
 40
1.0
176
     1
1001
ACAD
1000
AcDbSavedByObjectVersion
1070
     0
  0
VISUALSTYLE
  5
2D
102
{ACAD_REACTORS
330
29
102
}
330
29
100
AcDbVisualStyle
  2
GouraudWithEdges
 70
     3
177
     3
291
     1
 70
    58
 90
        2
176
     1
 90
        2
176
     1
 90
        1
176
     1
 90
        2
176
     1
 40
0.6
176
     1
 40
30.0
176
     1
 62
     7
420
 16777215
176
     1
 90
        1
176
     1
 90
        0
176
     1
 62
     7
176
     1
 62
   257
176
     1
 90
        1
176
     1
 90
        1
176
     1
 40
1.0
176
     1
 90
        0
176
     1
 62
   257
176
     1
 40
1.0
176
     1
 90
        1
176
     1
 90
        6
176
     1
 90
        2
176
     1
 62
     7
176
     1
 90
        5
176
     1
 90
        0
176
     1
 90
        0
176
     1
290
     0
176
     1
 90
       13
176
     1
 40
0.0
176
     1
 90
        0
176
     1
290
     0
176
     1
290
     1
176
     1
290
     1
176
     1
290
     0
176
     1
290
     0
176
     1
290
     0
176
     1
290
     0
176
     1
290
     0
176
     1
290
     0
176
     1
 90
       50
176
     1
 40
0.0
176
     1
 40
1.0
176
     1
 90
        0
176
     1
 62
    18
420
        0
176
     1
 90
       50
176
     1
 90
        3
176
     1
 62
     5
420
      255
176
     1
290
     0
176
     1
 90
       50
176
     1
 90
       50
176
     1
 90
       50
176
     1
290
     0
176
     1
 90
       50
176
     1
 62
   256
176
     0
 40
1.0
176
     0
 90
        2
176
     1
  1
strokes_ogs.tif
176
     1
290
     0
176
     1
 40
1.0
176
     1
 40
1.0
176
     1
1001
ACAD
1000
AcDbSavedByObjectVersion
1070
     0
  0
VISUALSTYLE
  5
31
102
{ACAD_REACTORS
330
29
102
}
330
29
100
AcDbVisualStyle
  2
Hidden
 70
     6
177
     3
291
     0
 70
    58
 90
        1
176
     1
 90
        2
176
     1
 90
        2
176
     1
 90
        0
176
     1
 40
0.6
176
     1
 40
30.0
176
     1
 62
     7
420
 16777215
176
     1
 90
        2
176
     1
 90
        2
176
     1
 62
     7
176
     1
 62
   257
176
     1
 90
        2
176
     1
 90
        1
176
     1
 40
40.0
176
     1
 90
        0
176
     1
 62
   257
176
     1
 40
1.0
176
     1
 90
        1
176
     1
 90
        6
176
     1
 90
        2
176
     1
 62
     7
176
     1
 90
        3
176
     1
 90
        0
176
     1
 90
        0
176
     1
290
     0
176
     1
 90
        1
176
     1
 40
0.0
176
     1
 90
        0
176
     1
290
     0
176
     1
290
     1
176
     1
290
     1
176
     1
290
     0
176
     1
290
     0
176
     1
290
     0
176
     1
290
     0
176
     1
290
     0
176
     1
290
     0
176
     1
 90
       50
176
     1
 40
0.0
176
     1
 40
1.0
176
     1
 90
        0
176
     1
 62
    18
420
        0
176
     1
 90
       50
176
     1
 90
        3
176
     1
 62
     5
420
      255
176
     1
290
     0
176
     1
 90
       50
176
     1
 90
       50
176
     1
 90
       50
176
     1
290
     0
176
     1
 90
       50
176
     1
 62
   256
176
     0
 40
1.0
176
     0
 90
        2
176
     1
  1
strokes_ogs.tif
176
     1
290
     0
176
     1
 40
1.0
176
     1
 40
1.0
176
     1
1001
ACAD
1000
AcDbSavedByObjectVersion
1070
     0
  0
VISUALSTYLE
  5
3F
102
{ACAD_REACTORS
330
29
102
}
330
29
100
AcDbVisualStyle
  2
JitterOff
 70
    20
177
     3
291
     1
 70
    58
 90
        2
176
     0
 90
        2
176
     0
 90
        0
176
     0
 90
        0
176
     0
 40
0.6
176
     0
 40
30.0
176
     0
 62
     7
420
 16777215
176
     0
 90
        1
176
     0
 90
        4
176
     0
 62
     7
176
     0
 62
   257
176
     0
 90
        1
176
     0
 90
        1
176
     0
 40
1.0
176
     0
 90
       10
176
     2
 62
     7
176
     0
 40
1.0
176
     0
 90
        1
176
     0
 90
        6
176
     0
 90
        2
176
     0
 62
     7
176
     0
 90
        5
176
     0
 90
        0
176
     0
 90
        0
176
     0
290
     0
176
     0
 90
        1
176
     0
 40
0.0
176
     0
 90
        0
176
     0
290
     0
176
     0
290
     1
176
     0
290
     1
176
     0
290
     0
176
     0
290
     0
176
     0
290
     0
176
     0
290
     0
176
     0
290
     0
176
     0
290
     0
176
     0
 90
       50
176
     0
 40
0.0
176
     0
 40
1.0
176
     0
 90
        0
176
     0
 62
    18
420
        0
176
     0
 90
       50
176
     0
 90
        3
176
     0
 62
     5
420
      255
176
     0
290
     0
176
     0
 90
       50
176
     0
 90
       50
176
     0
 90
       50
176
     0
290
     0
176
     0
 90
       50
176
     0
 62
   256
176
     0
 40
1.0
176
     0
 90
        2
176
     0
  1
strokes_ogs.tif
176
     0
290
     0
176
     0
 40
1.0
176
     0
 40
1.0
176
     0
1001
ACAD
1000
AcDbSavedByObjectVersion
1070
     0
  0
VISUALSTYLE
  5
37
102
{ACAD_REACTORS
330
29
102
}
330
29
100
AcDbVisualStyle
  2
Linepattern
 70
    14
177
     3
291
     1
 70
    58
 90
        2
176
     1
 90
        2
176
     1
 90
        0
176
     1
 90
        0
176
     1
 40
0.6
176
     1
 40
30.0
176
     1
 62
     7
420
 16777215
176
     1
 90
        1
176
     1
 90
        4
176
     1
 62
     7
176
     1
 62
   257
176
     1
 90
        7
176
     1
 90
        7
176
     1
 40
1.0
176
     1
 90
        8
176
     1
 62
     7
176
     1
 40
1.0
176
     1
 90
        1
176
     1
 90
        6
176
     1
 90
        2
176
     1
 62
     7
176
     1
 90
        5
176
     1
 90
        0
176
     1
 90
        0
176
     1
290
     0
176
     1
 90
        1
176
     1
 40
0.0
176
     1
 90
        0
176
     1
290
     0
176
     1
290
     1
176
     1
290
     1
176
     1
290
     0
176
     1
290
     0
176
     1
290
     0
176
     1
290
     0
176
     1
290
     0
176
     1
290
     0
176
     1
 90
       50
176
     1
 40
0.0
176
     1
 40
1.0
176
     1
 90
        0
176
     1
 62
    18
420
        0
176
     1
 90
       50
176
     1
 90
        3
176
     1
 62
     5
420
      255
176
     1
290
     0
176
     1
 90
       50
176
     1
 90
       50
176
     1
 90
       50
176
     1
290
     0
176
     1
 90
       50
176
     1
 62
   256
176
     0
 40
1.0
176
     0
 90
        2
176
     1
  1
strokes_ogs.tif
176
     1
290
     0
176
     1
 40
1.0
176
     1
 40
1.0
176
     1
1001
ACAD
1000
AcDbSavedByObjectVersion
1070
     0
  0
VISUALSTYLE
  5
40
102
{ACAD_REACTORS
330
29
102
}
330
29
100
AcDbVisualStyle
  2
OverhangOff
 70
    21
177
     3
291
     1
 70
    58
 90
        2
176
     0
 90
        2
176
     0
 90
        0
176
     0
 90
        0
176
     0
 40
0.6
176
     0
 40
30.0
176
     0
 62
     7
420
 16777215
176
     0
 90
        1
176
     0
 90
        4
176
     0
 62
     7
176
     0
 62
   257
176
     0
 90
        1
176
     0
 90
        1
176
     0
 40
1.0
176
     0
 90
        9
176
     2
 62
     7
176
     0
 40
1.0
176
     0
 90
        1
176
     0
 90
        6
176
     0
 90
        2
176
     0
 62
     7
176
     0
 90
        5
176
     0
 90
        0
176
     0
 90
        0
176
     0
290
     0
176
     0
 90
        1
176
     0
 40
0.0
176
     0
 90
        0
176
     0
290
     0
176
     0
290
     1
176
     0
290
     1
176
     0
290
     0
176
     0
290
     0
176
     0
290
     0
176
     0
290
     0
176
     0
290
     0
176
     0
290
     0
176
     0
 90
       50
176
     0
 40
0.0
176
     0
 40
1.0
176
     0
 90
        0
176
     0
 62
    18
420
        0
176
     0
 90
       50
176
     0
 90
        3
176
     0
 62
     5
420
      255
176
     0
290
     0
176
     0
 90
       50
176
     0
 90
       50
176
     0
 90
       50
176
     0
290
     0
176
     0
 90
       50
176
     0
 62
   256
176
     0
 40
1.0
176
     0
 90
        2
176
     0
  1
strokes_ogs.tif
176
     0
290
     0
176
     0
 40
1.0
176
     0
 40
1.0
176
     0
1001
ACAD
1000
AcDbSavedByObjectVersion
1070
     0
  0
VISUALSTYLE
  5
33
102
{ACAD_REACTORS
330
29
102
}
330
29
100
AcDbVisualStyle
  2
Realistic
 70
     8
177
     3
291
     0
 70
    58
 90
        2
176
     1
 90
        3
176
     1
 90
        0
176
     1
 90
        2
176
     1
 40
0.6
176
     1
 40
30.0
176
     1
 62
     7
420
 16777215
176
     1
 90
        0
176
     1
 90
        0
176
     1
 62
     7
176
     1
 62
   257
176
     1
 90
        1
176
     1
 90
        1
176
     1
 40
1.0
176
     1
 90
        8
176
     1
 62
   257
176
     1
 40
1.0
176
     1
 90
        1
176
     1
 90
        6
176
     1
 90
        2
176
     1
 62
     7
176
     1
 90
        3
176
     1
 90
        0
176
     1
 90
        0
176
     1
290
     0
176
     1
 90
       13
176
     1
 40
0.0
176
     1
 90
        0
176
     1
290
     0
176
     1
290
     1
176
     1
290
     1
176
     1
290
     0
176
     1
290
     0
176
     1
290
     0
176
     1
290
     0
176
     1
290
     0
176
     1
290
     0
176
     1
 90
       50
176
     1
 40
0.0
176
     1
 40
1.0
176
     1
 90
        0
176
     1
 62
    18
420
        0
176
     1
 90
       50
176
     1
 90
        3
176
     1
 62
     5
420
      255
176
     1
290
     0
176
     1
 90
       50
176
     1
 90
       50
176
     1
 90
       50
176
     1
290
     0
176
     1
 90
       50
176
     1
 62
   256
176
     0
 40
1.0
176
     0
 90
        2
176
     1
  1
strokes_ogs.tif
176
     1
290
     0
176
     1
 40
1.0
176
     1
 40
1.0
176
     1
1001
ACAD
1000
AcDbSavedByObjectVersion
1070
     0
  0
VISUALSTYLE
  5
3E
102
{ACAD_REACTORS
330
29
102
}
330
29
100
AcDbVisualStyle
  2
Shaded
 70
    27
177
     3
291
     0
 70
    58
 90
        2
176
     1
 90
        2
176
     1
 90
        1
176
     1
 90
        2
176
     1
 40
0.6
176
     1
 40
30.0
176
     1
 62
     7
420
 16777215
176
     1
 90
        0
176
     1
 90
        4
176
     1
 62
     7
176
     1
 62
   257
176
     1
 90
        1
176
     1
 90
        1
176
     1
 40
1.0
176
     1
 90
        8
176
     1
 62
   257
176
     1
 40
1.0
176
     1
 90
        1
176
     1
 90
        6
176
     1
 90
        2
176
     1
 62
     8
420
  7895160
176
     1
 90
        3
176
     1
 90
        0
176
     1
 90
        0
176
     1
290
     0
176
     1
 90
        5
176
     1
 40
0.0
176
     1
 90
        0
176
     1
290
     0
176
     1
290
     1
176
     1
290
     1
176
     1
290
     0
176
     1
290
     0
176
     1
290
     0
176
     1
290
     0
176
     1
290
     0
176
     1
290
     0
176
     1
 90
       50
176
     1
 40
0.0
176
     1
 40
1.0
176
     1
 90
        0
176
     1
 62
    18
420
        0
176
     1
 90
       50
176
     1
 90
        3
176
     1
 62
     5
420
      255
176
     1
290
     0
176
     1
 90
       50
176
     1
 90
       50
176
     1
 90
       50
176
     1
290
     0
176
     1
 90
       50
176
     1
 62
   256
176
     0
 40
1.0
176
     0
 90
        2
176
     1
  1
strokes_ogs.tif
176
     1
290
     0
176
     1
 40
1.0
176
     1
 40
1.0
176
     1
1001
ACAD
1000
AcDbSavedByObjectVersion
1070
     0
  0
VISUALSTYLE
  5
3D
102
{ACAD_REACTORS
330
29
102
}
330
29
100
AcDbVisualStyle
  2
Shaded with edges
 70
    26
177
     3
291
     0
 70
    58
 90
        2
176
     1
 90
        2
176
     1
 90
        1
176
     1
 90
        2
176
     1
 40
0.6
176
     1
 40
30.0
176
     1
 62
     7
420
 16777215
176
     1
 90
        1
176
     1
 90
        2
176
     1
 62
     7
176
     1
 62
   257
176
     1
 90
        2
176
     1
 90
        1
176
     1
 40
1.0
176
     1
 90
        8
176
     1
 62
   257
176
     1
 40
1.0
176
     1
 90
        1
176
     1
 90
        6
176
     1
 90
        2
176
     1
 62
     7
176
     1
 90
        3
176
     1
 90
        0
176
     1
 90
        0
176
     1
290
     0
176
     1
 90
        5
176
     1
 40
0.0
176
     1
 90
        0
176
     1
290
     0
176
     1
290
     1
176
     1
290
     1
176
     1
290
     0
176
     1
290
     0
176
     1
290
     0
176
     1
290
     0
176
     1
290
     0
176
     1
290
     0
176
     1
 90
       50
176
     1
 40
0.0
176
     1
 40
1.0
176
     1
 90
        0
176
     1
 62
    18
420
        0
176
     1
 90
       50
176
     1
 90
        3
176
     1
 62
     5
420
      255
176
     1
290
     0
176
     1
 90
       50
176
     1
 90
       50
176
     1
 90
       50
176
     1
290
     0
176
     1
 90
       50
176
     1
 62
   256
176
     0
 40
1.0
176
     0
 90
        2
176
     1
  1
strokes_ogs.tif
176
     1
290
     0
176
     1
 40
1.0
176
     1
 40
1.0
176
     1
1001
ACAD
1000
AcDbSavedByObjectVersion
1070
     0
  0
VISUALSTYLE
  5
3A
102
{ACAD_REACTORS
330
29
102
}
330
29
100
AcDbVisualStyle
  2
Shades of Gray
 70
    23
177
     3
291
     0
 70
    58
 90
        2
176
     1
 90
        2
176
     1
 90
        3
176
     1
 90
        0
176
     1
 40
0.6
176
     1
 40
30.0
176
     1
 62
     7
420
 16777215
176
     1
 90
        2
176
     1
 90
        2
176
     1
 62
     7
176
     1
 62
     7
176
     1
 90
        1
176
     1
 90
        1
176
     1
 40
40.0
176
     1
 90
        8
176
     1
 62
     7
176
     1
 40
1.0
176
     1
 90
        1
176
     1
 90
        6
176
     1
 90
        2
176
     1
 62
     7
176
     1
 90
        3
176
     1
 90
        0
176
     1
 90
        0
176
     1
290
     0
176
     1
 90
        1
176
     1
 40
0.0
176
     1
 90
        0
176
     1
290
     0
176
     1
290
     1
176
     1
290
     1
176
     1
290
     0
176
     1
290
     0
176
     1
290
     0
176
     1
290
     0
176
     1
290
     0
176
     1
290
     0
176
     1
 90
       50
176
     1
 40
0.0
176
     1
 40
1.0
176
     1
 90
        0
176
     1
 62
    18
420
        0
176
     1
 90
       50
176
     1
 90
        3
176
     1
 62
     5
420
      255
176
     1
290
     0
176
     1
 90
       50
176
     1
 90
       50
176
     1
 90
       50
176
     1
290
     0
176
     1
 90
       50
176
     1
 62
   256
176
     0
 40
1.0
176
     0
 90
        2
176
     1
  1
strokes_ogs.tif
176
     1
290
     0
176
     1
 40
1.0
176
     1
 40
1.0
176
     1
1001
ACAD
1000
AcDbSavedByObjectVersion
1070
     0
  0
VISUALSTYLE
  5
3B
102
{ACAD_REACTORS
330
29
102
}
330
29
100
AcDbVisualStyle
  2
Sketchy
 70
    24
177
     3
291
     0
 70
    58
 90
        1
176
     1
 90
        2
176
     1
 90
        2
176
     1
 90
        0
176
     1
 40
0.6
176
     1
 40
30.0
176
     1
 62
     7
420
 16777215
176
     1
 90
        2
176
     1
 90
        2
176
     1
 62
     7
176
     1
 62
     7
176
     1
 90
        1
176
     1
 90
        1
176
     1
 40
40.0
176
     1
 90
       11
176
     1
 62
     7
176
     1
 40
1.0
176
     1
 90
        1
176
     1
 90
        6
176
     1
 90
        2
176
     1
 62
     7
176
     1
 90
        6
176
     1
 90
        0
176
     1
 90
        0
176
     1
290
     0
176
     1
 90
        1
176
     1
 40
0.0
176
     1
 90
        0
176
     1
290
     0
176
     1
290
     1
176
     1
290
     1
176
     1
290
     0
176
     1
290
     0
176
     1
290
     0
176
     1
290
     0
176
     1
290
     0
176
     1
290
     0
176
     1
 90
       50
176
     1
 40
0.0
176
     1
 40
1.0
176
     1
 90
        0
176
     1
 62
    18
420
        0
176
     1
 90
       50
176
     1
 90
        3
176
     1
 62
     5
420
      255
176
     1
290
     0
176
     1
 90
       50
176
     1
 90
       50
176
     1
 90
       50
176
     1
290
     0
176
     1
 90
       50
176
     1
 62
   256
176
     0
 40
1.0
176
     0
 90
        2
176
     1
  1
strokes_ogs.tif
176
     1
290
     0
176
     1
 40
1.0
176
     1
 40
1.0
176
     1
1001
ACAD
1000
AcDbSavedByObjectVersion
1070
     0
  0
VISUALSTYLE
  5
36
102
{ACAD_REACTORS
330
29
102
}
330
29
100
AcDbVisualStyle
  2
Thicken
 70
    13
177
     3
291
     1
 70
    58
 90
        2
176
     1
 90
        2
176
     1
 90
        0
176
     1
 90
        0
176
     1
 40
0.6
176
     1
 40
30.0
176
     1
 62
     7
420
 16777215
176
     1
 90
        1
176
     1
 90
        4
176
     1
 62
     7
176
     1
 62
   257
176
     1
 90
        1
176
     1
 90
        1
176
     1
 40
1.0
176
     1
 90
       12
176
     1
 62
     7
176
     1
 40
1.0
176
     1
 90
        1
176
     1
 90
        6
176
     1
 90
        2
176
     1
 62
     7
176
     1
 90
        5
176
     1
 90
        0
176
     1
 90
        0
176
     1
290
     0
176
     1
 90
        1
176
     1
 40
0.0
176
     1
 90
        0
176
     1
290
     0
176
     1
290
     1
176
     1
290
     1
176
     1
290
     0
176
     1
290
     0
176
     1
290
     0
176
     1
290
     0
176
     1
290
     0
176
     1
290
     0
176
     1
 90
       50
176
     1
 40
0.0
176
     1
 40
1.0
176
     1
 90
        0
176
     1
 62
    18
420
        0
176
     1
 90
       50
176
     1
 90
        3
176
     1
 62
     5
420
      255
176
     1
290
     0
176
     1
 90
       50
176
     1
 90
       50
176
     1
 90
       50
176
     1
290
     0
176
     1
 90
       50
176
     1
 62
   256
176
     0
 40
1.0
176
     0
 90
        2
176
     1
  1
strokes_ogs.tif
176
     1
290
     0
176
     1
 40
1.0
176
     1
 40
1.0
176
     1
1001
ACAD
1000
AcDbSavedByObjectVersion
1070
     0
  0
VISUALSTYLE
  5
30
102
{ACAD_REACTORS
330
29
102
}
330
29
100
AcDbVisualStyle
  2
Wireframe
 70
     5
177
     3
291
     0
 70
    58
 90
        0
176
     1
 90
        2
176
     1
 90
        0
176
     1
 90
        0
176
     1
 40
0.6
176
     1
 40
30.0
176
     1
 62
     7
420
 16777215
176
     1
 90
        1
176
     1
 90
        4
176
     1
 62
     7
176
     1
 62
   257
176
     1
 90
        1
176
     1
 90
        1
176
     1
 40
1.0
176
     1
 90
        0
176
     1
 62
   257
176
     1
 40
1.0
176
     1
 90
        1
176
     1
 90
        6
176
     1
 90
        2
176
     1
 62
     7
176
     1
 90
        3
176
     1
 90
        0
176
     1
 90
        0
176
     1
290
     0
176
     1
 90
        1
176
     1
 40
0.0
176
     1
 90
        0
176
     1
290
     0
176
     1
290
     1
176
     1
290
     1
176
     1
290
     0
176
     1
290
     0
176
     1
290
     0
176
     1
290
     0
176
     1
290
     0
176
     1
290
     0
176
     1
 90
       50
176
     1
 40
0.0
176
     1
 40
1.0
176
     1
 90
        0
176
     1
 62
    18
420
        0
176
     1
 90
       50
176
     1
 90
        3
176
     1
 62
     5
420
      255
176
     1
290
     0
176
     1
 90
       50
176
     1
 90
       50
176
     1
 90
       50
176
     1
290
     0
176
     1
 90
       50
176
     1
 62
   256
176
     0
 40
1.0
176
     0
 90
        2
176
     1
  1
strokes_ogs.tif
176
     1
290
     0
176
     1
 40
1.0
176
     1
 40
1.0
176
     1
1001
ACAD
1000
AcDbSavedByObjectVersion
1070
     0
  0
VISUALSTYLE
  5
3C
102
{ACAD_REACTORS
330
29
102
}
330
29
100
AcDbVisualStyle
  2
X-Ray
 70
    25
177
     3
291
     0
 70
    58
 90
        2
176
     1
 90
        2
176
     1
 90
        1
176
     1
 90
        1
176
     1
 40
0.5
176
     1
 40
30.0
176
     1
 62
     7
420
 16777215
176
     1
 90
        1
176
     1
 90
        0
176
     1
 62
     7
176
     1
 62
   257
176
     1
 90
        1
176
     1
 90
        1
176
     1
 40
1.0
176
     1
 90
        8
176
     1
 62
     7
176
     1
 40
1.0
176
     1
 90
        1
176
     1
 90
        6
176
     1
 90
        2
176
     1
 62
     7
176
     1
 90
        3
176
     1
 90
        0
176
     1
 90
        0
176
     1
290
     0
176
     1
 90
       13
176
     1
 40
0.0
176
     1
 90
        0
176
     1
290
     0
176
     1
290
     1
176
     1
290
     1
176
     1
290
     0
176
     1
290
     0
176
     1
290
     0
176
     1
290
     0
176
     1
290
     0
176
     1
290
     0
176
     1
 90
       50
176
     1
 40
0.0
176
     1
 40
1.0
176
     1
 90
        0
176
     1
 62
    18
420
        0
176
     1
 90
       50
176
     1
 90
        3
176
     1
 62
     5
420
      255
176
     1
290
     0
176
     1
 90
       50
176
     1
 90
       50
176
     1
 90
       50
176
     1
290
     0
176
     1
 90
       50
176
     1
 62
   256
176
     0
 40
1.0
176
     0
 90
        2
176
     1
  1
strokes_ogs.tif
176
     1
290
     0
176
     1
 40
1.0
176
     1
 40
1.0
176
     1
1001
ACAD
1000
AcDbSavedByObjectVersion
1070
     0
  0
DICTIONARYVAR
  5
482
102
{ACAD_REACTORS
330
47D
102
}
330
47D
100
DictionaryVariables
280
     0
  1
0
  0
DICTIONARYVAR
  5
483
102
{ACAD_REACTORS
330
47D
102
}
330
47D
100
DictionaryVariables
280
     0
  1
1:1
  0
DICTIONARYVAR
  5
47F
102
{ACAD_REACTORS
330
47D
102
}
330
47D
100
DictionaryVariables
280
     0
  1
STANDARD
  0
DICTIONARYVAR
  5
47E
102
{ACAD_REACTORS
330
47D
102
}
330
47D
100
DictionaryVariables
280
     0
  1
STANDARD
  0
DICTIONARYVAR
  5
480
102
{ACAD_REACTORS
330
47D
102
}
330
47D
100
DictionaryVariables
280
     0
  1
Imperial24
  0
DICTIONARYVAR
  5
481
102
{ACAD_REACTORS
330
47D
102
}
330
47D
100
DictionaryVariables
280
     0
  1
Imperial24
  0
DICTIONARY
  5
489
330
6B
100
AcDbDictionary
280
     1
281
     1
  3
ACAD_XREC_ROUNDTRIP
360
48A
  0
DICTIONARY
  5
1A
330
19
100
AcDbDictionary
280
     1
281
     1
  3
BUMPTILE
360
1C
  3
DIFFUSETILE
360
1B
  3
OPACITYTILE
360
1F
  3
REFLECTIONTILE
360
1E
  3
REFRACTIONTILE
360
20
  3
SPECULARTILE
360
1D
  0
DICTIONARY
  5
12
330
11
100
AcDbDictionary
280
     1
281
     1
  3
BUMPTILE
360
14
  3
DIFFUSETILE
360
13
  3
OPACITYTILE
360
17
  3
REFLECTIONTILE
360
16
  3
REFRACTIONTILE
360
18
  3
SPECULARTILE
360
15
  0
DICTIONARY
  5
22
330
21
100
AcDbDictionary
280
     1
281
     1
  3
BUMPTILE
360
24
  3
DIFFUSETILE
360
23
  3
OPACITYTILE
360
27
  3
REFLECTIONTILE
360
26
  3
REFRACTIONTILE
360
28
  3
SPECULARTILE
360
25
  0
DICTIONARY
  5
487
330
69
100
AcDbDictionary
280
     1
281
     1
  3
ACAD_XREC_ROUNDTRIP
360
488
  0
DICTIONARY
  5
484
330
65
100
AcDbDictionary
280
     1
281
     1
  3
ACAD_ROUNDTRIP_2008_TABLESTYLE_CELLSTYLEMAP
360
485
  0
XRECORD
  5
48A
102
{ACAD_REACTORS
330
489
102
}
330
489
100
AcDbXrecord
280
     1
102
DISPLAYNAME
  1
Imperial24
102
FLAGS
 90
        0
  0
XRECORD
  5
1C
102
{ACAD_REACTORS
330
1A
102
}
330
1A
100
AcDbXrecord
280
     1
270
     1
271
     1
  0
XRECORD
  5
1B
102
{ACAD_REACTORS
330
1A
102
}
330
1A
100
AcDbXrecord
280
     1
270
     1
271
     1
  0
XRECORD
  5
1F
102
{ACAD_REACTORS
330
1A
102
}
330
1A
100
AcDbXrecord
280
     1
270
     1
271
     1
  0
XRECORD
  5
1E
102
{ACAD_REACTORS
330
1A
102
}
330
1A
100
AcDbXrecord
280
     1
270
     1
271
     1
  0
XRECORD
  5
20
102
{ACAD_REACTORS
330
1A
102
}
330
1A
100
AcDbXrecord
280
     1
270
     1
271
     1
  0
XRECORD
  5
1D
102
{ACAD_REACTORS
330
1A
102
}
330
1A
100
AcDbXrecord
280
     1
270
     1
271
     1
  0
XRECORD
  5
14
102
{ACAD_REACTORS
330
12
102
}
330
12
100
AcDbXrecord
280
     1
270
     1
271
     1
  0
XRECORD
  5
13
102
{ACAD_REACTORS
330
12
102
}
330
12
100
AcDbXrecord
280
     1
270
     1
271
     1
  0
XRECORD
  5
17
102
{ACAD_REACTORS
330
12
102
}
330
12
100
AcDbXrecord
280
     1
270
     1
271
     1
  0
XRECORD
  5
16
102
{ACAD_REACTORS
330
12
102
}
330
12
100
AcDbXrecord
280
     1
270
     1
271
     1
  0
XRECORD
  5
18
102
{ACAD_REACTORS
330
12
102
}
330
12
100
AcDbXrecord
280
     1
270
     1
271
     1
  0
XRECORD
  5
15
102
{ACAD_REACTORS
330
12
102
}
330
12
100
AcDbXrecord
280
     1
270
     1
271
     1
  0
XRECORD
  5
24
102
{ACAD_REACTORS
330
22
102
}
330
22
100
AcDbXrecord
280
     1
270
     1
271
     1
  0
XRECORD
  5
23
102
{ACAD_REACTORS
330
22
102
}
330
22
100
AcDbXrecord
280
     1
270
     1
271
     1
  0
XRECORD
  5
27
102
{ACAD_REACTORS
330
22
102
}
330
22
100
AcDbXrecord
280
     1
270
     1
271
     1
  0
XRECORD
  5
26
102
{ACAD_REACTORS
330
22
102
}
330
22
100
AcDbXrecord
280
     1
270
     1
271
     1
  0
XRECORD
  5
28
102
{ACAD_REACTORS
330
22
102
}
330
22
100
AcDbXrecord
280
     1
270
     1
271
     1
  0
XRECORD
  5
25
102
{ACAD_REACTORS
330
22
102
}
330
22
100
AcDbXrecord
280
     1
270
     1
271
     1
  0
XRECORD
  5
488
102
{ACAD_REACTORS
330
487
102
}
330
487
100
AcDbXrecord
280
     1
102
DISPLAYNAME
  1
Imperial24
102
FLAGS
 90
        0
  0
CELLSTYLEMAP
  5
485
102
{ACAD_REACTORS
330
484
102
}
330
484
100
AcDbCellStyleMap
 90
        3
300
CELLSTYLE
  1
TABLEFORMAT_BEGIN
 90
        5
170
     1
 91
        0
 92
    32768
 62
   257
 93
        1
300
CONTENTFORMAT
  1
CONTENTFORMAT_BEGIN
 90
        0
 91
        0
 92
      512
 93
        0
300

 40
0.0
140
1.0
 94
        5
 62
     0
340
55
144
0.25
309
CONTENTFORMAT_END
171
     0
 94
        0
309
TABLEFORMAT_END
  1
CELLSTYLE_BEGIN
 90
        1
 91
        1
300
_TITLE
309
CELLSTYLE_END
300
CELLSTYLE
  1
TABLEFORMAT_BEGIN
 90
        5
170
     1
 91
        0
 92
        0
 62
   257
 93
        1
300
CONTENTFORMAT
  1
CONTENTFORMAT_BEGIN
 90
        0
 91
        0
 92
      512
 93
        0
300

 40
0.0
140
1.0
 94
        5
 62
     0
340
55
144
0.18
309
CONTENTFORMAT_END
171
     0
 94
        0
309
TABLEFORMAT_END
  1
CELLSTYLE_BEGIN
 90
        2
 91
        1
300
_HEADER
309
CELLSTYLE_END
300
CELLSTYLE
  1
TABLEFORMAT_BEGIN
 90
        5
170
     1
 91
        0
 92
        0
 62
   257
 93
        1
300
CONTENTFORMAT
  1
CONTENTFORMAT_BEGIN
 90
        0
 91
        0
 92
      512
 93
        0
300

 40
0.0
140
1.0
 94
        2
 62
     0
340
55
144
0.18
309
CONTENTFORMAT_END
171
     0
 94
        0
309
TABLEFORMAT_END
  1
CELLSTYLE_BEGIN
 90
        3
 91
        2
300
_DATA
309
CELLSTYLE_END
  0
ENDSEC
  0
EOF
