  0
SECTION
  2
HEADER
  9
$ACADVER
  1
AC1009
  9
$INSBASE
 10
0.0
 20
0.0
 30
0.0
  9
$EXTMIN
 10
0.0
 20
0.0
 30
0.0
  9
$EXTMAX
 10
0.0
 20
0.0
 30
0.0
  0
ENDSEC
  0
SECTION
  2
TABLES
  0
TABLE
  2
VPORT
 70
1
  0
VPORT
  2
*ACTIVE
 70
0
 10
0.0
 20
0.0
 11
1.0
 21
1.0
 12
-5.0
 22
1.0
 13
0.0
 23
0.0
 14
0.1
 24
0.1
 15
0.1
 25
0.1
 16
0.0
 26
0.0
 36
1.0
 17
0.0
 27
0.0
 37
0.0
 40
10.0
 41
1.0
 42
50.0
 43
0.0
 44
0.0
 50
0.0
 51
0.0
 71
0
 72
100
 73
1
 74
1
 75
0
 76
0
 77
0
 78
0
  0
ENDTAB
  0
TABLE
  2
LTYPE
 70
8
  0
LTYPE
  2
CONTINUOUS
 70
0
  3
Solid line
 72
65
 73
0
 40
0.0
  0
LTYPE
  2
DOT
 70
0
  3
. . . . . . .
 72
65
 73
2
 40
0.25
 49
0.0
 49
-0.25
  0
LTYPE
  2
DASHED
 70
0
  3
__ __ __ __ __
 72
65
 73
2
 40
0.8
 49
0.5
 49
-0.3
  0
LTYPE
  2
DASHDOT
 70
0
  3
__ . __ . __ .
 72
65
 73
4
 40
1.0
 49
0.5
 49
-0.25
 49
0.0
 49
-0.25
  0
LTYPE
  2
DIVIDE
 70
0
  3
____ . . ____ . . 
 72
65
 73
6
 40
1.25
 49
0.5
 49
-0.25
 49
0.0
 49
-0.25
 49
0.0
 49
-0.25
  0
LTYPE
  2
BORDER
 70
0
  3
__ __ . __ __ . 
 72
65
 73
6
 40
1.75
 49
0.5
 49
-0.25
 49
0.5
 49
-0.25
 49
0.0
 49
-0.25
  0
LTYPE
  2
HIDDEN
 70
0
  3
__ __ __ __ __
 72
65
 73
2
 40
0.4
 49
0.25
 49
-0.25
  0
LTYPE
  2
CENTER
 70
0
  3
____ _ ____ _ __
 72
65
 73
4
 40
2.0
 49
1.25
 49
-0.25
 49
0.25
 49
-0.25
  0
ENDTAB
  0
TABLE
  2
LAYER
 70
1
  0
LAYER
  2
PYDXF
 70
64
 62
7
  6
continuous
  0
ENDTAB
  0
TABLE
  2
STYLE
 70
1
  0
STYLE
  2
STANDARD
 70
0
 40
0
 41
1.0
 50
0.0
 71
0
 42
1
 3
ARIAL.TTF
 4

  0
ENDTAB
  0
TABLE
  2
VIEW
 70
1
  0
VIEW
  2
BF_TOPVIEW
 70
0
 40
120.0
 10
0.0
 20
0.0
 41
200.0
 11
0.0
 21
0.0
 31
1.0
 12
0.0
 22
0.0
 32
0.0
 42
50.0
 43
0.0
 44
0.0
 50
0.0
 71
0
  0
ENDTAB
  0
ENDSEC
  0
SECTION
  2
BLOCKS
  0
ENDSEC
  0
SECTION
  2
ENTITIES
  0
LINE
  8
0
 10
0.0
 20
15.0
 30
-1.0099966526031494
 11
5.7402520179748535
 21
13.858192443847656
 31
-1.0099966526031494
  0
LINE
  8
0
 10
2.347226142883301
 20
1.9796605110168457
 30
-1.0099966526031494
 11
2.3873836994171143
 21
2.0126168727874756
 31
-1.0099966526031494
  0
LINE
  8
0
 10
2.4599084854125977
 20
-2.251699209213257
 30
-1.0099966526031494
 11
2.4448280334472656
 21
-2.3014109134674072
 31
-1.0099966526031494
  0
LINE
  8
0
 10
0.0
 20
15.0
 30
-1.0099966526031494
 11
-5.740251541137695
 21
13.858193397521973
 31
-1.0099966526031494
  0
LINE
  8
0
 10
2.251699209213257
 20
2.4599080085754395
 30
-1.0099966526031494
 11
2.200000047683716
 21
2.4649999141693115
 31
-1.0099966526031494
  0
LINE
  8
0
 10
2.347226142883301
 20
-1.9796607494354248
 30
-1.0099966526031494
 11
2.3873836994171143
 21
-2.0126168727874756
 31
-1.0099966526031494
  0
LINE
  8
0
 10
1.940091609954834
 20
2.2516987323760986
 30
-1.0099966526031494
 11
1.9350001811981201
 21
2.200000047683716
 31
-1.0099966526031494
  0
LINE
  8
0
 10
-2.4448280334472656
 20
-2.0985891819000244
 30
-1.0099966526031494
 11
-2.420339345932007
 21
-2.0527737140655518
 31
-1.0099966526031494
  0
LINE
  8
0
 10
2.0126168727874756
 20
2.0126166343688965
 30
-1.0099966526031494
 11
2.0527737140655518
 21
1.9796605110168457
 31
-1.0099966526031494
  0
LINE
  8
0
 10
-2.098588705062866
 20
-1.9551717042922974
 30
-1.0099966526031494
 11
-2.052773952484131
 21
-1.9796607494354248
 31
-1.0099966526031494
  0
LINE
  8
0
 10
-2.4448280334472656
 20
-2.0985891819000244
 30
-1.0099966526031494
 11
-2.4599080085754395
 21
-2.148300886154175
 31
-1.0099966526031494
  0
LINE
  8
0
 10
-2.052773952484131
 20
-2.420339584350586
 30
-1.0099966526031494
 11
-2.098588705062866
 21
-2.4448280334472656
 31
-1.0099966526031494
  0
LINE
  8
0
 10
-2.098588705062866
 20
-1.9551717042922974
 30
-1.0099966526031494
 11
-2.148301124572754
 21
-1.940091609954834
 31
-1.0099966526031494
  0
LINE
  8
0
 10
-2.2516987323760986
 20
-2.4599084854125977
 30
-1.0099966526031494
 11
-2.3014111518859863
 21
-2.4448280334472656
 31
-1.0099966526031494
  0
LINE
  8
0
 10
-2.2516987323760986
 20
-2.4599084854125977
 30
-1.0099966526031494
 11
-2.200000047683716
 21
-2.4649996757507324
 31
-1.0099966526031494
  0
LINE
  8
0
 10
2.0126168727874756
 20
2.0126166343688965
 30
-1.0099966526031494
 11
1.9796607494354248
 21
2.052773952484131
 31
-1.0099966526031494
  0
LINE
  8
0
 10
-1.3113416343912832e-06
 20
-15.0
 30
-1.0099966526031494
 11
-5.740251541137695
 21
-13.858192443847656
 31
-1.0099966526031494
  0
LINE
  8
0
 10
-2.052773952484131
 20
-2.420339584350586
 30
-1.0099966526031494
 11
-2.0126168727874756
 21
-2.3873836994171143
 31
-1.0099966526031494
  0
LINE
  8
0
 10
2.200000047683716
 20
2.4649999141693115
 30
-1.0099966526031494
 11
2.148301362991333
 21
2.4599080085754395
 31
-1.0099966526031494
  0
LINE
  8
0
 10
2.4448280334472656
 20
-2.0985891819000244
 30
-1.0099966526031494
 11
2.4599084854125977
 21
-2.148300886154175
 31
-1.0099966526031494
  0
LINE
  8
0
 10
1.9350001811981201
 20
2.200000047683716
 30
-1.0099966526031494
 11
1.940091609954834
 21
2.148301124572754
 31
-1.0099966526031494
  0
LINE
  8
0
 10
2.0527737140655518
 20
1.9796605110168457
 30
-1.0099966526031494
 11
2.0985891819000244
 21
1.9551719427108765
 31
-1.0099966526031494
  0
LINE
  8
0
 10
-2.3014111518859863
 20
-2.4448280334472656
 30
-1.0099966526031494
 11
-2.3472259044647217
 21
-2.420339584350586
 31
-1.0099966526031494
  0
LINE
  8
0
 10
2.4649996757507324
 20
2.200000047683716
 30
-1.0099966526031494
 11
2.4599084854125977
 21
2.2516987323760986
 31
-1.0099966526031494
  0
LINE
  8
0
 10
-2.2516987323760986
 20
2.4599080085754395
 30
-1.0099966526031494
 11
-2.200000047683716
 21
2.4649996757507324
 31
-1.0099966526031494
  0
LINE
  8
0
 10
-1.9350001811981201
 20
2.200000047683716
 30
-1.0099966526031494
 11
-1.940091609954834
 21
2.2516987323760986
 31
-1.0099966526031494
  0
LINE
  8
0
 10
-1.9350001811981201
 20
2.200000047683716
 30
-1.0099966526031494
 11
-1.940091609954834
 21
2.148301124572754
 31
-1.0099966526031494
  0
LINE
  8
0
 10
-2.4599080085754395
 20
-2.148300886154175
 30
-1.0099966526031494
 11
-2.4649999141693115
 21
-2.200000047683716
 31
-1.0099966526031494
  0
LINE
  8
0
 10
2.4649996757507324
 20
2.200000047683716
 30
-1.0099966526031494
 11
2.4599084854125977
 21
2.148301124572754
 31
-1.0099966526031494
  0
LINE
  8
0
 10
2.4448280334472656
 20
2.098588705062866
 30
-1.0099966526031494
 11
2.420339584350586
 21
2.052773952484131
 31
-1.0099966526031494
  0
LINE
  8
0
 10
-2.4203391075134277
 20
-2.347226142883301
 30
-1.0099966526031494
 11
-2.4448280334472656
 21
-2.3014109134674072
 31
-1.0099966526031494
  0
LINE
  8
0
 10
5.7402520179748535
 20
13.858192443847656
 30
-1.0099966526031494
 11
10.60660171508789
 21
10.60660171508789
 31
-1.0099966526031494
  0
LINE
  8
0
 10
-5.740251541137695
 20
-13.858192443847656
 30
-1.0099966526031494
 11
-10.606600761413574
 21
-10.606602668762207
 31
-1.0099966526031494
  0
LINE
  8
0
 10
2.4599084854125977
 20
2.2516987323760986
 30
-1.0099966526031494
 11
2.4448280334472656
 21
2.3014111518859863
 31
-1.0099966526031494
  0
LINE
  8
0
 10
2.420339584350586
 20
-2.347226142883301
 30
-1.0099966526031494
 11
2.4448280334472656
 21
-2.3014109134674072
 31
-1.0099966526031494
  0
LINE
  8
0
 10
-2.200000047683716
 20
2.4649996757507324
 30
-1.0099966526031494
 11
-2.148301124572754
 21
2.4599080085754395
 31
-1.0099966526031494
  0
LINE
  8
0
 10
-2.420339345932007
 20
-2.0527737140655518
 30
-1.0099966526031494
 11
-2.387383222579956
 21
-2.0126168727874756
 31
-1.0099966526031494
  0
LINE
  8
0
 10
-2.052773952484131
 20
-1.9796607494354248
 30
-1.0099966526031494
 11
-2.0126168727874756
 21
-2.0126168727874756
 31
-1.0099966526031494
  0
LINE
  8
0
 10
-2.098588705062866
 20
-2.4448280334472656
 30
-1.0099966526031494
 11
-2.148301124572754
 21
-2.4599084854125977
 31
-1.0099966526031494
  0
LINE
  8
0
 10
2.4448280334472656
 20
2.3014111518859863
 30
-1.0099966526031494
 11
2.420339584350586
 21
2.3472259044647217
 31
-1.0099966526031494
  0
LINE
  8
0
 10
2.148301362991333
 20
2.4599080085754395
 30
-1.0099966526031494
 11
2.0985891819000244
 21
2.4448280334472656
 31
-1.0099966526031494
  0
LINE
  8
0
 10
2.251699209213257
 20
-1.940091609954834
 30
-1.0099966526031494
 11
2.200000047683716
 21
-1.9350001811981201
 31
-1.0099966526031494
  0
LINE
  8
0
 10
-2.387383222579956
 20
-2.0126168727874756
 30
-1.0099966526031494
 11
-2.3472259044647217
 21
-1.9796607494354248
 31
-1.0099966526031494
  0
LINE
  8
0
 10
2.347226142883301
 20
-2.420339584350586
 30
-1.0099966526031494
 11
2.3873836994171143
 21
-2.3873836994171143
 31
-1.0099966526031494
  0
LINE
  8
0
 10
2.251699209213257
 20
-1.940091609954834
 30
-1.0099966526031494
 11
2.3014109134674072
 21
-1.9551717042922974
 31
-1.0099966526031494
  0
LINE
  8
0
 10
-2.200000047683716
 20
1.9350001811981201
 30
-1.0099966526031494
 11
-2.2516987323760986
 21
1.940091848373413
 31
-1.0099966526031494
  0
LINE
  8
0
 10
-2.4599080085754395
 20
-2.251699209213257
 30
-1.0099966526031494
 11
-2.4649999141693115
 21
-2.200000047683716
 31
-1.0099966526031494
  0
LINE
  8
0
 10
-2.200000047683716
 20
1.9350001811981201
 30
-1.0099966526031494
 11
-2.148301124572754
 21
1.940091848373413
 31
-1.0099966526031494
  0
LINE
  8
0
 10
2.347226142883301
 20
-2.420339584350586
 30
-1.0099966526031494
 11
2.3014109134674072
 21
-2.4448280334472656
 31
-1.0099966526031494
  0
LINE
  8
0
 10
2.4599084854125977
 20
-2.251699209213257
 30
-1.0099966526031494
 11
2.4649996757507324
 21
-2.200000047683716
 31
-1.0099966526031494
  0
LINE
  8
0
 10
-2.200000047683716
 20
-2.4649996757507324
 30
-1.0099966526031494
 11
-2.148301124572754
 21
-2.4599084854125977
 31
-1.0099966526031494
  0
LINE
  8
0
 10
10.60660171508789
 20
10.60660171508789
 30
-1.0099966526031494
 11
13.858192443847656
 21
5.740251541137695
 31
-1.0099966526031494
  0
LINE
  8
0
 10
2.420339584350586
 20
-2.0527737140655518
 30
-1.0099966526031494
 11
2.4448280334472656
 21
-2.0985891819000244
 31
-1.0099966526031494
  0
LINE
  8
0
 10
-10.606600761413574
 20
-10.606602668762207
 30
-1.0099966526031494
 11
-13.858192443847656
 21
-5.740253448486328
 31
-1.0099966526031494
  0
LINE
  8
0
 10
-2.4599080085754395
 20
2.2516987323760986
 30
-1.0099966526031494
 11
-2.4649999141693115
 21
2.200000047683716
 31
-1.0099966526031494
  0
LINE
  8
0
 10
-2.4599080085754395
 20
2.2516987323760986
 30
-1.0099966526031494
 11
-2.4448280334472656
 21
2.3014111518859863
 31
-1.0099966526031494
  0
LINE
  8
0
 10
-2.148301124572754
 20
2.4599080085754395
 30
-1.0099966526031494
 11
-2.098588705062866
 21
2.4448280334472656
 31
-1.0099966526031494
  0
LINE
  8
0
 10
1.9796607494354248
 20
-2.347226142883301
 30
-1.0099966526031494
 11
1.9551717042922974
 21
-2.3014109134674072
 31
-1.0099966526031494
  0
LINE
  8
0
 10
-1.9796605110168457
 20
-2.347226142883301
 30
-1.0099966526031494
 11
-2.0126168727874756
 21
-2.3873836994171143
 31
-1.0099966526031494
  0
LINE
  8
0
 10
1.9350001811981201
 20
-2.200000047683716
 30
-1.0099966526031494
 11
1.940091609954834
 21
-2.148300886154175
 31
-1.0099966526031494
  0
LINE
  8
0
 10
2.200000047683716
 20
-1.9350001811981201
 30
-1.0099966526031494
 11
2.148301362991333
 21
-1.940091609954834
 31
-1.0099966526031494
  0
LINE
  8
0
 10
2.4649996757507324
 20
-2.200000047683716
 30
-1.0099966526031494
 11
2.4599084854125977
 21
-2.148300886154175
 31
-1.0099966526031494
  0
LINE
  8
0
 10
1.9350001811981201
 20
-2.200000047683716
 30
-1.0099966526031494
 11
1.940091609954834
 21
-2.251699209213257
 31
-1.0099966526031494
  0
LINE
  8
0
 10
2.0985891819000244
 20
2.4448280334472656
 30
-1.0099966526031494
 11
2.0527737140655518
 21
2.420339345932007
 31
-1.0099966526031494
  0
LINE
  8
0
 10
-2.4203391075134277
 20
-2.347226142883301
 30
-1.0099966526031494
 11
-2.387382984161377
 21
-2.3873836994171143
 31
-1.0099966526031494
  0
LINE
  8
0
 10
-1.9796605110168457
 20
-2.0527737140655518
 30
-1.0099966526031494
 11
-1.9551719427108765
 21
-2.0985891819000244
 31
-1.0099966526031494
  0
LINE
  8
0
 10
-1.9796605110168457
 20
-2.0527737140655518
 30
-1.0099966526031494
 11
-2.0126168727874756
 21
-2.0126168727874756
 31
-1.0099966526031494
  0
LINE
  8
0
 10
-2.4649999141693115
 20
2.200000047683716
 30
-1.0099966526031494
 11
-2.4599080085754395
 21
2.148301124572754
 31
-1.0099966526031494
  0
LINE
  8
0
 10
13.858192443847656
 20
5.740251541137695
 30
-1.0099966526031494
 11
15.0
 21
-6.556708171956416e-07
 31
-1.0099966526031494
  0
LINE
  8
0
 10
-13.858192443847656
 20
-5.740253448486328
 30
-1.0099966526031494
 11
-15.0
 21
1.7887320780118898e-07
 31
-1.0099966526031494
  0
LINE
  8
0
 10
-2.4448280334472656
 20
2.3014111518859863
 30
-1.0099966526031494
 11
-2.420339345932007
 21
2.3472259044647217
 31
-1.0099966526031494
  0
LINE
  8
0
 10
-2.098588705062866
 20
2.4448280334472656
 30
-1.0099966526031494
 11
-2.052773952484131
 21
2.420339345932007
 31
-1.0099966526031494
  0
LINE
  8
0
 10
-1.940091848373413
 20
-2.251699209213257
 30
-1.0099966526031494
 11
-1.9350001811981201
 21
-2.200000047683716
 31
-1.0099966526031494
  0
LINE
  8
0
 10
1.9551717042922974
 20
2.098588705062866
 30
-1.0099966526031494
 11
1.9796607494354248
 21
2.052773952484131
 31
-1.0099966526031494
  0
LINE
  8
0
 10
-2.3472259044647217
 20
-1.9796607494354248
 30
-1.0099966526031494
 11
-2.3014111518859863
 21
-1.9551717042922974
 31
-1.0099966526031494
  0
LINE
  8
0
 10
2.3873836994171143
 20
-2.3873836994171143
 30
-1.0099966526031494
 11
2.420339584350586
 21
-2.347226142883301
 31
-1.0099966526031494
  0
LINE
  8
0
 10
2.3873836994171143
 20
-2.0126168727874756
 30
-1.0099966526031494
 11
2.420339584350586
 21
-2.0527737140655518
 31
-1.0099966526031494
  0
LINE
  8
0
 10
-1.940091609954834
 20
2.148301124572754
 30
-1.0099966526031494
 11
-1.9551719427108765
 21
2.098588705062866
 31
-1.0099966526031494
  0
LINE
  8
0
 10
2.420339584350586
 20
2.3472259044647217
 30
-1.0099966526031494
 11
2.3873836994171143
 21
2.387382984161377
 31
-1.0099966526031494
  0
LINE
  8
0
 10
2.0527737140655518
 20
2.420339345932007
 30
-1.0099966526031494
 11
2.0126168727874756
 21
2.387382984161377
 31
-1.0099966526031494
  0
LINE
  8
0
 10
-1.9551719427108765
 20
-2.3014109134674072
 30
-1.0099966526031494
 11
-1.9796605110168457
 21
-2.347226142883301
 31
-1.0099966526031494
  0
LINE
  8
0
 10
-2.2516987323760986
 20
-1.940091609954834
 30
-1.0099966526031494
 11
-2.200000047683716
 21
-1.9350001811981201
 31
-1.0099966526031494
  0
LINE
  8
0
 10
-1.9551719427108765
 20
-2.3014109134674072
 30
-1.0099966526031494
 11
-1.940091848373413
 21
-2.251699209213257
 31
-1.0099966526031494
  0
LINE
  8
0
 10
2.0527737140655518
 20
-2.420339584350586
 30
-1.0099966526031494
 11
2.0985891819000244
 21
-2.4448280334472656
 31
-1.0099966526031494
  0
LINE
  8
0
 10
1.940091609954834
 20
2.148301124572754
 30
-1.0099966526031494
 11
1.9551717042922974
 21
2.098588705062866
 31
-1.0099966526031494
  0
LINE
  8
0
 10
-2.2516987323760986
 20
-1.940091609954834
 30
-1.0099966526031494
 11
-2.3014111518859863
 21
-1.9551717042922974
 31
-1.0099966526031494
  0
LINE
  8
0
 10
-1.9350001811981201
 20
-2.200000047683716
 30
-1.0099966526031494
 11
-1.940091848373413
 21
-2.148300886154175
 31
-1.0099966526031494
  0
LINE
  8
0
 10
15.0
 20
-6.556708171956416e-07
 30
-1.0099966526031494
 11
13.858193397521973
 21
-5.740251064300537
 31
-1.0099966526031494
  0
LINE
  8
0
 10
2.0527737140655518
 20
-1.9796607494354248
 30
-1.0099966526031494
 11
2.0985891819000244
 21
-1.9551717042922974
 31
-1.0099966526031494
  0
LINE
  8
0
 10
-2.387382984161377
 20
-2.3873836994171143
 30
-1.0099966526031494
 11
-2.3472259044647217
 21
-2.420339584350586
 31
-1.0099966526031494
  0
LINE
  8
0
 10
-15.0
 20
1.7887320780118898e-07
 30
-1.0099966526031494
 11
-13.85819149017334
 21
5.740253925323486
 31
-1.0099966526031494
  0
LINE
  8
0
 10
2.0527737140655518
 20
-2.420339584350586
 30
-1.0099966526031494
 11
2.0126168727874756
 21
-2.3873836994171143
 31
-1.0099966526031494
  0
LINE
  8
0
 10
2.3873836994171143
 20
2.387382984161377
 30
-1.0099966526031494
 11
2.347226142883301
 21
2.420339345932007
 31
-1.0099966526031494
  0
LINE
  8
0
 10
-2.052773952484131
 20
2.420339345932007
 30
-1.0099966526031494
 11
-2.0126168727874756
 21
2.387382984161377
 31
-1.0099966526031494
  0
LINE
  8
0
 10
-2.420339345932007
 20
2.3472259044647217
 30
-1.0099966526031494
 11
-2.387383222579956
 21
2.387382984161377
 31
-1.0099966526031494
  0
LINE
  8
0
 10
2.0126168727874756
 20
2.387382984161377
 30
-1.0099966526031494
 11
1.9796607494354248
 21
2.3472259044647217
 31
-1.0099966526031494
  0
LINE
  8
0
 10
-2.3472259044647217
 20
1.9796605110168457
 30
-1.0099966526031494
 11
-2.387382984161377
 21
2.0126166343688965
 31
-1.0099966526031494
  0
LINE
  8
0
 10
-2.3014111518859863
 20
1.9551719427108765
 30
-1.0099966526031494
 11
-2.3472259044647217
 21
1.9796605110168457
 31
-1.0099966526031494
  0
LINE
  8
0
 10
-2.3014111518859863
 20
1.9551719427108765
 30
-1.0099966526031494
 11
-2.2516987323760986
 21
1.940091848373413
 31
-1.0099966526031494
  0
LINE
  8
0
 10
2.251699209213257
 20
1.940091848373413
 30
-1.0099966526031494
 11
2.3014109134674072
 21
1.9551719427108765
 31
-1.0099966526031494
  0
LINE
  8
0
 10
2.4599084854125977
 20
2.148301124572754
 30
-1.0099966526031494
 11
2.4448280334472656
 21
2.098588705062866
 31
-1.0099966526031494
  0
LINE
  8
0
 10
-2.387383222579956
 20
2.387382984161377
 30
-1.0099966526031494
 11
-2.3472259044647217
 21
2.420339345932007
 31
-1.0099966526031494
  0
LINE
  8
0
 10
13.858193397521973
 20
-5.740251064300537
 30
-1.0099966526031494
 11
10.60660171508789
 21
-10.60660171508789
 31
-1.0099966526031494
  0
LINE
  8
0
 10
2.251699209213257
 20
1.940091848373413
 30
-1.0099966526031494
 11
2.200000047683716
 21
1.9350001811981201
 31
-1.0099966526031494
  0
LINE
  8
0
 10
-13.85819149017334
 20
5.740253925323486
 30
-1.0099966526031494
 11
-10.606603622436523
 21
10.606600761413574
 31
-1.0099966526031494
  0
LINE
  8
0
 10
-2.0126168727874756
 20
2.387382984161377
 30
-1.0099966526031494
 11
-1.9796605110168457
 21
2.3472259044647217
 31
-1.0099966526031494
  0
LINE
  8
0
 10
2.0985891819000244
 20
-2.4448280334472656
 30
-1.0099966526031494
 11
2.148301362991333
 21
-2.4599084854125977
 31
-1.0099966526031494
  0
LINE
  8
0
 10
-2.200000047683716
 20
-1.9350001811981201
 30
-1.0099966526031494
 11
-2.148301124572754
 21
-1.940091609954834
 31
-1.0099966526031494
  0
LINE
  8
0
 10
2.3014109134674072
 20
1.9551719427108765
 30
-1.0099966526031494
 11
2.347226142883301
 21
1.9796605110168457
 31
-1.0099966526031494
  0
LINE
  8
0
 10
-1.9796605110168457
 20
2.052773952484131
 30
-1.0099966526031494
 11
-1.9551719427108765
 21
2.098588705062866
 31
-1.0099966526031494
  0
LINE
  8
0
 10
2.347226142883301
 20
2.420339345932007
 30
-1.0099966526031494
 11
2.3014109134674072
 21
2.4448280334472656
 31
-1.0099966526031494
  0
LINE
  8
0
 10
1.9796607494354248
 20
2.3472259044647217
 30
-1.0099966526031494
 11
1.9551717042922974
 21
2.3014111518859863
 31
-1.0099966526031494
  0
LINE
  8
0
 10
-2.4203391075134277
 20
2.052773952484131
 30
-1.0099966526031494
 11
-2.4448280334472656
 21
2.098588705062866
 31
-1.0099966526031494
  0
LINE
  8
0
 10
1.9796607494354248
 20
-2.0527737140655518
 30
-1.0099966526031494
 11
1.9551717042922974
 21
-2.0985891819000244
 31
-1.0099966526031494
  0
LINE
  8
0
 10
1.9796607494354248
 20
-2.0527737140655518
 30
-1.0099966526031494
 11
2.0126168727874756
 21
-2.0126168727874756
 31
-1.0099966526031494
  0
LINE
  8
0
 10
2.0126168727874756
 20
-2.0126168727874756
 30
-1.0099966526031494
 11
2.0527737140655518
 21
-1.9796607494354248
 31
-1.0099966526031494
  0
LINE
  8
0
 10
-2.0126168727874756
 20
2.0126168727874756
 30
-1.0099966526031494
 11
-2.052773952484131
 21
1.9796605110168457
 31
-1.0099966526031494
  0
LINE
  8
0
 10
-2.098588705062866
 20
1.9551719427108765
 30
-1.0099966526031494
 11
-2.148301124572754
 21
1.940091848373413
 31
-1.0099966526031494
  0
LINE
  8
0
 10
-2.4203391075134277
 20
2.052773952484131
 30
-1.0099966526031494
 11
-2.387382984161377
 21
2.0126166343688965
 31
-1.0099966526031494
  0
LINE
  8
0
 10
-2.0126168727874756
 20
2.0126168727874756
 30
-1.0099966526031494
 11
-1.9796605110168457
 21
2.052773952484131
 31
-1.0099966526031494
  0
LINE
  8
0
 10
2.0985891819000244
 20
-1.9551717042922974
 30
-1.0099966526031494
 11
2.148301362991333
 21
-1.940091609954834
 31
-1.0099966526031494
  0
LINE
  8
0
 10
10.60660171508789
 20
-10.60660171508789
 30
-1.0099966526031494
 11
5.740252494812012
 21
-13.858192443847656
 31
-1.0099966526031494
  0
LINE
  8
0
 10
2.0126168727874756
 20
-2.3873836994171143
 30
-1.0099966526031494
 11
1.9796607494354248
 21
-2.347226142883301
 31
-1.0099966526031494
  0
LINE
  8
0
 10
-10.606603622436523
 20
10.606600761413574
 30
-1.0099966526031494
 11
-5.740251541137695
 21
13.858193397521973
 31
-1.0099966526031494
  0
LINE
  8
0
 10
2.3014109134674072
 20
2.4448280334472656
 30
-1.0099966526031494
 11
2.251699209213257
 21
2.4599080085754395
 31
-1.0099966526031494
  0
LINE
  8
0
 10
-1.9796605110168457
 20
2.3472259044647217
 30
-1.0099966526031494
 11
-1.9551719427108765
 21
2.3014111518859863
 31
-1.0099966526031494
  0
LINE
  8
0
 10
1.9551717042922974
 20
-2.0985891819000244
 30
-1.0099966526031494
 11
1.940091609954834
 21
-2.148300886154175
 31
-1.0099966526031494
  0
LINE
  8
0
 10
2.148301362991333
 20
-2.4599084854125977
 30
-1.0099966526031494
 11
2.200000047683716
 21
-2.4649996757507324
 31
-1.0099966526031494
  0
LINE
  8
0
 10
-2.4599080085754395
 20
-2.251699209213257
 30
-1.0099966526031494
 11
-2.4448280334472656
 21
-2.3014109134674072
 31
-1.0099966526031494
  0
LINE
  8
0
 10
-2.3472259044647217
 20
2.420339345932007
 30
-1.0099966526031494
 11
-2.3014111518859863
 21
2.4448280334472656
 31
-1.0099966526031494
  0
LINE
  8
0
 10
1.9551717042922974
 20
2.3014111518859863
 30
-1.0099966526031494
 11
1.940091609954834
 21
2.2516987323760986
 31
-1.0099966526031494
  0
LINE
  8
0
 10
-1.9551719427108765
 20
-2.0985891819000244
 30
-1.0099966526031494
 11
-1.940091848373413
 21
-2.148300886154175
 31
-1.0099966526031494
  0
LINE
  8
0
 10
2.347226142883301
 20
-1.9796607494354248
 30
-1.0099966526031494
 11
2.3014109134674072
 21
-1.9551717042922974
 31
-1.0099966526031494
  0
LINE
  8
0
 10
2.148301362991333
 20
1.940091848373413
 30
-1.0099966526031494
 11
2.200000047683716
 21
1.9350001811981201
 31
-1.0099966526031494
  0
LINE
  8
0
 10
2.251699209213257
 20
-2.4599084854125977
 30
-1.0099966526031494
 11
2.3014109134674072
 21
-2.4448280334472656
 31
-1.0099966526031494
  0
LINE
  8
0
 10
2.0985891819000244
 20
1.9551719427108765
 30
-1.0099966526031494
 11
2.148301362991333
 21
1.940091848373413
 31
-1.0099966526031494
  0
LINE
  8
0
 10
5.740252494812012
 20
-13.858192443847656
 30
-1.0099966526031494
 11
-1.3113416343912832e-06
 21
-15.0
 31
-1.0099966526031494
  0
LINE
  8
0
 10
-2.4448280334472656
 20
2.098588705062866
 30
-1.0099966526031494
 11
-2.4599080085754395
 21
2.148301124572754
 31
-1.0099966526031494
  0
LINE
  8
0
 10
2.420339584350586
 20
2.052773952484131
 30
-1.0099966526031494
 11
2.3873836994171143
 21
2.0126168727874756
 31
-1.0099966526031494
  0
LINE
  8
0
 10
2.251699209213257
 20
-2.4599084854125977
 30
-1.0099966526031494
 11
2.200000047683716
 21
-2.4649996757507324
 31
-1.0099966526031494
  0
LINE
  8
0
 10
1.9551717042922974
 20
-2.3014109134674072
 30
-1.0099966526031494
 11
1.940091609954834
 21
-2.251699209213257
 31
-1.0099966526031494
  0
LINE
  8
0
 10
-2.3014111518859863
 20
2.4448280334472656
 30
-1.0099966526031494
 11
-2.2516987323760986
 21
2.4599080085754395
 31
-1.0099966526031494
  0
LINE
  8
0
 10
-1.9551719427108765
 20
2.3014111518859863
 30
-1.0099966526031494
 11
-1.940091609954834
 21
2.2516987323760986
 31
-1.0099966526031494
  0
LINE
  8
0
 10
-2.052773952484131
 20
1.9796605110168457
 30
-1.0099966526031494
 11
-2.098588705062866
 21
1.9551719427108765
 31
-1.0099966526031494
  0
ENDSEC
  0
EOF
