0
SECTION
2
HEADER
9
$INSUNITS
70
4
9
$ACADVER
1
AC1014
9
$HANDSEED
5
FFFF
0
ENDSEC
0
SECTION
2
TABLES
0
TABLE
2
VPORT
5
8
100
AcDbSymbolTable
0
ENDTAB
0
TABLE
2
LTYPE
5
5
100
AcDbSymbolTable
0
LTYPE
5
14
100
AcDbSymbolTableRecord
100
AcDbLinetypeTableRecord
2
BYBLOCK
70
0
0
LTYPE
5
15
100
AcDbSymbolTableRecord
100
AcDbLinetypeTableRecord
2
BYLAYER
70
0
0
ENDTAB
0
TABLE
2
LAYER
5
2
100
AcDbSymbolTable
70
2
0
LAYER
5
50
100
AcDbSymbolTableRecord
100
AcDbLayerTableRecord
2
0
70
0
6
CONTINUOUS
0
ENDTAB
0
TABLE
2
STYLE
5
3
100
AcDbSymbolTable
70
1
0
STYLE
5
11
100
AcDbSymbolTableRecord
100
AcDbTextStyleTableRecord
2
STANDARD
70
0
0
ENDTAB
0
TABLE
2
VIEW
5
6
100
AcDbSymbolTable
70
0
0
ENDTAB
0
TABLE
2
UCS
5
7
100
AcDbSymbolTable
70
0
0
ENDTAB
0
TABLE
2
APPID
5
9
100
AcDbSymbolTable
70
2
0
APPID
5
12
100
AcDbSymbolTableRecord
100
AcDbRegAppTableRecord
2
ACAD
70
0
0
ENDTAB
0
TABLE
2
DIMSTYLE
5
A
100
AcDbSymbolTable
70
1
0
ENDTAB
0
TABLE
2
BLOCK_RECORD
5
1
100
AcDbSymbolTable
70
1
0
BLOCK_RECORD
5
1F
100
AcDbSymbolTableRecord
100
AcDbBlockTableRecord
2
*MODEL_SPACE
0
BLOCK_RECORD
5
1B
100
AcDbSymbolTableRecord
100
AcDbBlockTableRecord
2
*PAPER_SPACE
0
ENDTAB
0
ENDSEC
0
SECTION
2
BLOCKS
0
BLOCK
5
20
100
AcDbEntity
100
AcDbBlockBegin
2
*MODEL_SPACE
0
ENDBLK
5
21
100
AcDbEntity
100
AcDbBlockEnd
0
BLOCK
5
1C
100
AcDbEntity
100
AcDbBlockBegin
2
*PAPER_SPACE
0
ENDBLK
5
1D
100
AcDbEntity
100
AcDbBlockEnd
0
ENDSEC
0
SECTION
2
ENTITIES
0
LWPOLYLINE
5
100
100
AcDbEntity
8
0
100
AcDbPolyline
90
4
70
1
43
0.0
10
39.333333333366561
20
-275.60436985897525
10
39.333333333366561
20
-272.40436985897526
10
45.333333333366532
20
-272.40436985897526
10
45.333333333366532
20
-275.60436985897525
0
LWPOLYLINE
5
101
100
AcDbEntity
8
0
100
AcDbPolyline
90
4
70
1
43
0.0
10
-43.333333333333442
20
-275.60436985897502
10
-43.333333333333442
20
-272.40436985897503
10
-37.333333333333471
20
-272.40436985897503
10
-37.333333333333464
20
-275.60436985897502
0
LWPOLYLINE
5
102
100
AcDbEntity
8
0
100
AcDbPolyline
90
4
70
1
43
0.0
10
39.333333333333215
20
-40.004369858982912
10
39.333333333333215
20
-36.804369858982909
10
45.333333333333186
20
-36.804369858982909
10
45.333333333333186
20
-40.004369858982912
0
LWPOLYLINE
5
103
100
AcDbEntity
8
0
100
AcDbPolyline
90
4
70
1
43
0.0
10
-43.333333333333442
20
-40.004369858983125
10
-43.333333333333442
20
-36.804369858983122
10
-37.333333333333471
20
-36.804369858983122
10
-37.333333333333464
20
-40.004369858983125
0
LWPOLYLINE
5
104
100
AcDbEntity
8
0
100
AcDbPolyline
90
20
70
1
43
0.0
10
63.000000000004412
20
-269.20436985898334
10
63.000000000000085
20
-43.204369858983327
10
49.433333333333238
20
-43.204369858982901
10
49.433333333333252
20
-26.204369858982908
10
35.233333333333263
20
-26.204369858982908
10
35.233333333333235
20
-43.204369858982901
10
-33.23333333333342
20
-43.204369858983114
10
-33.233333333333398
20
-26.204369858983121
10
-47.433333333333394
20
-26.204369858983121
10
-47.433333333333429
20
-43.204369858983114
10
-60.999999999999901
20
-43.204369858983149
10
-61.00000000000432
20
-269.20436985898237
10
-47.433333333333429
20
-269.20436985897504
10
-47.433333333333394
20
-286.20436985897504
10
-33.233333333333405
20
-286.20436985897504
10
-33.23333333333342
20
-269.20436985897504
10
35.233333333366573
20
-269.20436985897527
10
35.233333333366609
20
-286.20436985897521
10
49.433333333366605
20
-286.20436985897521
10
49.433333333366576
20
-269.20436985897527
0
LWPOLYLINE
5
105
100
AcDbEntity
8
0
100
AcDbPolyline
90
3
70
1
43
0.0
10
-14.204369858934623
20
-54.204369858977799
10
16.204369859013546
20
-54.204369858979362
42
0.20357587015894599
10
1.0000000000167297
20
-69.40873971795267
42
0.20357587015838624
0
LWPOLYLINE
5
106
100
AcDbEntity
8
0
100
AcDbPolyline
90
3
70
1
43
0.0
10
52.000000000000043
20
-54.204369858978652
10
52.000000000001123
20
-69.408739717962675
42
0.20357587015884684
10
36.795630141015764
20
-54.204369858977927
0
LWPOLYLINE
5
107
100
AcDbEntity
8
0
100
AcDbPolyline
90
3
70
1
43
0.0
10
52.000000000000867
20
-90.000000000000639
10
52.000000000002231
20
-120.40873971803617
42
0.20357587015970621
10
36.795630140982951
20
-105.20436985899502
42
0.20357587015913733
0
LWPOLYLINE
5
108
100
AcDbEntity
8
0
100
AcDbPolyline
90
3
70
1
43
0.0
10
52.000000000000867
20
-141.00000000000065
10
52.000000000002231
20
-171.40873971803614
42
0.20357587015970599
10
36.795630140982979
20
-156.20436985899502
42
0.20357587015915582
0
LWPOLYLINE
5
109
100
AcDbEntity
8
0
100
AcDbPolyline
90
3
70
1
43
0.0
10
52.000000000000867
20
-192.00000000000063
10
52.000000000002224
20
-222.40873971803612
42
0.20357587015970571
10
36.795630140982965
20
-207.20436985899505
42
0.20357587015915601
0
LWPOLYLINE
5
110
100
AcDbEntity
8
0
100
AcDbPolyline
90
3
70
1
43
0.0
10
52.000000000000014
20
-258.20436985897896
10
36.795630141016382
20
-258.20436985898402
42
0.20357587015888967
10
52.000000000005322
20
-242.99999999999494
0
LWPOLYLINE
5
111
100
AcDbEntity
8
0
100
AcDbPolyline
90
3
70
1
43
0.0
10
16.204369859013678
20
-258.20436985897913
10
-14.20436985893582
20
-258.20436985897913
42
0.20357587015838338
10
1.0000000000157439
20
-243.00000000000489
42
0.20357587015897061
0
LWPOLYLINE
5
112
100
AcDbEntity
8
0
100
AcDbPolyline
90
3
70
1
43
0.0
10
-49.999999999999986
20
-258.20436985897925
10
-49.999999999999986
20
-242.99999999999437
42
0.20357587015885575
10
-34.795630141014541
20
-258.20436985897925
0
LWPOLYLINE
5
113
100
AcDbEntity
8
0
100
AcDbPolyline
90
3
70
1
43
0.0
10
-49.999999999999993
20
-222.40873971803549
10
-49.999999999999993
20
-192
42
0.20357587015914363
10
-34.795630140982269
20
-207.20436985899454
42
0.20357587015971548
0
LWPOLYLINE
5
114
100
AcDbEntity
8
0
100
AcDbPolyline
90
3
70
1
43
0.0
10
-49.999999999999986
20
-120.40873971803549
10
-50
20
-90
42
0.20357587015913536
10
-34.795630140982261
20
-105.20436985899454
42
0.20357587015971557
0
LWPOLYLINE
5
115
100
AcDbEntity
8
0
100
AcDbPolyline
90
4
70
1
43
0.0
10
16.204369858987885
20
-156.20436985896794
42
0.20357587015974396
10
0.99999999995830091
20
-171.40873971804314
42
0.20357587015992587
10
-14.204369859061732
20
-156.20436985902157
42
0.20357587015972572
10
1.0000000000119158
20
-140.99999999999346
42
0.20357587015881828
0
LWPOLYLINE
5
116
100
AcDbEntity
8
0
100
AcDbPolyline
90
20
70
1
43
0.0
10
-23.553802754053535
20
-113.22996827346621
10
-21.88511098442881
20
-108.09426308547236
10
-13.325602337772416
20
-110.87541603484686
10
-14.994294107397783
20
-116.01112122284162
42
-0.18623644463102962
10
-7.5884654747120521
20
-126.20436985897936
10
-2.1884654747101875
20
-126.20436985897889
10
-2.1884654747101879
20
-135.20436985897891
10
-7.5884654747120504
20
-135.20436985897828
42
-0.18623644463102937
10
-14.994294107397765
20
-145.39761849511603
10
-13.325602337772525
20
-150.53332368311084
10
-21.88511098442892
20
-153.31447663248537
10
-23.553802754053493
20
-148.17877144449139
42
-0.18623644463105443
10
-35.536685196599102
20
-144.28529692126619
10
-39.905376966223059
20
-147.4593372836446
10
-45.195444236855316
20
-140.17818433427004
10
-40.826752467232268
20
-137.00414397189147
42
-0.18623644463106925
10
-40.826752467232282
20
-124.40459574606626
10
-45.195444236855266
20
-121.23055538368757
10
-39.90537696622301
20
-113.94940243431301
10
-35.536685196599166
20
-117.12344279669142
42
-0.18623644463105429
0
LWPOLYLINE
5
117
100
AcDbEntity
8
0
100
AcDbPolyline
90
20
70
1
43
0.0
10
-23.553802754054534
20
-164.2299682734662
10
-21.885110984429808
20
-159.09426308547233
10
-13.325602337773415
20
-161.87541603484689
10
-14.994294107398503
20
-167.01112122284113
42
-0.18623644463103869
10
-7.5884654747121161
20
-177.20436985897913
10
-2.1884654747111867
20
-177.20436985897888
10
-2.1884654747111858
20
-186.20436985897891
10
-7.5884654747121161
20
-186.20436985897857
42
-0.18623644463103778
10
-14.994294107398467
20
-196.39761849511649
10
-13.325602337773523
20
-201.53332368311081
10
-21.885110984429915
20
-204.31447663248537
10
-23.553802754054487
20
-199.17877144449142
42
-0.1862364446310511
10
-35.536685196599706
20
-195.28529692126571
10
-39.905376966224054
20
-198.45933728364457
10
-45.195444236856311
20
-191.17818433427001
10
-40.826752467232396
20
-188.00414397189115
42
-0.18623644463105868
10
-40.826752467232424
20
-175.4045957460666
10
-45.195444236856261
20
-172.23055538368754
10
-39.905376966224004
20
-164.94940243431301
10
-35.536685196599748
20
-168.12344279669193
42
-0.18623644463105085
0
LWPOLYLINE
5
118
100
AcDbEntity
8
0
100
AcDbPolyline
90
20
70
1
43
0.0
10
27.446197245946465
20
-113.22996827346657
10
29.11488901557119
20
-108.09426308547272
10
37.674397662227584
20
-110.87541603484725
10
36.005705892601263
20
-116.01112122284346
42
-0.18623644463101388
10
43.41153452528804
20
-126.2043698589797
10
48.811534525289808
20
-126.20436985897925
10
48.811534525289808
20
-135.20436985897928
10
43.4115345252861
20
-135.2043698589782
42
-0.18623644463105041
10
36.005705892602066
20
-145.39761849511615
10
37.674397662227477
20
-150.53332368311121
10
29.114889015571084
20
-153.31447663248574
10
27.446197245946529
20
-148.17877144449233
42
-0.18623644463108313
10
15.463314803401079
20
-144.28529692126637
10
11.09462303377695
20
-147.45933728364497
10
5.8045557631446929
20
-140.17818433427041
10
10.173247532765624
20
-137.00414397189263
42
-0.18623644463106578
10
10.173247532767583
20
-124.4045957460666
10
5.804555763144748
20
-121.23055538368794
10
11.094623033777003
20
-113.94940243431338
10
15.463314803400539
20
-117.12344279669142
42
-0.18623644463102329
0
LWPOLYLINE
5
119
100
AcDbEntity
8
0
100
AcDbPolyline
90
4
70
1
43
0.0
10
16.204369858987885
20
-105.20436985896797
42
0.20357587015974363
10
0.99999999995830535
20
-120.40873971804314
42
0.20357587015992565
10
-14.204369859061732
20
-105.20436985902158
42
0.20357587015972409
10
1.0000000000119114
20
-89.999999999993491
42
0.20357587015880096
0
LWPOLYLINE
5
120
100
AcDbEntity
8
0
100
AcDbPolyline
90
20
70
1
43
0.0
10
-23.553802754052533
20
-62.229968273466199
10
-21.885110984427811
20
-57.094263085472363
10
-13.325602337771418
20
-59.875416034846864
10
-14.994294107396941
20
-65.011121222841837
42
-0.18623644463103328
10
-7.588465474711974
20
-75.204369858979632
10
-2.1884654747091901
20
-75.204369858978879
10
-2.1884654747091896
20
-84.204369858978907
10
-7.5884654747111799
20
-84.204369858978254
42
-0.18623644463102088
10
-14.994294107397073
20
-94.397618495115609
10
-13.325602337771528
20
-99.533323683110822
10
-21.885110984427918
20
-102.31447663248537
10
-23.553802754052491
20
-97.178771444491588
42
-0.18623644463104591
10
-35.536685196598505
20
-93.285296921266706
10
-39.905376966222057
20
-96.459337283644601
10
-45.195444236854314
20
-89.178184334270028
10
-40.826752467231515
20
-86.004143971891551
42
-0.18623644463107233
10
-40.826752467232168
20
-73.404595746065951
10
-45.195444236854257
20
-70.230555383687573
10
-39.905376966222008
20
-62.949402434313022
10
-35.536685196598185
20
-66.123442796691393
42
-0.18623644463106465
0
LWPOLYLINE
5
121
100
AcDbEntity
8
0
100
AcDbPolyline
90
20
70
1
43
0.0
10
27.446197245945463
20
-164.22996827346657
10
29.114889015570185
20
-159.09426308547273
10
37.674397662226582
20
-161.87541603484726
10
36.00570589260056
20
-167.011121222843
42
-0.18623644463102282
10
43.411534525287969
20
-177.20436985897948
10
48.811534525288806
20
-177.20436985897925
10
48.811534525288806
20
-186.20436985897925
10
43.411534525286029
20
-186.20436985897842
42
-0.18623644463105937
10
36.00570589260132
20
-196.3976184951166
10
37.674397662226475
20
-201.53332368311123
10
29.114889015570078
20
-204.31447663248574
10
27.446197245945527
20
-199.17877144449238
42
-0.18623644463107947
10
15.463314803400491
20
-195.28529692126585
10
11.094623033775946
20
-198.459337283645
10
5.8045557631436893
20
-191.17818433427044
10
10.173247532765497
20
-188.00414397189229
42
-0.18623644463105488
10
10.173247532767451
20
-175.40459574606695
10
5.8045557631437443
20
-172.23055538368794
10
11.094623033775999
20
-164.94940243431336
10
15.463314803399976
20
-168.12344279669196
42
-0.18623644463102029
0
LWPOLYLINE
5
122
100
AcDbEntity
8
0
100
AcDbPolyline
90
20
70
1
43
0.0
10
27.446197245944468
20
-215.2299682734666
10
29.11488901556919
20
-210.09426308547276
10
37.674397662225587
20
-212.87541603484726
10
36.005705892599856
20
-218.01112122284255
42
-0.18623644463103134
10
43.411534525287898
20
-228.20436985897925
10
48.811534525287811
20
-228.20436985897928
10
48.811534525287811
20
-237.20436985897931
10
43.411534525285987
20
-237.20436985897868
42
-0.1862364446310682
10
36.005705892600645
20
-247.39761849511709
10
37.674397662225481
20
-252.53332368311118
10
29.114889015569084
20
-255.31447663248574
10
27.446197245944536
20
-250.17877144449244
42
-0.18623644463107658
10
15.46331480339987
20
-246.28529692126537
10
11.094623033774951
20
-249.45933728364494
10
5.8045557631426945
20
-242.17818433427038
10
10.17324753276538
20
-239.00414397189198
42
-0.186236444631045
10
10.173247532767329
20
-226.40459574606726
10
5.8045557631427496
20
-223.23055538368791
10
11.094623033775004
20
-215.94940243431338
10
15.463314803399431
20
-219.12344279669253
42
-0.18623644463101674
0
LWPOLYLINE
5
123
100
AcDbEntity
8
0
100
AcDbPolyline
90
20
70
1
43
0.0
10
27.446197245947459
20
-62.229968273466589
10
29.114889015572185
20
-57.094263085472718
10
37.674397662228579
20
-59.875416034847255
10
36.005705892603082
20
-65.011121222842149
42
-0.18623644463102548
10
43.411534525288111
20
-75.204369858979959
10
48.811534525290803
20
-75.204369858979277
10
48.811534525290803
20
-84.204369858979277
10
43.41153452528804
20
-84.204369858978438
42
-0.18623644463101868
10
36.005705892602776
20
-94.397618495115694
10
37.674397662228472
20
-99.533323683111206
10
29.114889015572079
20
-102.31447663248574
10
27.446197245947474
20
-97.178771444491417
42
-0.18623644463105213
10
15.463314803401676
20
-93.285296921266863
10
11.094623033777944
20
-96.45933728364497
10
5.8045557631456877
20
-89.178184334270412
10
10.173247532768057
20
-86.004143971892091
42
-0.18623644463107808
10
10.173247532767709
20
-73.404595746066263
10
5.8045557631457427
20
-70.230555383687943
10
11.094623033777998
20
-62.949402434313399
10
15.463314803401524
20
-66.123442796691421
42
-0.18623644463106201
0
LWPOLYLINE
5
124
100
AcDbEntity
8
0
100
AcDbPolyline
90
3
70
1
43
0.0
10
-49.999999999999986
20
-54.204369858979256
10
-34.795630141013362
20
-54.204369858977302
42
0.20357587015885739
10
-49.999999999999041
20
-69.408739717962092
0
LWPOLYLINE
5
125
100
AcDbEntity
8
0
100
AcDbPolyline
90
3
70
1
43
0.0
10
-49.999999999999986
20
-171.40873971803552
10
-49.999999999999993
20
-141
42
0.20357587015914352
10
-34.795630140982269
20
-156.20436985899454
42
0.20357587015971562
0
LWPOLYLINE
5
126
100
AcDbEntity
8
0
100
AcDbPolyline
90
4
70
1
43
0.0
10
-14.204369859061746
20
-207.20436985902157
42
0.203575870159726
10
1.0000000000119158
20
-191.99999999999346
42
0.20357587015881828
10
16.204369858987889
20
-207.20436985896794
42
0.20357587015974382
10
0.99999999995830091
20
-222.40873971804314
42
0.20357587015992562
0
LWPOLYLINE
5
127
100
AcDbEntity
8
0
100
AcDbPolyline
90
20
70
1
43
0.0
10
-21.885110984430916
20
-255.31447663248537
10
-23.553802754055493
20
-250.17877144449147
42
-0.18623644463104799
10
-35.536685196600317
20
-246.28529692126523
10
-39.905376966225049
20
-249.45933728364457
10
-45.195444236857305
20
-242.17818433427001
10
-40.826752467232538
20
-239.00414397189076
42
-0.18623644463104763
10
-40.826752467232545
20
-226.40459574606695
10
-45.195444236857256
20
-223.23055538368754
10
-39.905376966224999
20
-215.94940243431301
10
-35.536685196600345
20
-219.12344279669244
42
-0.18623644463104741
10
-23.553802754055543
20
-215.22996827346617
10
-21.88511098443081
20
-210.09426308547233
10
-13.325602337774413
20
-212.87541603484684
10
-14.994294107399195
20
-218.0111212228407
42
-0.18623644463104708
10
-7.5884654747121854
20
-228.20436985897888
10
-2.1884654747121832
20
-228.20436985897885
10
-2.1884654747121841
20
-237.20436985897891
10
-7.588465474712212
20
-237.20436985897879
42
-0.1862364446310458
10
-14.994294107399163
20
-247.39761849511694
10
-13.325602337774523
20
-252.53332368311081
0
CIRCLE
5
128
100
AcDbEntity
8
0
100
AcDbCircle
10
81.351753419985968
20
-133.59011200114088
30
0
40
1.6000000000000014
210
0
220
-0
230
1
0
CIRCLE
5
129
100
AcDbEntity
8
0
100
AcDbCircle
10
81.351753419985968
20
-233.59011200114088
30
0
40
1.6000000000000014
210
0
220
-0
230
1
0
CIRCLE
5
130
100
AcDbEntity
8
0
100
AcDbCircle
10
81.351753419985968
20
-183.59011200114088
30
0
40
1.6000000000000014
210
0
220
-0
230
1
0
LWPOLYLINE
5
131
100
AcDbEntity
8
0
100
AcDbPolyline
90
102
70
1
43
0.0
10
68.724363954189698
20
-233.94096124016497
10
66.130056025089743
20
-234.88521210486493
10
66.130056025089743
20
-235.95563904486494
10
68.724363954189698
20
-236.89988990956491
42
-0.3152986113865382
10
68.987556025089702
20
-237.27576660896491
10
68.987556025089674
20
-237.55490721086491
42
-0.31529861138638993
10
68.724363954189698
20
-237.93078391026489
10
66.130056025089743
20
-238.87503477496492
10
66.130056025089743
20
-239.94546171496492
10
68.72436395418967
20
-240.88971257966489
42
-0.31529861138646903
10
68.987556025089702
20
-241.2655892790649
10
68.987556025089674
20
-241.54472988086496
42
-0.31529861138639875
10
68.724363954189698
20
-241.92060658026492
10
66.130056025089743
20
-242.86485744496491
10
66.130056025089743
20
-243.93528438496489
10
68.724363954189698
20
-244.87953524966485
42
-0.31529861138645177
10
68.987556025089702
20
-245.25541194906486
10
68.987556025089674
20
-245.53455255096486
42
-0.31529861138638993
10
68.724363954189698
20
-245.91042925036487
10
66.130056025089743
20
-246.85468011506487
10
66.130056025089743
20
-247.92510705506487
10
68.724363954189698
20
-248.86935791976484
42
-0.31529861138645177
10
68.987556025089702
20
-249.24523461916488
10
68.987556025089688
20
-249.52437522096491
42
-0.31529861138642168
10
68.724363954189698
20
-249.90025192036487
10
66.130056025089743
20
-250.84450278506489
10
66.130056025089743
20
-251.91492972506484
10
68.724363954189698
20
-252.85918058976483
42
-0.3152986113865528
10
68.987556025089702
20
-253.23505728916484
10
68.987556025089674
20
-253.51419789106487
42
-0.31529861138637844
10
68.724363954189698
20
-253.89007459046485
10
66.130056025089743
20
-254.83432545516484
10
66.130056025089743
20
-255.90475239516485
10
68.724363954189684
20
-256.84900325986484
42
-0.31529861138646903
10
68.987556025089702
20
-257.2248799592648
10
68.987556025089674
20
-257.50402056106486
42
-0.31529861138637844
10
68.724363954189698
20
-257.87989726046482
10
66.130056025089743
20
-258.82414812516481
10
66.130056025089701
20
-259.89457506516482
10
68.724363954189684
20
-260.83882592986481
42
-0.31529861138646903
10
68.987556025089702
20
-261.21470262926482
10
68.987556025089674
20
-261.49384323116482
42
-0.31529861138637844
10
68.724363954189698
20
-261.86971993056483
10
66.130056025089701
20
-262.81397079526477
10
66.130056025089701
20
-263.88439773526477
10
68.724363954189684
20
-264.82864859996477
42
-0.31529861138644866
10
68.987556025089702
20
-265.20452529936478
10
68.987556025089688
20
-265.48366590126483
42
-0.3152986113864461
10
68.724363954189698
20
-265.85954260066478
10
66.130056025089701
20
-266.80379346536483
10
66.130056025089701
20
-267.87422040536478
10
68.724363954189684
20
-268.81847127006483
42
-0.31529861138642112
10
68.987556025089702
20
-269.19434796946479
10
68.987556025089674
20
-269.4734885712648
42
-0.31529861138652981
10
68.724363954189698
20
-269.84936527066475
10
66.130056025089701
20
-270.7936161353648
10
66.130056025089701
20
-271.86404307536475
10
68.724363954189698
20
-272.8082939400648
42
-0.31529861138647619
10
68.987556025089702
20
-273.18417063946481
10
68.987556025089674
20
-273.46331124136481
42
-0.31529861138638993
10
68.724363954189698
20
-273.83918794076476
10
66.130056025089701
20
-274.78343880546475
10
66.130056025089701
20
-275.85386574546476
10
68.724363954189684
20
-276.7981166101647
42
-0.31529861138644866
10
68.987556025089702
20
-277.17399330956476
10
68.987556025089731
20
-277.45313391136472
42
-0.31529861138645443
10
68.724363954189698
20
-277.82901061076478
10
66.130056025089701
20
-278.77326147546478
10
66.130056025089701
20
-279.84368841546473
10
68.724363954189698
20
-280.78793928016472
42
-0.31529861138656257
10
68.987556025089702
20
-281.16381597956479
10
68.987556025089702
20
-286.13767804294093
10
87.351753419985997
20
-286.13767804294093
10
87.351753419985997
20
-106.13767804294096
10
75.351753419986011
20
-106.13767804294096
10
75.351753419986039
20
-214.69808189773627
10
68.987556025089731
20
-214.69808189773633
10
68.987556025089717
20
-217.60579386056506
42
-0.31529861138641024
10
68.724363954189727
20
-217.98167055996501
10
66.130056025089743
20
-218.92592142466501
10
66.130056025089743
20
-219.99634836466498
10
68.724363954189727
20
-220.94059922936495
42
-0.31529861138639254
10
68.987556025089731
20
-221.31647592876499
10
68.987556025089702
20
-221.595616530565
42
-0.31529861138638415
10
68.724363954189712
20
-221.97149322996498
10
66.130056025089743
20
-222.915744094665
10
66.130056025089743
20
-223.98617103466501
10
68.724363954189698
20
-224.93042189936494
42
-0.31529861138645177
10
68.987556025089702
20
-225.30629859876498
10
68.987556025089717
20
-225.58543920066501
42
-0.31529861138643001
10
68.724363954189698
20
-225.96131590006502
10
66.130056025089743
20
-226.90556676476496
10
66.130056025089743
20
-227.97599370476496
10
68.724363954189698
20
-228.92024456946496
42
-0.31529861138645177
10
68.987556025089702
20
-229.29612126886497
10
68.98755602508966
20
-229.57526187066503
42
-0.31529861138641335
10
68.724363954189698
20
-229.95113857006493
10
66.130056025089743
20
-230.89538943476495
10
66.130056025089743
20
-231.96581637476496
10
68.724363954189698
20
-232.91006723946492
42
-0.3152986113865382
10
68.987556025089702
20
-233.28594393886493
10
68.987556025089688
20
-233.56508454076501
42
-0.31529861138642168
0
LWPOLYLINE
5
132
100
AcDbEntity
8
0
100
AcDbPolyline
90
4
70
1
43
0.0
10
39.333333333366554
20
-272.40436985897526
10
45.333333333366532
20
-272.40436985897526
10
45.333333333366539
20
-275.60436985897525
10
39.333333333366561
20
-275.60436985897525
0
LWPOLYLINE
5
133
100
AcDbEntity
8
0
100
AcDbPolyline
90
20
70
1
43
0.0
10
49.433333333366605
20
-286.20436985897521
10
49.433333333366591
20
-269.20436985897527
10
63.000000000004412
20
-269.20436985898334
10
63.000000000000099
20
-43.204369858983327
10
49.433333333333245
20
-43.204369858982901
10
49.433333333333266
20
-26.204369858982908
10
35.233333333333263
20
-26.204369858982908
10
35.233333333333221
20
-43.204369858982901
10
-33.23333333333342
20
-43.204369858983178
10
-33.233333333333405
20
-26.204369858983121
10
-47.433333333333387
20
-26.204369858983121
10
-47.433333333333422
20
-43.204369858983114
10
-60.999999999999886
20
-43.204369858983114
10
-61.000000000004313
20
-269.20436985898243
10
-47.433333333333422
20
-269.20436985897504
10
-47.433333333333387
20
-286.20436985897504
10
-33.233333333333405
20
-286.20436985897504
10
-33.233333333333412
20
-269.20436985898266
10
35.233333333366573
20
-269.20436985897527
10
35.233333333366602
20
-286.20436985897521
0
LWPOLYLINE
5
134
100
AcDbEntity
8
0
100
AcDbPolyline
90
4
70
1
43
0.0
10
-43.333333333333435
20
-272.40436985897503
10
-37.333333333333456
20
-272.40436985897503
10
-37.333333333333471
20
-275.60436985897502
10
-43.333333333333442
20
-275.60436985897502
0
LWPOLYLINE
5
135
100
AcDbEntity
8
0
100
AcDbPolyline
90
4
70
1
43
0.0
10
39.333333333333215
20
-40.004369858982912
10
45.333333333333186
20
-40.004369858982912
10
45.333333333333201
20
-36.804369858982909
10
39.333333333333222
20
-36.804369858982909
0
LWPOLYLINE
5
136
100
AcDbEntity
8
0
100
AcDbPolyline
90
4
70
1
43
0.0
10
-43.333333333333435
20
-40.004369858983125
10
-37.333333333333456
20
-40.004369858983125
10
-37.333333333333471
20
-36.804369858983122
10
-43.333333333333442
20
-36.804369858983122
0
LWPOLYLINE
5
137
100
AcDbEntity
8
0
100
AcDbPolyline
90
20
70
1
43
0.0
10
29.114889015572189
20
-57.094263085472704
10
27.446197245947456
20
-62.229968273466568
42
0.18623644463106107
10
15.463314803402707
20
-66.123442796692856
10
11.094623033777998
20
-62.949402434313384
10
5.804555763145741
20
-70.230555383687943
10
10.173247532770475
20
-73.404595746067329
42
0.18623644463107969
10
10.173247532770507
20
-86.004143971891139
10
5.8045557631456868
20
-89.178184334270412
10
11.094623033777944
20
-96.459337283644956
10
15.46331480340271
20
-93.285296921265569
42
0.18623644463105396
10
27.446197245947488
20
-97.178771444491872
10
29.114889015572068
20
-102.31447663248574
10
37.674397662228472
20
-99.533323683111206
10
36.005705892603793
20
-94.397618495117328
42
0.18623644463101874
10
43.411534525290818
20
-84.204369858979192
10
48.81153452529081
20
-84.204369858979277
10
48.81153452529081
20
-75.204369858979263
10
43.411534525290804
20
-75.204369858979248
42
0.18623644463102354
10
36.005705892603793
20
-65.011121222841084
10
37.674397662228579
20
-59.875416034847255
0
LWPOLYLINE
5
138
100
AcDbEntity
8
0
100
AcDbPolyline
90
20
70
1
43
0.0
10
29.11488901557119
20
-108.09426308547272
10
27.446197245946465
20
-113.22996827346657
42
0.18623644463105801
10
15.463314803401706
20
-117.12344279669287
10
11.094623033777003
20
-113.94940243431338
10
5.8045557631447489
20
-121.23055538368794
10
10.173247532769487
20
-124.40459574606733
42
0.18623644463106895
10
10.173247532769514
20
-137.00414397189112
10
5.8045557631446947
20
-140.17818433427038
10
11.094623033776951
20
-147.45933728364497
10
15.463314803401715
20
-144.28529692126557
42
0.18623644463105052
10
27.4461972459465
20
-148.17877144449187
10
29.114889015571084
20
-153.31447663248574
10
37.674397662227477
20
-150.53332368311121
10
36.005705892602798
20
-145.39761849511731
42
0.18623644463102731
10
43.411534525289824
20
-135.20436985897919
10
48.811534525289815
20
-135.20436985897928
10
48.811534525289815
20
-126.20436985897925
10
43.411534525289817
20
-126.20436985897925
42
0.18623644463103231
10
36.005705892602798
20
-116.01112122284107
10
37.674397662227584
20
-110.87541603484723
0
LWPOLYLINE
5
139
100
AcDbEntity
8
0
100
AcDbPolyline
90
20
70
1
43
0.0
10
29.114889015570181
20
-159.0942630854727
10
27.446197245945459
20
-164.22996827346657
42
0.18623644463105468
10
15.463314803400701
20
-168.12344279669287
10
11.094623033776001
20
-164.94940243431341
10
5.8045557631437426
20
-172.23055538368794
10
10.173247532768476
20
-175.40459574606732
42
0.18623644463105882
10
10.173247532768517
20
-188.00414397189115
10
5.804555763143691
20
-191.17818433427044
10
11.094623033775948
20
-198.459337283645
10
15.463314803400714
20
-195.28529692126563
42
0.18623644463104677
10
27.446197245945495
20
-199.1787714444919
10
29.114889015570075
20
-204.31447663248576
10
37.674397662226468
20
-201.53332368311118
10
36.005705892601789
20
-196.39761849511731
42
0.18623644463103545
10
43.411534525288829
20
-186.20436985897922
10
48.811534525288806
20
-186.20436985897928
10
48.811534525288806
20
-177.20436985897925
10
43.411534525288793
20
-177.20436985897925
42
0.18623644463104094
10
36.005705892601796
20
-167.0111212228411
10
37.674397662226582
20
-161.87541603484726
0
LWPOLYLINE
5
140
100
AcDbEntity
8
0
100
AcDbPolyline
90
20
70
1
43
0.0
10
29.114889015569187
20
-210.09426308547273
10
27.446197245944465
20
-215.2299682734666
42
0.18623644463105143
10
15.463314803399706
20
-219.12344279669287
10
11.094623033775004
20
-215.94940243431338
10
5.8045557631427496
20
-223.23055538368791
10
10.173247532767482
20
-226.40459574606729
42
0.18623644463104813
10
10.173247532767505
20
-239.00414397189112
10
5.8045557631426963
20
-242.17818433427038
10
11.094623033774955
20
-249.45933728364497
10
15.463314803399715
20
-246.2852969212656
42
0.18623644463104402
10
27.446197245944504
20
-250.17877144449187
10
29.114889015569084
20
-255.31447663248574
10
37.674397662225473
20
-252.53332368311121
10
36.005705892600801
20
-247.39761849511734
42
0.18623644463104394
10
43.411534525287834
20
-237.20436985897922
10
48.811534525287811
20
-237.20436985897931
10
48.811534525287811
20
-228.20436985897925
10
43.411534525287799
20
-228.20436985897925
42
0.18623644463104932
10
36.005705892600794
20
-218.01112122284107
10
37.67439766222558
20
-212.87541603484723
0
LWPOLYLINE
5
141
100
AcDbEntity
8
0
100
AcDbPolyline
90
20
70
1
43
0.0
10
-21.885110984427818
20
-57.094263085472349
10
-23.553802754052541
20
-62.229968273466191
42
0.18623644463105729
10
-35.536685196597304
20
-66.123442796692473
10
-39.905376966222008
20
-62.949402434313015
10
-45.195444236854257
20
-70.230555383687545
10
-40.826752467229525
20
-73.404595746066946
42
0.18623644463107997
10
-40.82675246722949
20
-86.00414397189077
10
-45.195444236854307
20
-89.178184334270028
10
-39.905376966222065
20
-96.459337283644572
10
-35.536685196597297
20
-93.2852969212652
42
0.18623644463105785
10
-23.553802754052505
20
-97.178771444491488
10
-21.885110984427921
20
-102.31447663248537
10
-13.325602337771524
20
-99.533323683110822
10
-14.994294107396202
20
-94.397618495116959
42
0.18623644463102085
10
-7.5884654747091727
20
-84.204369858978822
10
-2.1884654747091901
20
-84.204369858978922
10
-2.1884654747091896
20
-75.204369858978879
10
-7.588465474709194
20
-75.204369858978865
42
0.18623644463102138
10
-14.994294107396213
20
-65.011121222840686
10
-13.325602337771423
20
-59.875416034846857
0
LWPOLYLINE
5
142
100
AcDbEntity
8
0
100
AcDbPolyline
90
20
70
1
43
0.0
10
-21.885110984428813
20
-108.09426308547233
10
-23.553802754053539
20
-113.2299682734662
42
0.18623644463105429
10
-35.536685196598306
20
-117.1234427966925
10
-39.905376966223017
20
-113.94940243431304
10
-45.195444236855266
20
-121.23055538368757
10
-40.826752467230527
20
-124.40459574606695
42
0.186236444631069
10
-40.826752467230499
20
-137.00414397189076
10
-45.195444236855316
20
-140.17818433427004
10
-39.905376966223059
20
-147.4593372836446
10
-35.536685196598292
20
-144.2852969212652
42
0.18623644463105429
10
-23.553802754053507
20
-148.17877144449147
10
-21.885110984428927
20
-153.31447663248537
10
-13.325602337772523
20
-150.53332368311084
10
-14.994294107397202
20
-145.39761849511694
42
0.18623644463102962
10
-7.5884654747101701
20
-135.20436985897879
10
-2.1884654747101884
20
-135.20436985897891
10
-2.1884654747101879
20
-126.20436985897889
10
-7.5884654747101976
20
-126.20436985897889
42
0.18623644463103028
10
-14.994294107397202
20
-116.01112122284067
10
-13.325602337772416
20
-110.87541603484686
0
LWPOLYLINE
5
143
100
AcDbEntity
8
0
100
AcDbPolyline
90
20
70
1
43
0.0
10
-21.885110984429815
20
-159.09426308547233
10
-23.553802754054537
20
-164.2299682734662
42
0.18623644463105113
10
-35.536685196599301
20
-168.1234427966925
10
-39.905376966224011
20
-164.94940243431301
10
-45.195444236856261
20
-172.23055538368757
10
-40.826752467231515
20
-175.40459574606697
42
0.18623644463105818
10
-40.826752467231493
20
-188.00414397189076
10
-45.195444236856311
20
-191.17818433427004
10
-39.905376966224061
20
-198.45933728364457
10
-35.536685196599286
20
-195.28529692126517
42
0.18623644463105113
10
-23.553802754054502
20
-199.17877144449147
10
-21.885110984429922
20
-204.31447663248534
10
-13.325602337773521
20
-201.53332368311081
10
-14.994294107398202
20
-196.39761849511694
42
0.18623644463103783
10
-7.5884654747111693
20
-186.20436985897882
10
-2.1884654747111867
20
-186.20436985897891
10
-2.1884654747111858
20
-177.20436985897888
10
-7.5884654747111941
20
-177.20436985897888
42
0.1862364446310385
10
-14.994294107398201
20
-167.0111212228407
10
-13.325602337773415
20
-161.87541603484686
0
LWPOLYLINE
5
144
100
AcDbEntity
8
0
100
AcDbPolyline
90
20
70
1
43
0.0
10
-13.325602337774525
20
-252.53332368311081
10
-14.994294107399204
20
-247.39761849511694
42
0.1862364446310448
10
-7.5884654747121676
20
-237.20436985897879
10
-2.1884654747121846
20
-237.20436985897888
10
-2.1884654747121841
20
-228.20436985897888
10
-7.5884654747121916
20
-228.20436985897888
42
0.18623644463104708
10
-14.994294107399202
20
-218.01112122284067
10
-13.325602337774416
20
-212.87541603484686
10
-21.885110984430813
20
-210.09426308547233
10
-23.553802754055539
20
-215.2299682734662
42
0.18623644463104899
10
-35.536685196600295
20
-219.12344279669244
10
-39.905376966224992
20
-215.94940243431299
10
-45.195444236857242
20
-223.23055538368754
10
-40.826752467232517
20
-226.40459574606695
42
0.1862364446310498
10
-40.826752467232488
20
-239.00414397189078
10
-45.195444236857305
20
-242.17818433427001
10
-39.905376966225056
20
-249.45933728364457
10
-35.536685196600295
20
-246.2852969212652
42
0.18623644463104694
10
-23.553802754055507
20
-250.17877144449147
10
-21.885110984430924
20
-255.31447663248537
0
LWPOLYLINE
5
145
100
AcDbEntity
8
0
100
AcDbPolyline
90
3
70
1
43
0.0
10
16.204369859013557
20
-54.204369858978865
10
-14.204369858934243
20
-54.20436985897809
42
-0.20357587015837311
10
1.0000000000161813
20
-69.408739717952429
42
-0.20357587015894776
0
LWPOLYLINE
5
146
100
AcDbEntity
8
0
100
AcDbPolyline
90
3
70
1
43
0.0
10
52.000000000000057
20
-69.408739717962675
10
52.000000000000057
20
-54.204369858978652
10
36.795630141015806
20
-54.204369858978659
42
-0.20357587015883871
0
LWPOLYLINE
5
147
100
AcDbEntity
8
0
100
AcDbPolyline
90
3
70
1
43
0.0
10
52.000000000000043
20
-120.40873971803614
10
52.000000000000426
20
-90.000000000000782
42
-0.20357587015913448
10
36.795630140982915
20
-105.20436985899505
42
-0.20357587015971434
0
LWPOLYLINE
5
148
100
AcDbEntity
8
0
100
AcDbPolyline
90
3
70
1
43
0.0
10
52.000000000000036
20
-171.40873971803614
10
52.000000000000455
20
-141.00000000000082
42
-0.20357587015913448
10
36.795630140982908
20
-156.20436985899505
42
-0.20357587015971434
0
LWPOLYLINE
5
149
100
AcDbEntity
8
0
100
AcDbPolyline
90
3
70
1
43
0.0
10
52.000000000000028
20
-222.40873971803612
10
52.000000000000391
20
-192.0000000000008
42
-0.20357587015913392
10
36.795630140982908
20
-207.20436985899508
42
-0.2035758701597141
0
LWPOLYLINE
5
150
100
AcDbEntity
8
0
100
AcDbPolyline
90
3
70
1
43
0.0
10
36.795630141016382
20
-258.20436985897902
10
52.000000000000014
20
-258.20436985897896
10
52.000000000000249
20
-242.99999999999503
42
-0.2035758701588341
0
LWPOLYLINE
5
151
100
AcDbEntity
8
0
100
AcDbPolyline
90
3
70
1
43
0.0
10
-14.204369858935816
20
-258.20436985897919
10
16.204369859013646
20
-258.20436985897919
42
-0.20357587015895481
10
1.0000000000157483
20
-243.00000000000489
42
-0.20357587015838199
0
LWPOLYLINE
5
152
100
AcDbEntity
8
0
100
AcDbPolyline
90
3
70
1
43
0.0
10
-49.999999999999972
20
-242.99999999999437
10
-49.999999999999972
20
-258.20436985897925
10
-34.795630141014456
20
-258.20436985897908
42
-0.20357587015885584
0
LWPOLYLINE
5
153
100
AcDbEntity
8
0
100
AcDbPolyline
90
3
70
1
43
0.0
10
-49.999999999999972
20
-192.00000000000003
10
-50.000000000000007
20
-222.40873971803549
42
-0.20357587015971712
10
-34.795630140982276
20
-207.20436985899454
42
-0.20357587015914327
0
LWPOLYLINE
5
154
100
AcDbEntity
8
0
100
AcDbPolyline
90
3
70
1
43
0.0
10
-49.999999999999972
20
-90
10
-49.999999999999986
20
-120.40873971803549
42
-0.20357587015971562
10
-34.795630140982261
20
-105.20436985899453
42
-0.20357587015914375
0
LWPOLYLINE
5
155
100
AcDbEntity
8
0
100
AcDbPolyline
90
4
70
1
43
0.0
10
16.204369858987871
20
-156.20436985896794
42
0.20357587015976253
10
0.99999999995829203
20
-171.40873971804311
42
0.20357587015992551
10
-14.204369859061741
20
-156.20436985902157
42
0.20357587015972581
10
1.000000000011898
20
-140.99999999999346
42
0.20357587015880252
0
LWPOLYLINE
5
156
100
AcDbEntity
8
0
100
AcDbPolyline
90
4
70
1
43
0.0
10
16.204369858987882
20
-105.20436985896797
42
0.20357587015976264
10
0.99999999995829203
20
-120.40873971804314
42
0.20357587015992565
10
-14.204369859061741
20
-105.20436985902158
42
0.2035758701597255
10
1.0000000000119114
20
-89.99999999999352
42
0.20357587015880224
0
LWPOLYLINE
5
157
100
AcDbEntity
8
0
100
AcDbPolyline
90
3
70
1
43
0.0
10
-34.795630141013355
20
-54.204369858979163
10
-49.999999999999986
20
-54.204369858979256
10
-49.999999999998515
20
-69.408739717962661
42
-0.20357587015885248
0
LWPOLYLINE
5
158
100
AcDbEntity
8
0
100
AcDbPolyline
90
3
70
1
43
0.0
10
-49.999999999999972
20
-141
10
-49.999999999999972
20
-171.40873971803552
42
-0.20357587015971548
10
-34.795630140982269
20
-156.20436985899454
42
-0.2035758701591435
0
LWPOLYLINE
5
159
100
AcDbEntity
8
0
100
AcDbPolyline
90
4
70
1
43
0.0
10
-14.20436985906175
20
-207.20436985902157
42
0.20357587015972559
10
1.000000000011898
20
-191.99999999999349
42
0.20357587015880244
10
16.204369858987882
20
-207.20436985896797
42
0.20357587015976264
10
0.99999999995827427
20
-222.40873971804314
42
0.20357587015992556
0
LWPOLYLINE
5
160
100
AcDbEntity
8
0
100
AcDbPolyline
90
2
70
1
43
0.0
10
73.826935574001567
20
-87.032643821147872
10
73.826935574001567
20
-84.853194349377532
42
-4.3588989435406775
0
ARC
5
161
100
AcDbEntity
8
0
100
AcDbCircle
10
78.167067717401565
20
-94.668576964862694
30
-1.7763568394002505e-14
40
0.40000008690000133
210
0
220
-0
230
1
100
AcDbArc
50
16.02586600000091
51
103.47070799999852
0
ARC
5
162
100
AcDbEntity
8
0
100
AcDbCircle
10
76.076935574001567
20
-85.942919085262702
30
0
40
8.5724999999203035
210
-3.8180510994486463e-31
220
-1.1059432764436737e-31
230
1
100
AcDbArc
50
279.02926299659464
51
283.47073717160896
0
ARC
5
163
100
AcDbEntity
8
0
100
AcDbCircle
10
77.485069973501567
20
-94.804234750662715
30
0
40
0.40000008695178169
210
-1.6582868370820422e-31
220
1.0435483270830199e-30
230
1
100
AcDbArc
50
99.029288398157249
51
186.47413399999576
0
LINE
5
164
100
AcDbEntity
8
0
100
AcDbLine
10
77.155851277201563
20
-95.450601629562698
30
0
11
77.087620743290273
21
-94.849336623400575
31
0
0
SPLINE
5
165
100
AcDbEntity
8
0
100
AcDbSpline
70
0
71
3
72
8
73
4
74
0
42
0.000000001
43
0.0000000001
44
0.0000000001
40
0
40
0
40
0
40
0
40
1
40
1
40
1
40
1
10
77.095771930601572
20
-95.958525095062697
30
0
10
77.158900486901572
20
-95.675479150862685
30
0
10
77.158460350901564
20
-95.506723067762707
30
0
10
77.155851277201563
20
-95.450601629562698
30
0
0
SPLINE
5
166
100
AcDbEntity
8
0
100
AcDbSpline
70
0
71
3
72
8
73
4
74
0
42
0.000000001
43
0.0000000001
44
0.0000000001
40
0
40
0
40
0
40
0
40
1
40
1
40
1
40
1
10
76.499157467601563
20
-97.366626455862701
30
0
10
76.854762754201559
20
-96.777802037162701
30
0
10
77.020134330801568
20
-96.294762932962698
30
0
10
77.095771930601572
20
-95.958525095062697
30
0
0
ARC
5
167
100
AcDbEntity
8
0
100
AcDbCircle
10
76.076935574001567
20
-85.942919085262702
30
0
40
11.431507399100003
210
0
220
0
230
1
100
AcDbArc
50
267.88330310615282
51
272.11669689384706
0
SPLINE
5
168
100
AcDbEntity
8
0
100
AcDbSpline
70
0
71
3
72
8
73
4
74
0
42
0.000000001
43
0.0000000001
44
0.0000000001
40
0
40
0
40
0
40
0
40
1
40
1
40
1
40
1
10
75.058099217401562
20
-95.958525095062697
30
0
10
75.133736817201566
20
-96.294762932962698
30
0
10
75.299108393801561
20
-96.777802037162701
30
0
10
75.654713680401557
20
-97.366626455862701
30
0
0
SPLINE
5
169
100
AcDbEntity
8
0
100
AcDbSpline
70
0
71
3
72
8
73
4
74
0
42
0.000000001
43
0.0000000001
44
0.0000000001
40
0
40
0
40
0
40
0
40
1
40
1
40
1
40
1
10
74.998019870801571
20
-95.450601629562698
30
0
10
74.99541079710157
20
-95.506723067762707
30
0
10
74.994970661101561
20
-95.675479150862685
30
0
10
75.058099217401562
20
-95.958525095062697
30
0
0
LINE
5
170
100
AcDbEntity
8
0
100
AcDbLine
10
75.066250404401572
20
-94.849336626462701
30
0
11
74.998019870801571
21
-95.450601629562698
31
0
0
ARC
5
171
100
AcDbEntity
8
0
100
AcDbCircle
10
74.668801174501567
20
-94.804234750662715
30
0
40
0.40000008693596456
210
-0
220
0
230
1
100
AcDbArc
50
-6.4741344408435193
51
80.970707999998737
0
ARC
5
172
100
AcDbEntity
8
0
100
AcDbCircle
10
76.076935574001567
20
-85.942919085262702
30
0
40
8.5724999998807956
210
-1.1485258110449749e-32
220
-4.7947410660657666e-32
230
1
100
AcDbArc
50
256.52926300340545
51
260.97073717147043
0
ARC
5
173
100
AcDbEntity
8
0
100
AcDbCircle
10
73.986803430601555
20
-94.668576964862694
30
0
40
0.40000008697905409
210
2.461429315199759e-31
220
1.0275728297345446e-30
230
1
100
AcDbArc
50
76.529288249222006
51
163.97413400000107
0
LINE
5
174
100
AcDbEntity
8
0
100
AcDbLine
10
73.435291119601558
20
-95.139755554062688
30
0
11
73.602348482131546
21
-94.558148426355046
31
0
0
SPLINE
5
175
100
AcDbEntity
8
0
100
AcDbSpline
70
0
71
3
72
8
73
4
74
0
42
0.000000001
43
0.0000000001
44
0.0000000001
40
0
40
0
40
0
40
0
40
1
40
1
40
1
40
1
10
73.185411145801552
20
-95.586024277362696
30
0
10
73.35205132030157
20
-95.348682175362697
30
0
10
73.416224844801562
20
-95.192603451462702
30
0
10
73.435291119601558
20
-95.139755554062688
30
0
0
SPLINE
5
176
100
AcDbEntity
8
0
100
AcDbSpline
70
0
71
3
72
8
73
4
74
0
42
0.000000001
43
0.0000000001
44
0.0000000001
40
0
40
0
40
0
40
0
40
1
40
1
40
1
40
1
10
72.095354192801565
20
-96.6586258338627
30
1.7763568394002505e-14
10
72.649223988301557
20
-96.250707256762695
30
1.7763568394002505e-14
10
72.986858465601571
20
-95.867722277562706
30
0
10
73.185411145801552
20
-95.586024277362696
30
0
0
ARC
5
177
100
AcDbEntity
8
0
100
AcDbCircle
10
76.076935574001567
20
-85.942919085262702
30
0
40
11.431507399122825
210
0
220
0
230
1
100
AcDbArc
50
245.38330310604178
51
249.61669689410977
0
SPLINE
5
178
100
AcDbEntity
8
0
100
AcDbSpline
70
0
71
3
72
8
73
4
74
0
42
0.000000001
43
0.0000000001
44
0.0000000001
40
0
40
0
40
0
40
0
40
1
40
1
40
1
40
1
10
71.302847032101567
20
-94.806240689462697
30
1.7763568394002505e-14
10
71.244054412601557
20
-95.145829202262689
30
1.7763568394002505e-14
10
71.211986765101571
20
-95.655384106562707
30
1.7763568394002505e-14
10
71.315189861401564
20
-96.335471186862691
30
1.7763568394002505e-14
0
SPLINE
5
179
100
AcDbEntity
8
0
100
AcDbSpline
70
0
71
3
72
8
73
4
74
0
42
0.000000001
43
0.0000000001
44
0.0000000001
40
0
40
0
40
0
40
0
40
1
40
1
40
1
40
1
10
71.441714848601563
20
-94.313989225062699
30
1.7763568394002505e-14
10
71.417827634201572
20
-94.3648402238627
30
1.7763568394002505e-14
10
71.352840844501571
20
-94.520582082262692
30
1.7763568394002505e-14
10
71.302847032101567
20
-94.806240689462697
30
1.7763568394002505e-14
0
LINE
5
180
100
AcDbEntity
8
0
100
AcDbLine
10
71.73484579730156
20
-93.78460348986269
30
1.7763568394002505e-14
11
71.441714848601563
21
-94.313989225062699
31
1.7763568394002505e-14
0
ARC
5
181
100
AcDbEntity
8
0
100
AcDbCircle
10
71.38491032920156
20
-93.590837554462695
30
1.7763568394002505e-14
40
0.40000008694474704
210
-0
220
0
230
1
100
AcDbArc
50
-28.974134437123009
51
58.470707999999767
0
ARC
5
182
100
AcDbEntity
8
0
100
AcDbCircle
10
76.076935574801567
20
-85.942919085862698
30
0
40
8.5724999999000069
210
0
220
0
230
1
100
AcDbArc
50
234.02926299999996
51
238.47073716514586
0
ARC
5
183
100
AcDbEntity
8
0
100
AcDbCircle
10
70.806740559401561
20
-93.204516865162702
30
1.7763568394002505e-14
40
0.40000008695886263
210
2.6084534468577911e-14
220
3.5940902425089315e-14
230
1
100
AcDbArc
50
54.029288169900155
51
141.47413400000073
0
LINE
5
184
100
AcDbEntity
8
0
100
AcDbLine
10
70.116897383601568
20
-93.428774495762696
30
0
11
70.493809673484606
21
-92.955369659360102
31
1.7763568394002505e-14
0
SPLINE
5
185
100
AcDbEntity
8
0
100
AcDbSpline
70
0
71
3
72
8
73
4
74
0
42
0.000000001
43
0.0000000001
44
0.0000000001
40
0
40
0
40
0
40
0
40
1
40
1
40
1
40
1
10
69.715258743401563
20
-93.745448109162695
30
0
10
69.960041080201563
20
-93.589943032862692
30
0
10
70.07905842780157
20
-93.4703032389627
30
0
10
70.116897383601568
20
-93.428774495762696
30
0
0
SPLINE
5
186
100
AcDbEntity
8
0
100
AcDbSpline
70
0
71
3
72
8
73
4
74
0
42
0.000000001
43
0.0000000001
44
0.0000000001
40
5.6393832003326232e-09
40
5.6393832003326232e-09
40
5.6393832003326232e-09
40
5.6393832003326232e-09
40
1
40
1
40
1
40
1
10
68.2977106013997
20
-94.319255994672716
30
0
10
68.965523244272845
20
-94.154345165129186
30
0
10
69.424018830043963
20
-93.929720303623512
30
0
10
69.715258743401563
20
-93.745448109162695
30
0
0
ARC
5
187
100
AcDbEntity
8
0
100
AcDbCircle
10
76.076935574001567
20
-85.942919085262702
30
0
40
11.431507399100003
210
-1.4450772981261272e-31
220
-1.3420641382227989e-31
230
1
100
AcDbArc
50
222.88330299999998
51
227.11669692596388
0
SPLINE
5
188
100
AcDbEntity
8
0
100
AcDbSpline
70
0
71
3
72
8
73
4
74
0
42
0.000000001
43
0.0000000001
44
0.0000000001
40
0
40
0
40
0
40
0
40
0.99999999436061915
40
0.99999999436061915
40
0.99999999436061915
40
0.99999999436061915
10
68.27440655010156
20
-92.304595915862691
30
0
10
68.090134355640743
20
-92.595835829220277
30
0
10
67.865509494135054
20
-93.054331414991438
30
0
10
67.700598664591539
20
-93.722144057864526
30
0
0
SPLINE
5
189
100
AcDbEntity
8
0
100
AcDbSpline
70
0
71
3
72
8
73
4
74
0
42
0.000000001
43
0.0000000001
44
0.0000000001
40
0
40
0
40
0
40
0
40
1
40
1
40
1
40
1
10
68.591080163501573
20
-91.902957275662686
30
0
10
68.549551420301555
20
-91.940796231462684
30
0
10
68.429911626401562
20
-92.059813579062691
30
0
10
68.27440655010156
20
-92.304595915862691
30
0
0
LINE
5
190
100
AcDbEntity
8
0
100
AcDbLine
10
69.064484997501566
20
-91.526044987662686
30
0
11
68.591080163501573
21
-91.902957275662686
31
0
0
ARC
5
191
100
AcDbEntity
8
0
100
AcDbCircle
10
68.815337794101566
20
-91.213114099862693
30
0
40
0.40000008687666211
210
-0
220
0
230
1
100
AcDbArc
50
-51.47413443723952
51
35.970707999999732
0
ARC
5
192
100
AcDbEntity
8
0
100
AcDbCircle
10
76.07693557340157
20
-85.942919084462687
30
0
40
8.5724999999000033
210
1.6810097244787937e-31
220
1.0313054129941046e-31
230
1
100
AcDbArc
50
211.52926300000004
51
215.97073717871572
0
ARC
5
193
100
AcDbEntity
8
0
100
AcDbCircle
10
68.429017104801574
20
-90.634944330062694
30
0
40
0.40000008690419475
210
-3.7057428168636963e-30
220
-2.0421166072902538e-30
230
1
100
AcDbArc
50
31.529288460717392
51
118.97413400000052
0
LINE
5
194
100
AcDbEntity
8
0
100
AcDbLine
10
67.705865434201556
20
-90.578139810662691
30
0
11
68.235251172092987
21
-90.285008860523547
31
-7.8807676469137643e-32
0
SPLINE
5
195
100
AcDbEntity
8
0
100
AcDbSpline
70
0
71
3
72
8
73
4
74
0
42
0.000000001
43
0.0000000001
44
0.0000000001
40
0
40
0
40
0
40
0
40
1
40
1
40
1
40
1
10
67.213613969801557
20
-90.717007627162687
30
0
10
67.499272577001562
20
-90.667013814762697
30
0
10
67.655014435401569
20
-90.602027025062711
30
0
10
67.705865434201556
20
-90.578139810662691
30
0
0
SPLINE
5
196
100
AcDbEntity
8
0
100
AcDbSpline
70
0
71
3
72
8
73
4
74
0
42
0.000000001
43
0.0000000001
44
0.0000000001
40
5.4378876744471627e-09
40
5.4378876744471627e-09
40
5.4378876744471627e-09
40
5.4378876744471627e-09
40
1
40
1
40
1
40
1
10
65.684383483496262
20
-90.704664799546308
30
0
10
66.364470558243355
20
-90.807867893813921
30
0
10
66.874025458848209
20
-90.775800246342996
30
0
10
67.213613969801557
20
-90.717007627162687
30
0
0
ARC
5
197
100
AcDbEntity
8
0
100
AcDbCircle
10
76.076935574001567
20
-85.942919085262702
30
0
40
11.431507399172229
210
1.8486630494929565e-31
220
6.8689844813732621e-32
230
1
100
AcDbArc
50
200.38330299665731
51
204.61669692479285
0
SPLINE
5
198
100
AcDbEntity
8
0
100
AcDbSpline
70
0
71
3
72
8
73
4
74
0
42
0.000000001
43
0.0000000001
44
0.0000000001
40
0
40
0
40
0
40
0
40
0.99999999421406516
40
0.99999999421406516
40
0.99999999421406516
40
0.99999999421406516
10
66.433830381901558
20
-88.834443513462702
30
0
10
66.152132383331463
20
-89.032996192513878
30
0
10
65.769147406933413
20
-89.370630667055636
30
0
10
65.361228832482141
20
-89.924500456848733
30
0
0
SPLINE
5
199
100
AcDbEntity
8
0
100
AcDbSpline
70
0
71
3
72
8
73
4
74
0
42
0.000000001
43
0.0000000001
44
0.0000000001
40
0
40
0
40
0
40
0
40
1
40
1
40
1
40
1
10
66.880099105201566
20
-88.584563539662696
30
0
10
66.827251207801567
20
-88.603629814462707
30
0
10
66.671172483901572
20
-88.667803338962699
30
0
10
66.433830381901558
20
-88.834443513462702
30
0
0
LINE
5
200
100
AcDbEntity
8
0
100
AcDbLine
10
67.46170622990158
20
-88.417506177962707
30
0
11
66.880099105201566
21
-88.584563539662696
31
0
0
ARC
5
201
100
AcDbEntity
8
0
100
AcDbCircle
10
67.351277694401574
20
-88.0330512286627
30
0
40
0.40000008686742028
210
-0
220
0
230
1
100
AcDbArc
50
-73.974134446893117
51
13.470708000000986
0
ARC
5
202
100
AcDbEntity
8
0
100
AcDbCircle
10
76.076935574001567
20
-85.942919085262702
30
0
40
8.5724999999202876
210
-7.7376847878739157e-33
220
4.8692849341951774e-32
230
1
100
AcDbArc
50
189.02926299659458
51
193.47073717160882
0
ARC
5
203
100
AcDbEntity
8
0
100
AcDbCircle
10
67.215619908601568
20
-87.351053484762687
30
0
40
0.4000000869517803
210
-7.737706375402756e-33
220
4.8692845911515067e-32
230
1
100
AcDbArc
50
9.0292883981555132
51
96.474134000002095
0
LINE
5
204
100
AcDbEntity
8
0
100
AcDbLine
10
66.569253029701557
20
-87.021834788462684
30
0
11
67.170518035863665
21
-86.953604254551408
31
-1.9701919117284433e-32
0
SPLINE
5
205
100
AcDbEntity
8
0
100
AcDbSpline
70
0
71
3
72
8
73
4
74
0
42
0.000000001
43
0.0000000001
44
0.0000000001
40
0
40
0
40
0
40
0
40
1
40
1
40
1
40
1
10
66.061329564201571
20
-86.961755441862692
30
0
10
66.344375508401569
20
-87.024883998162693
30
0
10
66.513131591501576
20
-87.024443862162698
30
0
10
66.569253029701557
20
-87.021834788462684
30
0
0
SPLINE
5
206
100
AcDbEntity
8
0
100
AcDbSpline
70
0
71
3
72
8
73
4
74
0
42
0.000000001
43
0.0000000001
44
0.0000000001
40
5.6417885650317376e-09
40
5.6417885650317376e-09
40
5.6417885650317376e-09
40
5.6417885650317376e-09
40
1
40
1
40
1
40
1
10
64.653228213367612
20
-86.365140984881464
30
0
10
65.242052627551985
20
-86.720746267328678
30
0
10
65.725091728198549
20
-86.886117842489412
30
0
10
66.061329564201571
20
-86.961755441862692
30
0
0
ARC
5
207
100
AcDbEntity
8
0
100
AcDbCircle
10
76.076935574001567
20
-85.942919085262702
30
0
40
11.431507399099996
210
0
220
0
230
1
100
AcDbArc
50
177.88330299999998
51
182.11669692583797
0
SPLINE
5
208
100
AcDbEntity
8
0
100
AcDbSpline
70
0
71
3
72
8
73
4
74
0
42
0.000000001
43
0.0000000001
44
0.0000000001
40
0
40
0
40
0
40
0
40
0.99999999435821596
40
0.99999999435821596
40
0.99999999435821596
40
0.99999999435821596
10
66.061329564201571
20
-84.924082728662697
30
0
10
65.725091728198549
20
-84.999720328035963
30
0
10
65.242052627551971
20
-85.165091903196739
30
0
10
64.65322821336764
20
-85.52069718564394
30
0
0
SPLINE
5
209
100
AcDbEntity
8
0
100
AcDbSpline
70
0
71
3
72
8
73
4
74
0
42
0.000000001
43
0.0000000001
44
0.0000000001
40
0
40
0
40
0
40
0
40
1
40
1
40
1
40
1
10
66.569253029701557
20
-84.864003382062691
30
0
10
66.513131591501576
20
-84.861394308362691
30
0
10
66.344375508401569
20
-84.860954172362696
30
0
10
66.061329564201571
20
-84.924082728662697
30
0
0
LINE
5
210
100
AcDbEntity
8
0
100
AcDbLine
10
67.170518032801553
20
-84.932233915662692
30
0
11
66.569253029701557
21
-84.864003382062691
31
0
0
ARC
5
211
100
AcDbEntity
8
0
100
AcDbCircle
10
67.215619908601568
20
-84.534784685762702
30
0
40
0.40000008693596656
210
0
220
0
230
1
100
AcDbArc
50
263.52586555915218
51
350.97070800000074
0
ARC
5
212
100
AcDbEntity
8
0
100
AcDbCircle
10
76.076935574001567
20
-85.942919085262702
30
0
40
8.5724999998807654
210
3.8357928528526268e-31
220
-9.1882064883598121e-32
230
1
100
AcDbArc
50
166.52926300340559
51
170.97073717147032
0
ARC
5
213
100
AcDbEntity
8
0
100
AcDbCircle
10
67.351277694401574
20
-83.852786941862689
30
0
40
0.40000008697908418
210
-8.2205826438905928e-30
220
1.969143427049458e-30
230
1
100
AcDbArc
50
-13.470711750779463
51
73.974133999998543
0
LINE
5
214
100
AcDbEntity
8
0
100
AcDbLine
10
66.880099105201566
20
-83.301274630862693
30
0
11
67.461706232909236
21
-83.468331993392695
31
7.0336651320058985e-33
0
SPLINE
5
215
100
AcDbEntity
8
0
100
AcDbSpline
70
0
71
3
72
8
73
4
74
0
42
0.000000001
43
0.0000000001
44
0.0000000001
40
0
40
0
40
0
40
0
40
1
40
1
40
1
40
1
10
66.433830381901558
20
-83.051394657062687
30
0
10
66.671172483901572
20
-83.218034831562704
30
0
10
66.827251207801567
20
-83.282208356062711
30
0
10
66.880099105201566
20
-83.301274630862693
30
0
0
SPLINE
5
216
100
AcDbEntity
8
0
100
AcDbSpline
70
0
71
3
72
8
73
4
74
0
42
0.000000001
43
0.0000000001
44
0.0000000001
40
5.7859436260509548e-09
40
5.7859436260509548e-09
40
5.7859436260509548e-09
40
5.7859436260509548e-09
40
1
40
1
40
1
40
1
10
65.361228832482141
20
-81.96133771367667
30
0
10
65.769147406933413
20
-82.515207503469767
30
0
10
66.152132383331463
20
-82.852841978011526
30
0
10
66.433830381901558
20
-83.051394657062687
30
0
0
ARC
5
217
100
AcDbEntity
8
0
100
AcDbCircle
10
76.076935574001567
20
-85.942919085262702
30
0
40
11.431507399122802
210
0
220
0
230
1
100
AcDbArc
50
155.3833030033602
51
159.61669692691805
0
SPLINE
5
218
100
AcDbEntity
8
0
100
AcDbSpline
70
0
71
3
72
8
73
4
74
0
42
0.000000001
43
0.0000000001
44
0.0000000001
40
0
40
0
40
0
40
0
40
0.9999999945621133
40
0.9999999945621133
40
0.9999999945621133
40
0.9999999945621133
10
67.213613969801557
20
-81.168830543362702
30
0
10
66.874025458848209
20
-81.110037924182421
30
0
10
66.364470558243369
20
-81.077970276711469
30
0
10
65.684383483496262
20
-81.181173370979081
30
0
0
SPLINE
5
219
100
AcDbEntity
8
0
100
AcDbSpline
70
0
71
3
72
8
73
4
74
0
42
0.000000001
43
0.0000000001
44
0.0000000001
40
0
40
0
40
0
40
0
40
1
40
1
40
1
40
1
10
67.705865434201556
20
-81.307698359862698
30
0
10
67.655014435401569
20
-81.283811145462707
30
0
10
67.499272577001562
20
-81.218824355762692
30
0
10
67.213613969801557
20
-81.168830543362702
30
0
0
LINE
5
220
100
AcDbEntity
8
0
100
AcDbLine
10
68.235251169401565
20
-81.600829308562695
30
0
11
67.705865434201556
21
-81.307698359862698
31
0
0
ARC
5
221
100
AcDbEntity
8
0
100
AcDbCircle
10
68.429017104801574
20
-81.250893840462695
30
0
40
0.40000008694474704
210
1.3162874724761172e-39
220
-7.2885345045035109e-40
230
1
100
AcDbArc
50
241.02586556287517
51
328.47070799999869
0
ARC
5
222
100
AcDbEntity
8
0
100
AcDbCircle
10
76.07693557340157
20
-85.942919086062687
30
0
40
8.572499999899998
210
0
220
0
230
1
100
AcDbArc
50
144.02926300000004
51
148.47073716514601
0
ARC
5
223
100
AcDbEntity
8
0
100
AcDbCircle
10
68.815337794101566
20
-80.672724070662696
30
0
40
0.40000008695886985
210
-0
220
0
230
1
100
AcDbArc
50
-35.970711830099823
51
51.474134000002316
0
LINE
5
224
100
AcDbEntity
8
0
100
AcDbLine
10
68.591080163501573
20
-79.982880894862689
30
0
11
69.064484999904153
21
-80.35979318474574
31
0
0
SPLINE
5
225
100
AcDbEntity
8
0
100
AcDbSpline
70
0
71
3
72
8
73
4
74
0
42
0.000000001
43
0.0000000001
44
0.0000000001
40
0
40
0
40
0
40
0
40
1
40
1
40
1
40
1
10
68.27440655010156
20
-79.581242254662698
30
0
10
68.429911626401562
20
-79.826024591462698
30
0
10
68.549551420301555
20
-79.945041939062691
30
0
10
68.591080163501573
20
-79.982880894862689
30
0
0
SPLINE
5
226
100
AcDbEntity
8
0
100
AcDbSpline
70
0
71
3
72
8
73
4
74
0
42
0.000000001
43
0.0000000001
44
0.0000000001
40
0
40
0
40
0
40
0
40
1
40
1
40
1
40
1
10
67.700598661801564
20
-78.163694101362694
30
0
10
67.865509491601557
20
-78.831506750362692
30
0
10
68.09013435460156
20
-79.290002339662692
30
0
10
68.27440655010156
20
-79.581242254662698
30
0
0
ARC
5
227
100
AcDbEntity
8
0
100
AcDbCircle
10
76.076935574001567
20
-85.942919085262702
30
0
40
11.431507399099996
210
0
220
0
230
1
100
AcDbArc
50
132.88330310601319
51
137.11669689398673
0
SPLINE
5
228
100
AcDbEntity
8
0
100
AcDbSpline
70
0
71
3
72
8
73
4
74
0
42
0.000000001
43
0.0000000001
44
0.0000000001
40
0
40
0
40
0
40
0
40
1
40
1
40
1
40
1
10
69.715258743401563
20
-78.140390061362694
30
0
10
69.424018828401557
20
-77.956117865862694
30
0
10
68.965523239101557
20
-77.731493002862692
30
0
10
68.297710590101573
20
-77.566582173062699
30
0
0
SPLINE
5
229
100
AcDbEntity
8
0
100
AcDbSpline
70
0
71
3
72
8
73
4
74
0
42
0.000000001
43
0.0000000001
44
0.0000000001
40
0
40
0
40
0
40
0
40
1
40
1
40
1
40
1
10
70.116897383601568
20
-78.457063674762693
30
0
10
70.07905842780157
20
-78.415534931562703
30
0
10
69.960041080201563
20
-78.295895137662697
30
0
10
69.715258743401563
20
-78.140390061362694
30
0
0
LINE
5
230
100
AcDbEntity
8
0
100
AcDbLine
10
70.493809671601568
20
-78.930468508762701
30
0
11
70.116897383601568
21
-78.457063674762693
31
0
0
ARC
5
231
100
AcDbEntity
8
0
100
AcDbCircle
10
70.806740559401561
20
-78.681321305362701
30
1.7763568394002505e-14
40
0.40000008687666211
210
-3.4742292583721479e-14
220
-2.7660884158136942e-14
230
1
100
AcDbArc
50
218.52586556276046
51
305.97070799999977
0
ARC
5
232
100
AcDbEntity
8
0
100
AcDbCircle
10
76.076935574801567
20
-85.942919084662691
30
0
40
8.5724999999000033
210
0
220
0
230
1
100
AcDbArc
50
121.52926300000004
51
125.97073717871578
0
ARC
5
233
100
AcDbEntity
8
0
100
AcDbCircle
10
71.38491032920156
20
-78.295000616062694
30
1.7763568394002505e-14
40
0.40000008690419475
210
2.3222945143748886e-14
220
-3.7852955300236701e-14
230
1
100
AcDbArc
50
-58.470711539281936
51
28.974133999997751
0
LINE
5
234
100
AcDbEntity
8
0
100
AcDbLine
10
71.441714848601563
20
-77.57184894546269
30
1.7763568394002505e-14
11
71.734845798740722
21
-78.101234683354122
31
1.7763568394002505e-14
0
SPLINE
5
235
100
AcDbEntity
8
0
100
AcDbSpline
70
0
71
3
72
8
73
4
74
0
42
0.000000001
43
0.0000000001
44
0.0000000001
40
0
40
0
40
0
40
0
40
1
40
1
40
1
40
1
10
71.302847032101567
20
-77.079597481062706
30
1.7763568394002505e-14
10
71.352840844501571
20
-77.365256088262697
30
1.7763568394002505e-14
10
71.417827634201572
20
-77.520997946662703
30
1.7763568394002505e-14
10
71.441714848601563
20
-77.57184894546269
30
1.7763568394002505e-14
0
SPLINE
5
236
100
AcDbEntity
8
0
100
AcDbSpline
70
0
71
3
72
8
73
4
74
0
42
0.000000001
43
0.0000000001
44
0.0000000001
40
0
40
0
40
0
40
0
40
1
40
1
40
1
40
1
10
71.315189861401564
20
-75.550366983662684
30
1.7763568394002505e-14
10
71.211986765101571
20
-76.230454063962696
30
1.7763568394002505e-14
10
71.244054412601557
20
-76.7400089682627
30
1.7763568394002505e-14
10
71.302847032101567
20
-77.079597481062706
30
1.7763568394002505e-14
0
ARC
5
237
100
AcDbEntity
8
0
100
AcDbCircle
10
76.076935574001567
20
-85.942919085262702
30
0
40
11.431507399172228
210
3.4344922406866234e-32
220
-9.2433152474647871e-32
230
1
100
AcDbArc
50
110.38330310589022
51
114.61669689395823
0
SPLINE
5
238
100
AcDbEntity
8
0
100
AcDbSpline
70
0
71
3
72
8
73
4
74
0
42
0.000000001
43
0.0000000001
44
0.0000000001
40
0
40
0
40
0
40
0
40
1
40
1
40
1
40
1
10
73.185411145801552
20
-76.299813893162693
30
0
10
72.986858465601571
20
-76.018115892962697
30
0
10
72.649223988301557
20
-75.635130913762694
30
1.7763568394002505e-14
10
72.095354192801565
20
-75.227212336662689
30
1.7763568394002505e-14
0
SPLINE
5
239
100
AcDbEntity
8
0
100
AcDbSpline
70
0
71
3
72
8
73
4
74
0
42
0.000000001
43
0.0000000001
44
0.0000000001
40
0
40
0
40
0
40
0
40
1
40
1
40
1
40
1
10
73.435291119601558
20
-76.746082616462687
30
0
10
73.416224844801562
20
-76.693234719062701
30
0
10
73.35205132030157
20
-76.537155995162692
30
0
10
73.185411145801552
20
-76.299813893162693
30
0
0
LINE
5
240
100
AcDbEntity
8
0
100
AcDbLine
10
73.602348481301561
20
-77.3276897411627
30
0
11
73.435291119601558
21
-76.746082616462687
31
0
0
ARC
5
241
100
AcDbEntity
8
0
100
AcDbCircle
10
73.986803430601555
20
-77.217261205662695
30
0
40
0.40000008686742028
210
0
220
0
230
1
100
AcDbArc
50
196.02586555310748
51
283.47070800000142
0
ARC
5
242
100
AcDbEntity
8
0
100
AcDbCircle
10
76.076935574001567
20
-85.942919085262702
30
0
40
8.5724999999202876
210
-3.8954279473561423e-31
220
-6.1901478302991183e-32
230
1
100
AcDbArc
50
99.029262996594753
51
103.4707371716089
0
ARC
5
243
100
AcDbEntity
8
0
100
AcDbCircle
10
74.668801174501567
20
-77.081603419862702
30
0
40
0.4000000869517803
210
-3.006326477146737e-46
220
1.8918602594787989e-45
230
1
100
AcDbArc
50
-80.970711601844499
51
6.4741340000018734
0
LINE
5
244
100
AcDbEntity
8
0
100
AcDbLine
10
74.998019870801571
20
-76.435236540962691
30
0
11
75.066250404712861
21
-77.0365015471248
31
0
0
SPLINE
5
245
100
AcDbEntity
8
0
100
AcDbSpline
70
0
71
3
72
8
73
4
74
0
42
0.000000001
43
0.0000000001
44
0.0000000001
40
0
40
0
40
0
40
0
40
1
40
1
40
1
40
1
10
75.058099217401562
20
-75.927313075462706
30
0
10
74.994970661101561
20
-76.21035901966269
30
0
10
74.99541079710157
20
-76.379115102762697
30
0
10
74.998019870801571
20
-76.435236540962691
30
0
0
SPLINE
5
246
100
AcDbEntity
8
0
100
AcDbSpline
70
0
71
3
72
8
73
4
74
0
42
0.000000001
43
0.0000000001
44
0.0000000001
40
0
40
0
40
0
40
0
40
1
40
1
40
1
40
1
10
75.654713680401557
20
-74.519211714662688
30
0
10
75.299108393801561
20
-75.108036133362702
30
0
10
75.133736817201566
20
-75.591075237562691
30
0
10
75.058099217401562
20
-75.927313075462706
30
0
0
ARC
5
247
100
AcDbEntity
8
0
100
AcDbCircle
10
76.076935574001567
20
-85.942919085262702
30
0
40
11.43150739910001
210
4.552581494943748e-34
220
1.2317541311052117e-32
230
1
100
AcDbArc
50
87.883303106152994
51
92.11669689384712
0
SPLINE
5
248
100
AcDbEntity
8
0
100
AcDbSpline
70
0
71
3
72
8
73
4
74
0
42
0.000000001
43
0.0000000001
44
0.0000000001
40
0
40
0
40
0
40
0
40
1
40
1
40
1
40
1
10
77.095771930601572
20
-75.927313075462706
30
0
10
77.020134330801568
20
-75.591075237562691
30
0
10
76.854762754201559
20
-75.108036133362702
30
0
10
76.499157467601563
20
-74.519211714662688
30
0
0
SPLINE
5
249
100
AcDbEntity
8
0
100
AcDbSpline
70
0
71
3
72
8
73
4
74
0
42
0.000000001
43
0.0000000001
44
0.0000000001
40
0
40
0
40
0
40
0
40
1
40
1
40
1
40
1
10
77.155851277201563
20
-76.435236540962691
30
0
10
77.158460350901564
20
-76.379115102762697
30
0
10
77.158900486901572
20
-76.21035901966269
30
0
10
77.095771930601572
20
-75.927313075462706
30
0
0
LINE
5
250
100
AcDbEntity
8
0
100
AcDbLine
10
77.087620743601562
20
-77.036501544062702
30
0
11
77.155851277201563
21
-76.435236540962691
31
0
0
ARC
5
251
100
AcDbEntity
8
0
100
AcDbCircle
10
77.485069973501567
20
-77.081603419862702
30
0
40
0.40000008693596556
210
0
220
0
230
1
100
AcDbArc
50
173.52586555915451
51
260.97070799999642
0
ARC
5
252
100
AcDbEntity
8
0
100
AcDbCircle
10
76.076935574001567
20
-85.942919085262702
30
0
40
8.5724999998807672
210
-1.148525811044976e-32
220
-4.794741066065783e-32
230
1
100
AcDbArc
50
76.529263003405561
51
80.970737171470532
0
ARC
5
253
100
AcDbEntity
8
0
100
AcDbCircle
10
78.167067717401565
20
-77.217261205662695
30
-1.7763568394002505e-14
40
0.40000008697909073
210
1.0344979547959911e-14
220
4.3187183324744013e-14
230
1
100
AcDbArc
50
256.52928824922293
51
343.97413399999908
0
LINE
5
254
100
AcDbEntity
8
0
100
AcDbLine
10
78.718580028401576
20
-76.746082616462687
30
-1.7763568394002505e-14
11
78.551522665871573
21
-77.327689744170357
31
-1.7763568394002505e-14
0
SPLINE
5
255
100
AcDbEntity
8
0
100
AcDbSpline
70
0
71
3
72
8
73
4
74
0
42
0.000000001
43
0.0000000001
44
0.0000000001
40
0
40
0
40
0
40
0
40
1
40
1
40
1
40
1
10
78.968460002201567
20
-76.299813893162693
30
-1.7763568394002505e-14
10
78.801819827701564
20
-76.537155995162692
30
-1.7763568394002505e-14
10
78.737646303201572
20
-76.693234719062701
30
-1.7763568394002505e-14
10
78.718580028401576
20
-76.746082616462687
30
-1.7763568394002505e-14
0
SPLINE
5
256
100
AcDbEntity
8
0
100
AcDbSpline
70
0
71
3
72
8
73
4
74
0
42
0.000000001
43
0.0000000001
44
0.0000000001
40
5.7859440592426101e-09
40
5.7859440592426101e-09
40
5.7859440592426101e-09
40
5.7859440592426101e-09
40
1
40
1
40
1
40
1
10
80.058516945587542
20
-75.227212343743275
30
0
10
79.504647155794487
20
-75.635130918194562
30
-1.7763568394002505e-14
10
79.167012681252743
20
-76.018115894592583
30
-1.7763568394002505e-14
10
78.968460002201567
20
-76.299813893162693
30
-1.7763568394002505e-14
0
ARC
5
257
100
AcDbEntity
8
0
100
AcDbCircle
10
76.076935574001567
20
-85.942919085262702
30
0
40
11.431507399122804
210
-4.1074581388230284e-32
220
-8.9645636454882113e-32
230
1
100
AcDbArc
50
65.383303003360183
51
69.616696926918294
0
SPLINE
5
258
100
AcDbEntity
8
0
100
AcDbSpline
70
0
71
3
72
8
73
4
74
0
42
0.000000001
43
0.0000000001
44
0.0000000001
40
0
40
0
40
0
40
0
40
0.9999999945621133
40
0.9999999945621133
40
0.9999999945621133
40
0.9999999945621133
10
80.851024115901552
20
-77.079597481062706
30
0
10
80.909816735081847
20
-76.740008970109344
30
0
10
80.941884382552786
20
-76.230454069504503
30
0
10
80.838681288285215
20
-75.550366994757383
30
0
0
SPLINE
5
259
100
AcDbEntity
8
0
100
AcDbSpline
70
0
71
3
72
8
73
4
74
0
42
0.000000001
43
0.0000000001
44
0.0000000001
40
0
40
0
40
0
40
0
40
1
40
1
40
1
40
1
10
80.712156299401556
20
-77.57184894546269
30
0
10
80.736043513801548
20
-77.520997946662703
30
0
10
80.801030303501562
20
-77.365256088262697
30
0
10
80.851024115901552
20
-77.079597481062706
30
0
0
LINE
5
260
100
AcDbEntity
8
0
100
AcDbLine
10
80.41902535070156
20
-78.101234680662685
30
0
11
80.712156299401556
21
-77.57184894546269
31
0
0
ARC
5
261
100
AcDbEntity
8
0
100
AcDbCircle
10
80.76896081880156
20
-78.295000616062694
30
0
40
0.40000008694474704
210
0
220
0
230
1
100
AcDbArc
50
151.02586556287523
51
238.47070799999977
0
ARC
5
262
100
AcDbEntity
8
0
100
AcDbCircle
10
76.07693557340157
20
-85.942919084462687
30
0
40
8.5724999996206623
210
-1.1583869831748609e-31
220
-1.5960965340880016e-31
230
1
100
AcDbArc
50
54.029263000296737
51
58.47073716558635
0
ARC
5
263
100
AcDbEntity
8
0
100
AcDbCircle
10
81.347130588601559
20
-78.681321305362701
30
0
40
0.40000008695885547
210
2.4825660501576695e-30
220
3.4206347391592686e-30
230
1
100
AcDbArc
50
234.02928816989896
51
321.47413400000073
0
LINE
5
264
100
AcDbEntity
8
0
100
AcDbLine
10
82.036973764401552
20
-78.457063674762693
30
0
11
81.660061474518514
21
-78.930468511165301
31
3.5168325660020885e-33
0
SPLINE
5
265
100
AcDbEntity
8
0
100
AcDbSpline
70
0
71
3
72
8
73
4
74
0
42
0.000000001
43
0.0000000001
44
0.0000000001
40
0
40
0
40
0
40
0
40
1
40
1
40
1
40
1
10
82.438612404601557
20
-78.140390061362694
30
0
10
82.193830067801557
20
-78.295895137662697
30
0
10
82.07481272020155
20
-78.415534931562703
30
0
10
82.036973764401552
20
-78.457063674762693
30
0
0
SPLINE
5
266
100
AcDbEntity
8
0
100
AcDbSpline
70
0
71
3
72
8
73
4
74
0
42
0.000000001
43
0.0000000001
44
0.0000000001
40
5.6393883199947328e-09
40
5.6393883199947328e-09
40
5.6393883199947328e-09
40
5.6393883199947328e-09
40
1
40
1
40
1
40
1
10
83.856160546603391
20
-77.566582175852673
30
0
10
83.188347903730303
20
-77.731493005396189
30
0
10
82.729852317959157
20
-77.956117866901891
30
0
10
82.438612404601557
20
-78.140390061362694
30
0
0
ARC
5
267
100
AcDbEntity
8
0
100
AcDbCircle
10
76.076935574001567
20
-85.942919085262702
30
0
40
11.431507399100003
210
0
220
-0
230
1
100
AcDbArc
50
42.883303106013301
51
47.116696925964121
0
SPLINE
5
268
100
AcDbEntity
8
0
100
AcDbSpline
70
0
71
3
72
8
73
4
74
0
42
0.000000001
43
0.0000000001
44
0.0000000001
40
0
40
0
40
0
40
0
40
1
40
1
40
1
40
1
10
83.87946459790156
20
-79.581242254662698
30
0
10
84.06373679340156
20
-79.290002339662692
30
0
10
84.288361656401563
20
-78.831506750362692
30
0
10
84.45327248620157
20
-78.163694101362694
30
0
0
SPLINE
5
269
100
AcDbEntity
8
0
100
AcDbSpline
70
0
71
3
72
8
73
4
74
0
42
0.000000001
43
0.0000000001
44
0.0000000001
40
0
40
0
40
0
40
0
40
1
40
1
40
1
40
1
10
83.562790984501561
20
-79.982880894862689
30
0
10
83.604319727701565
20
-79.945041939062691
30
0
10
83.723959521601557
20
-79.826024591462698
30
0
10
83.87946459790156
20
-79.581242254662698
30
0
0
LINE
5
270
100
AcDbEntity
8
0
100
AcDbLine
10
83.089386150501554
20
-80.359793182862688
30
0
11
83.562790984501561
21
-79.982880894862689
31
0
0
ARC
5
271
100
AcDbEntity
8
0
100
AcDbCircle
10
83.338533353901568
20
-80.672724070662696
30
0
40
0.40000008687666211
210
0
220
0
230
1
100
AcDbArc
50
128.52586556276086
51
215.97070799999736
0
ARC
5
272
100
AcDbEntity
8
0
100
AcDbCircle
10
76.076935574801567
20
-85.942919085862698
30
0
40
8.5724999996249416
210
1.6810097245327317e-31
220
1.0313054130271954e-31
230
1
100
AcDbArc
50
31.52926299955972
51
35.970737178419171
0
ARC
5
273
100
AcDbEntity
8
0
100
AcDbCircle
10
83.72485404320156
20
-81.250893840462695
30
0
40
0.40000008690418709
210
-3.7057428168637412e-30
220
-2.0421166072903386e-30
230
1
100
AcDbArc
50
211.52928846071632
51
298.9741340000005
0
LINE
5
274
100
AcDbEntity
8
0
100
AcDbLine
10
84.448005713801564
20
-81.307698359862698
30
0
11
83.918619975910147
21
-81.600829310001842
31
7.8807676469137742e-32
0
SPLINE
5
275
100
AcDbEntity
8
0
100
AcDbSpline
70
0
71
3
72
8
73
4
74
0
42
0.000000001
43
0.0000000001
44
0.0000000001
40
0
40
0
40
0
40
0
40
1
40
1
40
1
40
1
10
84.940257178201563
20
-81.168830543362702
30
0
10
84.654598571001557
20
-81.218824355762692
30
0
10
84.498856712601551
20
-81.283811145462707
30
0
10
84.448005713801564
20
-81.307698359862698
30
0
0
SPLINE
5
276
100
AcDbEntity
8
0
100
AcDbSpline
70
0
71
3
72
8
73
4
74
0
42
0.000000001
43
0.0000000001
44
0.0000000001
40
5.4378863281206036e-09
40
5.4378863281206036e-09
40
5.4378863281206036e-09
40
5.4378863281206036e-09
40
1
40
1
40
1
40
1
10
86.469487664506858
20
-81.181173370979025
30
0
10
85.789400589759751
20
-81.077970276711469
30
0
10
85.279845689154911
20
-81.110037924182421
30
0
10
84.940257178201563
20
-81.168830543362702
30
0
0
ARC
5
277
100
AcDbEntity
8
0
100
AcDbCircle
10
76.076935574001567
20
-85.942919085262702
30
0
40
11.431507399172238
210
1.8486630494929554e-31
220
6.868984481373249e-32
230
1
100
AcDbArc
50
20.383302996657317
51
24.616696924793207
0
SPLINE
5
278
100
AcDbEntity
8
0
100
AcDbSpline
70
0
71
3
72
8
73
4
74
0
42
0.000000001
43
0.0000000001
44
0.0000000001
40
0
40
0
40
0
40
0
40
0.99999999421406405
40
0.99999999421406405
40
0.99999999421406405
40
0.99999999421406405
10
85.720040766101562
20
-83.051394657062687
30
0
10
86.001738764671657
20
-82.852841978011497
30
0
10
86.384723741069735
20
-82.51520750346981
30
0
10
86.792642315520979
20
-81.96133771367667
30
0
0
SPLINE
5
279
100
AcDbEntity
8
0
100
AcDbSpline
70
0
71
3
72
8
73
4
74
0
42
0.000000001
43
0.0000000001
44
0.0000000001
40
0
40
0
40
0
40
0
40
1
40
1
40
1
40
1
10
85.273772042801554
20
-83.301274630862693
30
0
10
85.326619940201567
20
-83.282208356062711
30
0
10
85.482698664101548
20
-83.218034831562704
30
0
10
85.720040766101562
20
-83.051394657062687
30
0
0
LINE
5
280
100
AcDbEntity
8
0
100
AcDbLine
10
84.692164918101554
20
-83.468331992562696
30
0
11
85.273772042801554
21
-83.301274630862693
31
0
0
ARC
5
281
100
AcDbEntity
8
0
100
AcDbCircle
10
84.802593453601546
20
-83.852786941862689
30
0
40
0.40000008686740318
210
0
220
0
230
1
100
AcDbArc
50
106.02586555310553
51
193.470708000001
0
ARC
5
282
100
AcDbEntity
8
0
100
AcDbCircle
10
76.076935574001567
20
-85.942919085262702
30
0
40
8.5724999999202751
210
0
220
-0
230
1
100
AcDbArc
50
9.0292629965946585
51
13.470737171608954
0
ARC
5
283
100
AcDbEntity
8
0
100
AcDbCircle
10
84.938251239401552
20
-84.534784685762702
30
0
40
0.40000008695178313
210
0
220
0
230
1
100
AcDbArc
50
189.02928839815755
51
276.47413399999607
0
LINE
5
284
100
AcDbEntity
8
0
100
AcDbLine
10
85.584618118301563
20
-84.864003382062691
30
0
11
84.983353112139412
21
-84.932233915973981
31
0
0
SPLINE
5
285
100
AcDbEntity
8
0
100
AcDbSpline
70
0
71
3
72
8
73
4
74
0
42
0.000000001
43
0.0000000001
44
0.0000000001
40
0
40
0
40
0
40
0
40
1
40
1
40
1
40
1
10
86.092541583801548
20
-84.924082728662697
30
0
10
85.80949563960155
20
-84.860954172362696
30
0
10
85.640739556501558
20
-84.861394308362691
30
0
10
85.584618118301563
20
-84.864003382062691
30
0
0
SPLINE
5
286
100
AcDbEntity
8
0
100
AcDbSpline
70
0
71
3
72
8
73
4
74
0
42
0.000000001
43
0.0000000001
44
0.0000000001
40
5.6417834023295381e-09
40
5.6417834023295381e-09
40
5.6417834023295381e-09
40
5.6417834023295381e-09
40
1
40
1
40
1
40
1
10
87.500642934635508
20
-85.52069718564394
30
0
10
86.911818520451163
20
-85.165091903196739
30
0
10
86.42877941980457
20
-84.999720328035963
30
0
10
86.092541583801548
20
-84.924082728662697
30
0
0
ARC
5
287
100
AcDbEntity
8
0
100
AcDbCircle
10
76.076935574001567
20
-85.942919085262702
30
0
40
11.431507399099996
210
-0
220
0
230
1
100
AcDbArc
50
-2.1166969999998613
51
2.1166969258379646
0
SPLINE
5
288
100
AcDbEntity
8
0
100
AcDbSpline
70
0
71
3
72
8
73
4
74
0
42
0.000000001
43
0.0000000001
44
0.0000000001
40
0
40
0
40
0
40
0
40
0.9999999943582194
40
0.9999999943582194
40
0.9999999943582194
40
0.9999999943582194
10
86.092541583801548
20
-86.961755441862692
30
0
10
86.428779419804584
20
-86.886117842489412
30
0
10
86.911818520451163
20
-86.720746267328678
30
0
10
87.500642934635508
20
-86.365140984881464
30
0
0
SPLINE
5
289
100
AcDbEntity
8
0
100
AcDbSpline
70
0
71
3
72
8
73
4
74
0
42
0.000000001
43
0.0000000001
44
0.0000000001
40
0
40
0
40
0
40
0
40
1
40
1
40
1
40
1
10
85.584618118301563
20
-87.021834788462684
30
0
10
85.640739556501558
20
-87.024443862162698
30
0
10
85.80949563960155
20
-87.024883998162693
30
0
10
86.092541583801548
20
-86.961755441862692
30
0
0
LINE
5
290
100
AcDbEntity
8
0
100
AcDbLine
10
84.983353115201567
20
-86.953604254862697
30
0
11
85.584618118301563
21
-87.021834788462684
31
0
0
ARC
5
291
100
AcDbEntity
8
0
100
AcDbCircle
10
84.938251239401552
20
-87.351053484762687
30
0
40
0.40000008693596656
210
0
220
-0
230
1
100
AcDbArc
50
83.525865559152223
51
170.97070800000074
0
ARC
5
292
100
AcDbEntity
8
0
100
AcDbCircle
10
76.076935574001567
20
-85.942919085262702
30
0
40
8.5724999998807689
210
-3.8357928528526242e-31
220
9.1882064883598351e-32
230
1
100
AcDbArc
50
346.5292630034055
51
350.97073717147043
0
ARC
5
293
100
AcDbEntity
8
0
100
AcDbCircle
10
84.802593453601546
20
-88.0330512286627
30
0
40
0.40000008697907141
210
8.2205826318611195e-30
220
-1.9691434772700517e-30
230
1
100
AcDbArc
50
166.52928824922245
51
253.97413400000298
0
LINE
5
294
100
AcDbEntity
8
0
100
AcDbLine
10
85.273772042801554
20
-88.584563539662696
30
0
11
84.692164915093912
21
-88.417506177132708
31
-7.0336651320009994e-33
0
SPLINE
5
295
100
AcDbEntity
8
0
100
AcDbSpline
70
0
71
3
72
8
73
4
74
0
42
0.000000001
43
0.0000000001
44
0.0000000001
40
0
40
0
40
0
40
0
40
1
40
1
40
1
40
1
10
85.720040766101562
20
-88.834443513462702
30
0
10
85.482698664101548
20
-88.667803338962699
30
0
10
85.326619940201567
20
-88.603629814462707
30
0
10
85.273772042801554
20
-88.584563539662696
30
0
0
SPLINE
5
296
100
AcDbEntity
8
0
100
AcDbSpline
70
0
71
3
72
8
73
4
74
0
42
0.000000001
43
0.0000000001
44
0.0000000001
40
0
40
0
40
0
40
0
40
1
40
1
40
1
40
1
10
86.792642322601552
20
-89.924500466462689
30
0
10
86.38472374550156
20
-89.370630670962697
30
0
10
86.001738766301543
20
-89.032996193662683
30
0
10
85.720040766101562
20
-88.834443513462702
30
0
0
ARC
5
297
100
AcDbEntity
8
0
100
AcDbCircle
10
76.076935574001567
20
-85.942919085262702
30
0
40
11.431507399122802
210
3.5858254581952872e-31
220
-1.6429832555292087e-31
230
1
100
AcDbArc
50
335.3833030033602
51
339.61669689410979
0
SPLINE
5
298
100
AcDbEntity
8
0
100
AcDbSpline
70
0
71
3
72
8
73
4
74
0
42
0.000000001
43
0.0000000001
44
0.0000000001
40
0
40
0
40
0
40
0
40
0.99999999456211719
40
0.99999999456211719
40
0.99999999456211719
40
0.99999999456211719
10
84.940257178201563
20
-90.717007627162687
30
0
10
85.279845689154911
20
-90.775800246342996
30
0
10
85.789400589759751
20
-90.807867893813921
30
0
10
86.469487664506858
20
-90.704664799546308
30
0
0
SPLINE
5
299
100
AcDbEntity
8
0
100
AcDbSpline
70
0
71
3
72
8
73
4
74
0
42
0.000000001
43
0.0000000001
44
0.0000000001
40
0
40
0
40
0
40
0
40
1
40
1
40
1
40
1
10
84.448005713801564
20
-90.578139810662691
30
0
10
84.498856712601551
20
-90.602027025062711
30
0
10
84.654598571001557
20
-90.667013814762697
30
0
10
84.940257178201563
20
-90.717007627162687
30
0
0
LINE
5
300
100
AcDbEntity
8
0
100
AcDbLine
10
83.918619978601555
20
-90.285008861962694
30
0
11
84.448005713801564
21
-90.578139810662691
31
0
0
ARC
5
301
100
AcDbEntity
8
0
100
AcDbCircle
10
83.72485404320156
20
-90.634944330062694
30
0
40
0.40000008694474704
210
1.3162874724761172e-39
220
-7.2885345045035109e-40
230
1
100
AcDbArc
50
61.025865562876966
51
148.47070799999977
0
ARC
5
302
100
AcDbEntity
8
0
100
AcDbCircle
10
76.076935574801567
20
-85.942919084662691
30
0
40
8.5724999996206606
210
-0
220
0
230
1
100
AcDbArc
50
324.02926300029662
51
328.47073716558629
0
ARC
5
303
100
AcDbEntity
8
0
100
AcDbCircle
10
83.338533353901568
20
-91.213114099862693
30
0
40
0.40000008695886263
210
0
220
0
230
1
100
AcDbArc
50
144.02928816990018
51
231.47413400000073
0
LINE
5
304
100
AcDbEntity
8
0
100
AcDbLine
10
83.562790984501561
20
-91.902957275662686
30
0
11
83.089386148098967
21
-91.526044985779649
31
0
0
SPLINE
5
305
100
AcDbEntity
8
0
100
AcDbSpline
70
0
71
3
72
8
73
4
74
0
42
0.000000001
43
0.0000000001
44
0.0000000001
40
0
40
0
40
0
40
0
40
1
40
1
40
1
40
1
10
83.87946459790156
20
-92.304595915862691
30
0
10
83.723959521601557
20
-92.059813579062691
30
0
10
83.604319727701565
20
-91.940796231462684
30
0
10
83.562790984501561
20
-91.902957275662686
30
0
0
SPLINE
5
306
100
AcDbEntity
8
0
100
AcDbSpline
70
0
71
3
72
8
73
4
74
0
42
0.000000001
43
0.0000000001
44
0.0000000001
40
5.6393921179123085e-09
40
5.6393921179123085e-09
40
5.6393921179123085e-09
40
5.6393921179123085e-09
40
1
40
1
40
1
40
1
10
84.453272483411581
20
-93.722144057864526
30
0
10
84.288361653868094
20
-93.054331414991438
30
0
10
84.063736792362377
20
-92.595835829220306
30
0
10
83.87946459790156
20
-92.304595915862691
30
0
0
ARC
5
307
100
AcDbEntity
8
0
100
AcDbCircle
10
76.076935574001567
20
-85.942919085262702
30
0
40
11.431507399099988
210
-0
220
0
230
1
100
AcDbArc
50
312.88330300000001
51
317.11669692596411
0
SPLINE
5
308
100
AcDbEntity
8
0
100
AcDbSpline
70
0
71
3
72
8
73
4
74
0
42
0.000000001
43
0.0000000001
44
0.0000000001
40
0
40
0
40
0
40
0
40
0.9999999943606207
40
0.9999999943606207
40
0.9999999943606207
40
0.9999999943606207
10
82.438612404601557
20
-93.745448109162695
30
0
10
82.729852317959143
20
-93.929720303623512
30
0
10
83.188347903730303
20
-94.154345165129229
30
0
10
83.856160546603448
20
-94.319255994672716
30
0
0
SPLINE
5
309
100
AcDbEntity
8
0
100
AcDbSpline
70
0
71
3
72
8
73
4
74
0
42
0.000000001
43
0.0000000001
44
0.0000000001
40
0
40
0
40
0
40
0
40
1
40
1
40
1
40
1
10
82.036973764401552
20
-93.428774495762696
30
0
10
82.07481272020155
20
-93.4703032389627
30
0
10
82.193830067801557
20
-93.589943032862692
30
0
10
82.438612404601557
20
-93.745448109162695
30
0
0
LINE
5
310
100
AcDbEntity
8
0
100
AcDbLine
10
81.660061476401552
20
-92.955369661762703
30
0
11
82.036973764401552
21
-93.428774495762696
31
0
0
ARC
5
311
100
AcDbEntity
8
0
100
AcDbCircle
10
81.347130588601559
20
-93.204516865162702
30
0
40
0.40000008687666211
210
-9.3741881702420647e-40
220
1.1774055604423103e-39
230
1
100
AcDbArc
50
38.525865562760487
51
125.97070799999736
0
ARC
5
312
100
AcDbEntity
8
0
100
AcDbCircle
10
76.07693557340157
20
-85.942919086062687
30
0
40
8.5724999996249451
210
1.0313054130271949e-31
220
-1.6810097245327308e-31
230
1
100
AcDbArc
50
301.52926299955942
51
305.97073717841903
0
ARC
5
313
100
AcDbEntity
8
0
100
AcDbCircle
10
80.76896081880156
20
-93.590837554462695
30
0
40
0.40000008690418709
210
-2.378318460529135e-30
220
3.4994815848657553e-30
230
1
100
AcDbArc
50
121.52928846071913
51
208.97413399999951
0
LINE
5
314
100
AcDbEntity
8
0
100
AcDbLine
10
80.712156299401556
20
-94.313989225062699
30
0
11
80.419025349262398
21
-93.784603487171282
31
-7.8807676469137797e-32
0
SPLINE
5
315
100
AcDbEntity
8
0
100
AcDbSpline
70
0
71
3
72
8
73
4
74
0
42
0.000000001
43
0.0000000001
44
0.0000000001
40
0
40
0
40
0
40
0
40
1
40
1
40
1
40
1
10
80.851024115901552
20
-94.806240689462697
30
0
10
80.801030303501562
20
-94.520582082262692
30
0
10
80.736043513801548
20
-94.3648402238627
30
0
10
80.712156299401556
20
-94.313989225062699
30
0
0
SPLINE
5
316
100
AcDbEntity
8
0
100
AcDbSpline
70
0
71
3
72
8
73
4
74
0
42
0.000000001
43
0.0000000001
44
0.0000000001
40
5.4378864088376248e-09
40
5.4378864088376248e-09
40
5.4378864088376248e-09
40
5.4378864088376248e-09
40
1
40
1
40
1
40
1
10
80.838681288285159
20
-96.335471175767992
30
0
10
80.941884382552814
20
-95.6553841010209
30
0
10
80.909816735081876
20
-95.145829200416046
30
0
10
80.851024115901552
20
-94.806240689462697
30
0
0
ARC
5
317
100
AcDbEntity
8
0
100
AcDbCircle
10
76.076935574001567
20
-85.942919085262702
30
0
40
11.431507399172247
210
-1.8486630495447104e-31
220
-6.8689844803381492e-32
230
1
100
AcDbArc
50
290.38330299665733
51
294.61669692479279
0
SPLINE
5
318
100
AcDbEntity
8
0
100
AcDbSpline
70
0
71
3
72
8
73
4
74
0
42
0.000000001
43
0.0000000001
44
0.0000000001
40
0
40
0
40
0
40
0
40
0.99999999421406427
40
0.99999999421406427
40
0.99999999421406427
40
0.99999999421406427
10
78.968460002201567
20
-95.586024277362696
30
-1.7763568394002505e-14
10
79.167012681252743
20
-95.867722275932834
30
-1.7763568394002505e-14
10
79.504647155794515
20
-96.250707252330841
30
-1.7763568394002505e-14
10
80.058516945587584
20
-96.658625826782128
30
0
0
SPLINE
5
319
100
AcDbEntity
8
0
100
AcDbSpline
70
0
71
3
72
8
73
4
74
0
42
0.000000001
43
0.0000000001
44
0.0000000001
40
0
40
0
40
0
40
0
40
1
40
1
40
1
40
1
10
78.718580028401576
20
-95.139755554062688
30
-1.7763568394002505e-14
10
78.737646303201572
20
-95.192603451462702
30
-1.7763568394002505e-14
10
78.801819827701564
20
-95.348682175362697
30
-1.7763568394002505e-14
10
78.968460002201567
20
-95.586024277362696
30
-1.7763568394002505e-14
0
LINE
5
320
100
AcDbEntity
8
0
100
AcDbLine
10
78.551522665871573
20
-94.558148426355032
30
-1.7763568394002505e-14
11
78.718580028401576
21
-95.139755554062688
31
-1.7763568394002505e-14
0
LWPOLYLINE
5
321
100
AcDbEntity
8
0
100
AcDbPolyline
90
8
70
1
43
0.0
10
-28.867920406791818
20
-16.465480330824654
10
-22.867920406791839
20
-16.465480330824665
10
-22.625355172574977
20
-22.86548033082466
10
-20.867920406791825
20
-22.86548033082466
10
-20.867920406791846
20
-25.865480330824667
10
-30.867920406791846
20
-25.865480330824649
10
-30.867920406791846
20
-22.865480330824642
10
-29.110485641008729
20
-22.86548033082466
0
LWPOLYLINE
5
322
100
AcDbEntity
8
0
100
AcDbPolyline
90
8
70
1
43
0.0
10
-33.514604148863413
20
-25.711817934494174
10
-39.514604148863391
20
-25.71181793449416
10
-39.757169383080246
20
-19.311817934494169
10
-41.514604148863398
20
-19.311817934494169
10
-41.514604148863377
20
-16.311817934494162
10
-31.514604148863384
20
-16.311817934494179
10
-31.514604148863384
20
-19.311817934494186
10
-33.272038914646508
20
-19.311817934494169
0
LWPOLYLINE
5
323
100
AcDbEntity
8
0
100
AcDbPolyline
90
8
70
1
43
0.0
10
-49.867920406791811
20
-16.465480330824654
10
-43.867920406791832
20
-16.465480330824665
10
-43.625355172574977
20
-22.86548033082466
10
-41.867920406791825
20
-22.86548033082466
10
-41.867920406791839
20
-25.865480330824667
10
-51.867920406791839
20
-25.865480330824649
10
-51.867920406791839
20
-22.865480330824642
10
-50.110485641008722
20
-22.86548033082466
0
LWPOLYLINE
5
324
100
AcDbEntity
8
0
100
AcDbPolyline
90
8
70
1
43
0.0
10
-53.514604148863405
20
-25.711817934494174
10
-59.514604148863384
20
-25.71181793449416
10
-59.757169383080246
20
-19.311817934494169
10
-61.514604148863398
20
-19.311817934494169
10
-61.514604148863377
20
-16.311817934494162
10
-51.514604148863377
20
-16.311817934494179
10
-51.514604148863377
20
-19.311817934494186
10
-53.272038914646501
20
-19.311817934494169
0
CIRCLE
5
325
100
AcDbEntity
8
0
100
AcDbCircle
10
-71.393398651075046
20
-78.265929448296333
30
0
40
3.1000000000000005
210
0
220
-0
230
1
0
LWPOLYLINE
5
326
100
AcDbEntity
8
0
100
AcDbPolyline
90
4
70
1
43
0.0
10
-69.793398651075066
20
-126.79926278162225
10
-72.993398651075054
20
-126.79926278162228
10
-72.993398651075054
20
-112.39926278162224
10
-69.793398651075066
20
-112.39926278162224
0
CIRCLE
5
327
100
AcDbEntity
8
0
100
AcDbCircle
10
-71.393398651075046
20
-23.265929448296365
30
0
40
1.6000000000000014
210
0
220
-0
230
1
0
LWPOLYLINE
5
328
100
AcDbEntity
8
0
100
AcDbPolyline
90
4
70
1
43
0.0
10
-69.793398651075051
20
-29.732596114970434
10
-69.793398651075051
20
-44.132596114970433
10
-72.993398651075054
20
-44.132596114970454
10
-72.993398651075054
20
-29.732596114970402
0
LWPOLYLINE
5
329
100
AcDbEntity
8
0
100
AcDbPolyline
90
4
70
1
43
0.0
10
-63.893398651075074
20
-140.2659294482963
10
-78.89339865107506
20
-140.26592944829628
10
-78.893398651075046
20
-16.265929448296355
10
-63.893398651075046
20
-16.265929448296333
0
CIRCLE
5
330
100
AcDbEntity
8
0
100
AcDbCircle
10
-88.238791526898908
20
-86.931536948176955
30
1.7763568394002505e-14
40
3.1000000000000005
210
0
220
0
230
1
0
CIRCLE
5
331
100
AcDbEntity
8
0
100
AcDbCircle
10
-88.238791526898908
20
-136.93153694817696
30
1.7763568394002505e-14
40
3.1000000000000005
210
0
220
0
230
1
0
CIRCLE
5
332
100
AcDbEntity
8
0
100
AcDbCircle
10
-88.238791526898908
20
-36.931536948176955
30
1.7763568394002505e-14
40
4
210
0
220
0
230
1
0
LWPOLYLINE
5
333
100
AcDbEntity
8
0
100
AcDbPolyline
90
4
70
1
43
0.0
10
-80.738791526898908
20
-16.931536948176884
10
-80.738791526898908
20
-156.9315369481767
10
-95.738791526898922
20
-156.93153694817687
10
-95.738791526898908
20
-16.931536948176884
0
CIRCLE
5
334
100
AcDbEntity
8
0
100
AcDbCircle
10
-71.171860687492739
20
-215.89807152847391
30
0
40
3.1000000000000005
210
0
220
0
230
1
0
CIRCLE
5
335
100
AcDbEntity
8
0
100
AcDbCircle
10
-71.171860687492739
20
-265.89807152847391
30
0
40
3.1000000000000005
210
0
220
0
230
1
0
CIRCLE
5
336
100
AcDbEntity
8
0
100
AcDbCircle
10
-71.171860687492739
20
-165.89807152847391
30
0
40
4
210
0
220
0
230
1
0
LWPOLYLINE
5
337
100
AcDbEntity
8
0
100
AcDbPolyline
90
4
70
1
43
0.0
10
-63.67186068749276
20
-145.89807152847385
10
-63.67186068749276
20
-285.89807152847368
10
-78.671860687492781
20
-285.89807152847385
10
-78.671860687492753
20
-145.89807152847385
0
CIRCLE
5
338
100
AcDbEntity
8
0
100
AcDbCircle
10
-88.545027978100777
20
-223.98530605725716
30
0
40
3.1000000000000005
210
0
220
-0
230
1
0
LWPOLYLINE
5
339
100
AcDbEntity
8
0
100
AcDbPolyline
90
4
70
1
43
0.0
10
-90.145027978100799
20
-175.45197272393128
10
-86.945027978100811
20
-175.45197272393125
10
-86.945027978100796
20
-189.85197272393125
10
-90.145027978100785
20
-189.85197272393125
0
CIRCLE
5
340
100
AcDbEntity
8
0
100
AcDbCircle
10
-88.545027978100777
20
-278.98530605725716
30
0
40
1.6000000000000014
210
0
220
-0
230
1
0
LWPOLYLINE
5
341
100
AcDbEntity
8
0
100
AcDbPolyline
90
4
70
1
43
0.0
10
-90.145027978100757
20
-272.51863939058308
10
-90.145027978100757
20
-258.1186393905831
10
-86.945027978100768
20
-258.11863939058304
10
-86.945027978100754
20
-272.51863939058308
0
LWPOLYLINE
5
342
100
AcDbEntity
8
0
100
AcDbPolyline
90
4
70
1
43
0.0
10
-81.045027978100791
20
-161.98530605725722
10
-96.045027978100791
20
-161.98530605725722
10
-96.045027978100762
20
-285.98530605725722
10
-81.045027978100762
20
-285.98530605725722
0
ENDSEC
0
SECTION
2
OBJECTS
0
DICTIONARY
5
C
100
AcDbDictionary
3
ACAD_GROUP
350
D
3
ACAD_MLINESTYLE
350
17
0
DICTIONARY
5
D
100
AcDbDictionary
0
DICTIONARY
5
1A
330
C
100
AcDbDictionary
0
DICTIONARY
5
17
100
AcDbDictionary
0
ENDSEC
0
EOF
